ISO-10303-21;
HEADER;
/* Generated by software containing ST-Developer
 * from STEP Tools, Inc. (www.steptools.com) 
 */
/* OPTION: strings as raw bytes, not using required /X/ escapes */

FILE_DESCRIPTION(
/* description */ ('Unknown'),
/* implementation_level */ '2;1');

FILE_NAME(
/* name */ 'entretoise poulie moteur',
/* time_stamp */ '2019-05-21T15:54:21+02:00',
/* author */ ('Unknown'),
/* organization */ ('Unknown'),
/* preprocessor_version */ 'ST-DEVELOPER v16.7',
/* originating_system */ 'DEX',
/* authorisation */ $);

FILE_SCHEMA (('AUTOMOTIVE_DESIGN {1 0 10303 214 3 1 1}'));
ENDSEC;

DATA;
#10=PROPERTY_DEFINITION_REPRESENTATION(#14,#12);
#11=PROPERTY_DEFINITION_REPRESENTATION(#15,#13);
#12=REPRESENTATION('',(#16),#313);
#13=REPRESENTATION('',(#17),#313);
#14=PROPERTY_DEFINITION('pmi validation property','',#318);
#15=PROPERTY_DEFINITION('pmi validation property','',#318);
#16=VALUE_REPRESENTATION_ITEM('number of annotations',COUNT_MEASURE(0.));
#17=VALUE_REPRESENTATION_ITEM('number of views',COUNT_MEASURE(0.));
#18=SHAPE_REPRESENTATION_RELATIONSHIP('','',#188,#19);
#19=ADVANCED_BREP_SHAPE_REPRESENTATION('',(#186),#313);
#20=B_SPLINE_CURVE_WITH_KNOTS('',3,(#286,#287,#288,#289),.UNSPECIFIED.,
 .F.,.F.,(4,4),(0.013352561523177,0.0140735987624829),.UNSPECIFIED.);
#21=B_SPLINE_CURVE_WITH_KNOTS('',3,(#290,#291,#292,#293),.UNSPECIFIED.,
 .F.,.F.,(4,4),(0.00784954654364616,0.00857051715602921),.UNSPECIFIED.);
#22=B_SPLINE_CURVE_WITH_KNOTS('',3,(#295,#296,#297,#298),.UNSPECIFIED.,
 .F.,.F.,(4,4),(0.00784954654364616,0.00857051715602921),.UNSPECIFIED.);
#23=B_SPLINE_CURVE_WITH_KNOTS('',3,(#299,#300,#301,#302),.UNSPECIFIED.,
 .F.,.F.,(4,4),(0.013352561523177,0.0140735987624829),.UNSPECIFIED.);
#24=CONICAL_SURFACE('',#199,12.45,0.785398163397448);
#25=CONICAL_SURFACE('',#200,12.95,0.785398163397448);
#26=CONICAL_SURFACE('',#203,15.5,0.785398163397448);
#27=CYLINDRICAL_SURFACE('',#193,12.45);
#28=CYLINDRICAL_SURFACE('',#201,17.5);
#29=LINE('',#260,#39);
#30=LINE('',#262,#40);
#31=LINE('',#264,#41);
#32=LINE('',#269,#42);
#33=LINE('',#273,#43);
#34=LINE('',#277,#44);
#35=LINE('',#280,#45);
#36=LINE('',#284,#46);
#37=LINE('',#308,#47);
#38=LINE('',#309,#48);
#39=VECTOR('',#215,1000.);
#40=VECTOR('',#216,1000.);
#41=VECTOR('',#217,1000.);
#42=VECTOR('',#222,1000.);
#43=VECTOR('',#225,1000.);
#44=VECTOR('',#230,1000.);
#45=VECTOR('',#231,1000.);
#46=VECTOR('',#234,1000.);
#47=VECTOR('',#247,1000.);
#48=VECTOR('',#248,1000.);
#49=ORIENTED_EDGE('',*,*,#91,.F.);
#50=ORIENTED_EDGE('',*,*,#92,.T.);
#51=ORIENTED_EDGE('',*,*,#93,.T.);
#52=ORIENTED_EDGE('',*,*,#94,.T.);
#53=ORIENTED_EDGE('',*,*,#95,.T.);
#54=ORIENTED_EDGE('',*,*,#96,.T.);
#55=ORIENTED_EDGE('',*,*,#97,.T.);
#56=ORIENTED_EDGE('',*,*,#98,.T.);
#57=ORIENTED_EDGE('',*,*,#99,.T.);
#58=ORIENTED_EDGE('',*,*,#100,.T.);
#59=ORIENTED_EDGE('',*,*,#101,.T.);
#60=ORIENTED_EDGE('',*,*,#102,.T.);
#61=ORIENTED_EDGE('',*,*,#103,.T.);
#62=ORIENTED_EDGE('',*,*,#104,.T.);
#63=ORIENTED_EDGE('',*,*,#103,.F.);
#64=ORIENTED_EDGE('',*,*,#105,.T.);
#65=ORIENTED_EDGE('',*,*,#96,.F.);
#66=ORIENTED_EDGE('',*,*,#106,.T.);
#67=ORIENTED_EDGE('',*,*,#98,.F.);
#68=ORIENTED_EDGE('',*,*,#107,.T.);
#69=ORIENTED_EDGE('',*,*,#92,.F.);
#70=ORIENTED_EDGE('',*,*,#108,.T.);
#71=ORIENTED_EDGE('',*,*,#109,.T.);
#72=ORIENTED_EDGE('',*,*,#91,.T.);
#73=ORIENTED_EDGE('',*,*,#109,.F.);
#74=ORIENTED_EDGE('',*,*,#100,.F.);
#75=ORIENTED_EDGE('',*,*,#110,.T.);
#76=ORIENTED_EDGE('',*,*,#101,.F.);
#77=ORIENTED_EDGE('',*,*,#111,.F.);
#78=ORIENTED_EDGE('',*,*,#94,.F.);
#79=ORIENTED_EDGE('',*,*,#102,.F.);
#80=ORIENTED_EDGE('',*,*,#110,.F.);
#81=ORIENTED_EDGE('',*,*,#93,.F.);
#82=ORIENTED_EDGE('',*,*,#107,.F.);
#83=ORIENTED_EDGE('',*,*,#97,.F.);
#84=ORIENTED_EDGE('',*,*,#105,.F.);
#85=ORIENTED_EDGE('',*,*,#99,.F.);
#86=ORIENTED_EDGE('',*,*,#108,.F.);
#87=ORIENTED_EDGE('',*,*,#95,.F.);
#88=ORIENTED_EDGE('',*,*,#111,.T.);
#89=ORIENTED_EDGE('',*,*,#104,.F.);
#90=ORIENTED_EDGE('',*,*,#106,.F.);
#91=EDGE_CURVE('',#112,#112,#127,.T.);
#92=EDGE_CURVE('',#113,#114,#128,.F.);
#93=EDGE_CURVE('',#114,#115,#29,.T.);
#94=EDGE_CURVE('',#115,#116,#30,.T.);
#95=EDGE_CURVE('',#116,#113,#31,.T.);
#96=EDGE_CURVE('',#117,#118,#129,.T.);
#97=EDGE_CURVE('',#118,#119,#32,.F.);
#98=EDGE_CURVE('',#119,#120,#130,.T.);
#99=EDGE_CURVE('',#120,#117,#33,.T.);
#100=EDGE_CURVE('',#121,#121,#131,.T.);
#101=EDGE_CURVE('',#122,#123,#34,.T.);
#102=EDGE_CURVE('',#123,#124,#35,.T.);
#103=EDGE_CURVE('',#124,#125,#132,.F.);
#104=EDGE_CURVE('',#125,#122,#36,.T.);
#105=EDGE_CURVE('',#124,#118,#20,.T.);
#106=EDGE_CURVE('',#117,#125,#21,.T.);
#107=EDGE_CURVE('',#119,#114,#22,.T.);
#108=EDGE_CURVE('',#113,#120,#23,.T.);
#109=EDGE_CURVE('',#126,#126,#133,.F.);
#110=EDGE_CURVE('',#115,#123,#37,.T.);
#111=EDGE_CURVE('',#116,#122,#38,.T.);
#112=VERTEX_POINT('',#256);
#113=VERTEX_POINT('',#258);
#114=VERTEX_POINT('',#259);
#115=VERTEX_POINT('',#261);
#116=VERTEX_POINT('',#263);
#117=VERTEX_POINT('',#267);
#118=VERTEX_POINT('',#268);
#119=VERTEX_POINT('',#270);
#120=VERTEX_POINT('',#272);
#121=VERTEX_POINT('',#276);
#122=VERTEX_POINT('',#278);
#123=VERTEX_POINT('',#279);
#124=VERTEX_POINT('',#281);
#125=VERTEX_POINT('',#283);
#126=VERTEX_POINT('',#305);
#127=CIRCLE('',#191,17.5);
#128=CIRCLE('',#192,12.95);
#129=CIRCLE('',#194,12.45);
#130=CIRCLE('',#195,12.45);
#131=CIRCLE('',#197,15.5);
#132=CIRCLE('',#198,12.95);
#133=CIRCLE('',#202,17.5);
#134=EDGE_LOOP('',(#49));
#135=EDGE_LOOP('',(#50,#51,#52,#53));
#136=EDGE_LOOP('',(#54,#55,#56,#57));
#137=EDGE_LOOP('',(#58));
#138=EDGE_LOOP('',(#59,#60,#61,#62));
#139=EDGE_LOOP('',(#63,#64,#65,#66));
#140=EDGE_LOOP('',(#67,#68,#69,#70));
#141=EDGE_LOOP('',(#71));
#142=EDGE_LOOP('',(#72));
#143=EDGE_LOOP('',(#73));
#144=EDGE_LOOP('',(#74));
#145=EDGE_LOOP('',(#75,#76,#77,#78));
#146=EDGE_LOOP('',(#79,#80,#81,#82,#83,#84));
#147=EDGE_LOOP('',(#85,#86,#87,#88,#89,#90));
#148=FACE_BOUND('',#134,.T.);
#149=FACE_BOUND('',#135,.T.);
#150=FACE_BOUND('',#136,.T.);
#151=FACE_BOUND('',#137,.T.);
#152=FACE_BOUND('',#138,.T.);
#153=FACE_BOUND('',#139,.T.);
#154=FACE_BOUND('',#140,.T.);
#155=FACE_BOUND('',#141,.T.);
#156=FACE_BOUND('',#142,.T.);
#157=FACE_BOUND('',#143,.T.);
#158=FACE_BOUND('',#144,.T.);
#159=FACE_BOUND('',#145,.T.);
#160=FACE_BOUND('',#146,.T.);
#161=FACE_BOUND('',#147,.T.);
#162=PLANE('',#190);
#163=PLANE('',#196);
#164=PLANE('',#204);
#165=PLANE('',#205);
#166=PLANE('',#206);
#167=ADVANCED_FACE('',(#148,#149),#162,.T.);
#168=ADVANCED_FACE('',(#150),#27,.F.);
#169=ADVANCED_FACE('',(#151,#152),#163,.T.);
#170=ADVANCED_FACE('',(#153),#24,.F.);
#171=ADVANCED_FACE('',(#154),#25,.F.);
#172=ADVANCED_FACE('',(#155,#156),#28,.T.);
#173=ADVANCED_FACE('',(#157,#158),#26,.T.);
#174=ADVANCED_FACE('',(#159),#164,.T.);
#175=ADVANCED_FACE('',(#160),#165,.T.);
#176=ADVANCED_FACE('',(#161),#166,.T.);
#177=CLOSED_SHELL('',(#167,#168,#169,#170,#171,#172,#173,#174,#175,#176));
#178=STYLED_ITEM('',(#179),#186);
#179=PRESENTATION_STYLE_ASSIGNMENT((#180));
#180=SURFACE_STYLE_USAGE(.BOTH.,#181);
#181=SURFACE_SIDE_STYLE('',(#182));
#182=SURFACE_STYLE_FILL_AREA(#183);
#183=FILL_AREA_STYLE('',(#184));
#184=FILL_AREA_STYLE_COLOUR('',#185);
#185=COLOUR_RGB('',0.331739127635956,0.340869575738907,0.349999994039536);
#186=MANIFOLD_SOLID_BREP('',#177);
#187=SHAPE_DEFINITION_REPRESENTATION(#318,#188);
#188=SHAPE_REPRESENTATION('entretoise poulie moteur',(#189),#313);
#189=AXIS2_PLACEMENT_3D('',#253,#207,#208);
#190=AXIS2_PLACEMENT_3D('',#254,#209,#210);
#191=AXIS2_PLACEMENT_3D('',#255,#211,#212);
#192=AXIS2_PLACEMENT_3D('',#257,#213,#214);
#193=AXIS2_PLACEMENT_3D('',#265,#218,#219);
#194=AXIS2_PLACEMENT_3D('',#266,#220,#221);
#195=AXIS2_PLACEMENT_3D('',#271,#223,#224);
#196=AXIS2_PLACEMENT_3D('',#274,#226,#227);
#197=AXIS2_PLACEMENT_3D('',#275,#228,#229);
#198=AXIS2_PLACEMENT_3D('',#282,#232,#233);
#199=AXIS2_PLACEMENT_3D('',#285,#235,#236);
#200=AXIS2_PLACEMENT_3D('',#294,#237,#238);
#201=AXIS2_PLACEMENT_3D('',#303,#239,#240);
#202=AXIS2_PLACEMENT_3D('',#304,#241,#242);
#203=AXIS2_PLACEMENT_3D('',#306,#243,#244);
#204=AXIS2_PLACEMENT_3D('',#307,#245,#246);
#205=AXIS2_PLACEMENT_3D('',#310,#249,#250);
#206=AXIS2_PLACEMENT_3D('',#311,#251,#252);
#207=DIRECTION('',(0.,0.,1.));
#208=DIRECTION('',(1.,0.,0.));
#209=DIRECTION('',(6.12303176911189E-17,1.,0.));
#210=DIRECTION('',(-1.,6.12303176911189E-17,0.));
#211=DIRECTION('',(-6.12303176911189E-17,-1.,0.));
#212=DIRECTION('',(1.,-6.12303176911189E-17,0.));
#213=DIRECTION('',(6.12303176911189E-17,1.,0.));
#214=DIRECTION('',(-1.,6.12303176911189E-17,0.));
#215=DIRECTION('',(0.,0.,1.));
#216=DIRECTION('',(-1.,6.12303176911189E-17,0.));
#217=DIRECTION('',(0.,0.,-1.));
#218=DIRECTION('',(-6.12303176911189E-17,-1.,0.));
#219=DIRECTION('',(1.,-6.12303176911189E-17,0.));
#220=DIRECTION('',(-6.12303176911188E-17,-1.,0.));
#221=DIRECTION('',(1.,-6.12303176911188E-17,0.));
#222=DIRECTION('',(-6.12303176911189E-17,-1.,0.));
#223=DIRECTION('',(6.12303176911188E-17,1.,0.));
#224=DIRECTION('',(-1.,6.12303176911188E-17,0.));
#225=DIRECTION('',(-6.12303176911189E-17,-1.,0.));
#226=DIRECTION('',(-6.12303176911189E-17,-1.,0.));
#227=DIRECTION('',(1.,-6.12303176911189E-17,0.));
#228=DIRECTION('',(-6.12303176911189E-17,-1.,0.));
#229=DIRECTION('',(1.,-6.12303176911189E-17,0.));
#230=DIRECTION('',(1.,-1.11917643611407E-16,0.));
#231=DIRECTION('',(0.,0.,-1.));
#232=DIRECTION('',(-6.12303176911189E-17,-1.,0.));
#233=DIRECTION('',(1.,-6.12303176911189E-17,0.));
#234=DIRECTION('',(0.,0.,1.));
#235=DIRECTION('',(-6.12303176911188E-17,-1.,0.));
#236=DIRECTION('',(1.,-6.12303176911188E-17,0.));
#237=DIRECTION('',(6.12303176911188E-17,1.,0.));
#238=DIRECTION('',(-1.,6.12303176911188E-17,0.));
#239=DIRECTION('',(-6.12303176911189E-17,-1.,0.));
#240=DIRECTION('',(1.,-6.12303176911189E-17,0.));
#241=DIRECTION('',(-6.12303176911188E-17,-1.,0.));
#242=DIRECTION('',(1.,-6.12303176911188E-17,0.));
#243=DIRECTION('',(6.12303176911188E-17,1.,0.));
#244=DIRECTION('',(-1.,6.12303176911188E-17,0.));
#245=DIRECTION('',(0.,0.,-1.));
#246=DIRECTION('',(-1.,0.,0.));
#247=DIRECTION('',(-6.12303176911189E-17,-1.,0.));
#248=DIRECTION('',(-6.12303176911189E-17,-1.,0.));
#249=DIRECTION('',(-1.,6.12303176911189E-17,0.));
#250=DIRECTION('',(-6.12303176911189E-17,-1.,0.));
#251=DIRECTION('',(1.,-6.12303176911189E-17,0.));
#252=DIRECTION('',(6.12303176911189E-17,1.,0.));
#253=CARTESIAN_POINT('',(0.,0.,0.));
#254=CARTESIAN_POINT('',(1.53075794227797E-15,25.,17.5));
#255=CARTESIAN_POINT('',(1.53075794227797E-15,25.,0.));
#256=CARTESIAN_POINT('',(17.5,25.,0.));
#257=CARTESIAN_POINT('',(1.53075794227797E-15,25.,0.));
#258=CARTESIAN_POINT('',(-3.45,25.,12.4819870213039));
#259=CARTESIAN_POINT('',(3.45000000000001,25.,12.4819870213039));
#260=CARTESIAN_POINT('',(3.45000000000001,25.,17.5));
#261=CARTESIAN_POINT('',(3.45000000000001,25.,15.));
#262=CARTESIAN_POINT('',(1.53075794227797E-15,25.,15.));
#263=CARTESIAN_POINT('',(-3.45,25.,15.));
#264=CARTESIAN_POINT('',(-3.45,25.,17.5));
#265=CARTESIAN_POINT('',(0.,0.,0.));
#266=CARTESIAN_POINT('',(-1.50014278343241E-15,-24.5,0.));
#267=CARTESIAN_POINT('',(-3.45,-24.5,11.9624412224261));
#268=CARTESIAN_POINT('',(3.45,-24.5,11.9624412224261));
#269=CARTESIAN_POINT('',(3.45000000000001,-2.1124459603436E-16,11.9624412224261));
#270=CARTESIAN_POINT('',(3.45000000000001,24.5,11.9624412224261));
#271=CARTESIAN_POINT('',(1.50014278343241E-15,24.5,0.));
#272=CARTESIAN_POINT('',(-3.45,24.5,11.9624412224261));
#273=CARTESIAN_POINT('',(-3.45,2.1124459603436E-16,11.9624412224261));
#274=CARTESIAN_POINT('',(-1.53075794227797E-15,-25.,12.45));
#275=CARTESIAN_POINT('',(-1.53075794227797E-15,-25.,0.));
#276=CARTESIAN_POINT('',(15.5,-25.,0.));
#277=CARTESIAN_POINT('',(-3.45,-25.,15.));
#278=CARTESIAN_POINT('',(-3.45,-25.,15.));
#279=CARTESIAN_POINT('',(3.45,-25.,15.));
#280=CARTESIAN_POINT('',(3.45,-25.,15.));
#281=CARTESIAN_POINT('',(3.45,-25.,12.4819870213039));
#282=CARTESIAN_POINT('',(-1.53075794227797E-15,-25.,0.));
#283=CARTESIAN_POINT('',(-3.45,-25.,12.4819870213039));
#284=CARTESIAN_POINT('',(-3.45,-25.,-7.89897185450043E-16));
#285=CARTESIAN_POINT('',(-1.50014278343241E-15,-24.5,0.));
#286=CARTESIAN_POINT('',(3.45,-25.,12.4819870213039));
#287=CARTESIAN_POINT('',(3.45,-24.8332013040703,12.3089341965732));
#288=CARTESIAN_POINT('',(3.45,-24.6665291258305,12.1357576532482));
#289=CARTESIAN_POINT('',(3.45,-24.5,11.9624412224261));
#290=CARTESIAN_POINT('',(-3.45,-24.5,11.9624412224261));
#291=CARTESIAN_POINT('',(-3.45,-24.6665291258305,12.1357576532482));
#292=CARTESIAN_POINT('',(-3.45,-24.8332013040703,12.3089341965732));
#293=CARTESIAN_POINT('',(-3.45,-25.,12.4819870213039));
#294=CARTESIAN_POINT('',(1.53075794227797E-15,25.,0.));
#295=CARTESIAN_POINT('',(3.45000000000001,24.5,11.9624412224261));
#296=CARTESIAN_POINT('',(3.45000000000001,24.6665291258305,12.1357576532482));
#297=CARTESIAN_POINT('',(3.45000000000001,24.8332013040703,12.3089341965732));
#298=CARTESIAN_POINT('',(3.45000000000001,25.,12.4819870213039));
#299=CARTESIAN_POINT('',(-3.45,25.,12.4819870213039));
#300=CARTESIAN_POINT('',(-3.45,24.8332013040703,12.3089341965732));
#301=CARTESIAN_POINT('',(-3.45,24.6665291258305,12.1357576532482));
#302=CARTESIAN_POINT('',(-3.45,24.5,11.9624412224261));
#303=CARTESIAN_POINT('',(0.,0.,0.));
#304=CARTESIAN_POINT('',(-1.40829730689573E-15,-23.,0.));
#305=CARTESIAN_POINT('',(17.5,-23.,0.));
#306=CARTESIAN_POINT('',(-1.53075794227797E-15,-25.,0.));
#307=CARTESIAN_POINT('',(-3.45,45.3562363973514,15.));
#308=CARTESIAN_POINT('',(3.45000000000001,45.3562363973514,15.));
#309=CARTESIAN_POINT('',(-3.45,45.3562363973514,15.));
#310=CARTESIAN_POINT('',(3.45000000000001,45.3562363973514,15.));
#311=CARTESIAN_POINT('',(-3.45,45.3562363973514,-7.89897185450043E-16));
#312=MECHANICAL_DESIGN_GEOMETRIC_PRESENTATION_REPRESENTATION('',(#178),
#313);
#313=(
GEOMETRIC_REPRESENTATION_CONTEXT(3)
GLOBAL_UNCERTAINTY_ASSIGNED_CONTEXT((#314))
GLOBAL_UNIT_ASSIGNED_CONTEXT((#317,#316,#315))
REPRESENTATION_CONTEXT('entretoise poulie moteur',
'TOP_LEVEL_ASSEMBLY_PART')
);
#314=UNCERTAINTY_MEASURE_WITH_UNIT(LENGTH_MEASURE(0.005),#317,
'DISTANCE_ACCURACY_VALUE','Maximum Tolerance applied to model');
#315=(
NAMED_UNIT(*)
SI_UNIT($,.STERADIAN.)
SOLID_ANGLE_UNIT()
);
#316=(
NAMED_UNIT(*)
PLANE_ANGLE_UNIT()
SI_UNIT($,.RADIAN.)
);
#317=(
LENGTH_UNIT()
NAMED_UNIT(*)
SI_UNIT(.MILLI.,.METRE.)
);
#318=PRODUCT_DEFINITION_SHAPE('','',#319);
#319=PRODUCT_DEFINITION('','',#321,#320);
#320=PRODUCT_DEFINITION_CONTEXT('',#327,'design');
#321=PRODUCT_DEFINITION_FORMATION_WITH_SPECIFIED_SOURCE('','',#323,
 .NOT_KNOWN.);
#322=PRODUCT_RELATED_PRODUCT_CATEGORY('','',(#323));
#323=PRODUCT('entretoise poulie moteur','entretoise poulie moteur',
'entretoise poulie moteur',(#325));
#324=PRODUCT_CATEGORY('','');
#325=PRODUCT_CONTEXT('',#327,'mechanical');
#326=APPLICATION_PROTOCOL_DEFINITION('international standard',
'automotive_design',2010,#327);
#327=APPLICATION_CONTEXT(
'core data for automotive mechanical design processes');
ENDSEC;
END-ISO-10303-21;
