ISO-10303-21;
HEADER;
FILE_DESCRIPTION(('CATIA V5 STEP Exchange'),'2;1');

FILE_NAME('C:\\Users\\Guillaume\\Desktop\\PlatAeroSpike.stp','2019-05-11T16:14:20+00:00',('none'),('none'),'CATIA Version 5 Release 21 GA (IN-10)','CATIA V5 STEP AP203','none');

FILE_SCHEMA(('CONFIG_CONTROL_DESIGN'));

ENDSEC;
/* file written by CATIA V5R21 */
DATA;
#5=PRODUCT('PlatAeroSpike','','',(#2)) ;
#1=APPLICATION_CONTEXT('configuration controlled 3D design of mechanical parts and assemblies') ;
#14=PRODUCT_DEFINITION('',' ',#6,#3) ;
#16=SECURITY_CLASSIFICATION(' ',' ',#15) ;
#15=SECURITY_CLASSIFICATION_LEVEL('unclassified') ;
#47=CARTESIAN_POINT(' ',(0.,0.,0.)) ;
#52=CARTESIAN_POINT('Axis2P3D Location',(0.,-5.,-9.)) ;
#57=CARTESIAN_POINT('Axis2P3D Location',(0.,0.,-9.)) ;
#61=CARTESIAN_POINT('Vertex',(-3.5,-5.09154892726E-015,-9.)) ;
#63=CARTESIAN_POINT('Vertex',(3.5,7.07447338558E-015,-9.)) ;
#66=CARTESIAN_POINT('Axis2P3D Location',(0.,0.,-9.)) ;
#76=CARTESIAN_POINT('Axis2P3D Location',(0.,0.,-8.881784197E-016)) ;
#81=CARTESIAN_POINT('Axis2P3D Location',(0.,0.,5.)) ;
#85=CARTESIAN_POINT('Vertex',(4.79425538604,-8.7758256189,5.)) ;
#87=CARTESIAN_POINT('Vertex',(-4.79425538604,8.7758256189,5.)) ;
#90=CARTESIAN_POINT('Line Origine',(3.59569153953,-6.58186921418,2.5)) ;
#94=CARTESIAN_POINT('Vertex',(2.39712769302,-4.38791280945,-8.881784197E-016)) ;
#97=CARTESIAN_POINT('Axis2P3D Location',(0.,0.,-8.881784197E-016)) ;
#101=CARTESIAN_POINT('Vertex',(-2.39712769302,4.38791280945,-8.881784197E-016)) ;
#104=CARTESIAN_POINT('Line Origine',(-3.59569153953,6.58186921418,2.5)) ;
#116=CARTESIAN_POINT('Axis2P3D Location',(0.,0.,5.)) ;
#121=CARTESIAN_POINT('Axis2P3D Location',(0.,0.,5.)) ;
#131=CARTESIAN_POINT('Axis2P3D Location',(0.,0.,-8.881784197E-016)) ;
#143=CARTESIAN_POINT('Axis2P3D Location',(0.,0.,-4.5)) ;
#148=CARTESIAN_POINT('Axis2P3D Location',(0.,0.,0.)) ;
#152=CARTESIAN_POINT('Vertex',(-3.5,-4.28612223838E-016,0.)) ;
#154=CARTESIAN_POINT('Vertex',(3.5,-8.57224447676E-016,0.)) ;
#157=CARTESIAN_POINT('Line Origine',(3.5,8.57224447676E-016,-4.5)) ;
#162=CARTESIAN_POINT('Line Origine',(-3.5,-4.28612223838E-016,-4.5)) ;
#174=CARTESIAN_POINT('Axis2P3D Location',(0.,0.,-4.5)) ;
#179=CARTESIAN_POINT('Axis2P3D Location',(0.,0.,0.)) ;
#191=CARTESIAN_POINT('Axis2P3D Location',(0.,0.,0.)) ;
#53=DIRECTION('Axis2P3D Direction',(0.,0.,1.)) ;
#54=DIRECTION('Axis2P3D XDirection',(1.,0.,0.)) ;
#58=DIRECTION('Axis2P3D Direction',(0.,0.,1.)) ;
#67=DIRECTION('Axis2P3D Direction',(0.,0.,1.)) ;
#77=DIRECTION('Axis2P3D Direction',(0.,0.,1.)) ;
#78=DIRECTION('Axis2P3D XDirection',(0.479425538604,-0.87758256189,0.)) ;
#82=DIRECTION('Axis2P3D Direction',(0.,0.,1.)) ;
#91=DIRECTION('Vector Direction',(0.339005049421,-0.620544580564,0.707106781187)) ;
#98=DIRECTION('Axis2P3D Direction',(0.,0.,1.)) ;
#105=DIRECTION('Vector Direction',(-0.339005049421,0.620544580564,0.707106781187)) ;
#117=DIRECTION('Axis2P3D Direction',(0.,0.,1.)) ;
#118=DIRECTION('Axis2P3D XDirection',(1.,0.,0.)) ;
#122=DIRECTION('Axis2P3D Direction',(0.,0.,1.)) ;
#132=DIRECTION('Axis2P3D Direction',(0.,0.,1.)) ;
#144=DIRECTION('Axis2P3D Direction',(0.,0.,-1.)) ;
#145=DIRECTION('Axis2P3D XDirection',(-1.,-1.22460635382E-016,0.)) ;
#149=DIRECTION('Axis2P3D Direction',(0.,0.,-1.)) ;
#158=DIRECTION('Vector Direction',(0.,0.,-1.)) ;
#163=DIRECTION('Vector Direction',(0.,0.,-1.)) ;
#175=DIRECTION('Axis2P3D Direction',(0.,0.,-1.)) ;
#176=DIRECTION('Axis2P3D XDirection',(1.,-2.44921270764E-016,0.)) ;
#180=DIRECTION('Axis2P3D Direction',(0.,0.,-1.)) ;
#192=DIRECTION('Axis2P3D Direction',(0.,0.,-1.)) ;
#193=DIRECTION('Axis2P3D XDirection',(1.,0.,0.)) ;
#48=AXIS2_PLACEMENT_3D(' ',#47,$,$) ;
#55=AXIS2_PLACEMENT_3D('Plane Axis2P3D',#52,#53,#54) ;
#59=AXIS2_PLACEMENT_3D('Circle Axis2P3D',#57,#58,$) ;
#68=AXIS2_PLACEMENT_3D('Circle Axis2P3D',#66,#67,$) ;
#79=AXIS2_PLACEMENT_3D('Cone Axis2P3D',#76,#77,#78) ;
#83=AXIS2_PLACEMENT_3D('Circle Axis2P3D',#81,#82,$) ;
#99=AXIS2_PLACEMENT_3D('Circle Axis2P3D',#97,#98,$) ;
#119=AXIS2_PLACEMENT_3D('Plane Axis2P3D',#116,#117,#118) ;
#123=AXIS2_PLACEMENT_3D('Circle Axis2P3D',#121,#122,$) ;
#133=AXIS2_PLACEMENT_3D('Circle Axis2P3D',#131,#132,$) ;
#146=AXIS2_PLACEMENT_3D('Cylinder Axis2P3D',#143,#144,#145) ;
#150=AXIS2_PLACEMENT_3D('Circle Axis2P3D',#148,#149,$) ;
#177=AXIS2_PLACEMENT_3D('Cylinder Axis2P3D',#174,#175,#176) ;
#181=AXIS2_PLACEMENT_3D('Circle Axis2P3D',#179,#180,$) ;
#194=AXIS2_PLACEMENT_3D('Plane Axis2P3D',#191,#192,#193) ;
#40=PRODUCT_DEFINITION_SHAPE(' ',' ',#14) ;
#31=APPROVAL_PERSON_ORGANIZATION(#25,#21,#19) ;
#25=PERSON_AND_ORGANIZATION(#22,#23) ;
#22=PERSON(' ',' ',' ',$,$,$) ;
#23=ORGANIZATION(' ',' ',' ') ;
#21=APPROVAL(#20,' ') ;
#20=APPROVAL_STATUS('not_yet_approved') ;
#19=APPROVAL_ROLE('APPROVER') ;
#13=DATE_AND_TIME(#11,#12) ;
#12=LOCAL_TIME(18,14,20.,#10) ;
#10=COORDINATED_UNIVERSAL_TIME_OFFSET(0,0,.AHEAD.) ;
#72=ORIENTED_EDGE('',*,*,#65,.T.) ;
#73=ORIENTED_EDGE('',*,*,#70,.T.) ;
#110=ORIENTED_EDGE('',*,*,#89,.F.) ;
#111=ORIENTED_EDGE('',*,*,#96,.T.) ;
#112=ORIENTED_EDGE('',*,*,#103,.T.) ;
#113=ORIENTED_EDGE('',*,*,#108,.F.) ;
#127=ORIENTED_EDGE('',*,*,#89,.T.) ;
#128=ORIENTED_EDGE('',*,*,#125,.T.) ;
#137=ORIENTED_EDGE('',*,*,#125,.F.) ;
#138=ORIENTED_EDGE('',*,*,#108,.T.) ;
#139=ORIENTED_EDGE('',*,*,#135,.T.) ;
#140=ORIENTED_EDGE('',*,*,#96,.F.) ;
#168=ORIENTED_EDGE('',*,*,#156,.T.) ;
#169=ORIENTED_EDGE('',*,*,#161,.F.) ;
#170=ORIENTED_EDGE('',*,*,#65,.F.) ;
#171=ORIENTED_EDGE('',*,*,#166,.T.) ;
#185=ORIENTED_EDGE('',*,*,#183,.T.) ;
#186=ORIENTED_EDGE('',*,*,#166,.F.) ;
#187=ORIENTED_EDGE('',*,*,#70,.F.) ;
#188=ORIENTED_EDGE('',*,*,#161,.T.) ;
#197=ORIENTED_EDGE('',*,*,#135,.F.) ;
#198=ORIENTED_EDGE('',*,*,#103,.F.) ;
#201=ORIENTED_EDGE('',*,*,#156,.F.) ;
#202=ORIENTED_EDGE('',*,*,#183,.F.) ;
#203=FACE_BOUND('',#200,.T.) ;
#51=CLOSED_SHELL('Closed Shell',(#75,#115,#130,#142,#173,#190,#204)) ;
#92=VECTOR('Line Direction',#91,1.) ;
#106=VECTOR('Line Direction',#105,1.) ;
#159=VECTOR('Line Direction',#158,1.) ;
#164=VECTOR('Line Direction',#163,1.) ;
#206=ADVANCED_BREP_SHAPE_REPRESENTATION('NONE',(#205),#46) ;
#49=SHAPE_REPRESENTATION(' ',(#48),#46) ;
#75=ADVANCED_FACE('Corps principal',(#74),#56,.F.) ;
#115=ADVANCED_FACE('Corps principal',(#114),#80,.T.) ;
#130=ADVANCED_FACE('Corps principal',(#129),#120,.T.) ;
#142=ADVANCED_FACE('Corps principal',(#141),#80,.T.) ;
#173=ADVANCED_FACE('Corps principal',(#172),#147,.T.) ;
#190=ADVANCED_FACE('Corps principal',(#189),#178,.T.) ;
#204=ADVANCED_FACE('Corps principal',(#199,#203),#195,.T.) ;
#4=APPLICATION_PROTOCOL_DEFINITION('international standard','config_control_design',1994,#1) ;
#32=APPROVAL_DATE_TIME(#13,#21) ;
#205=MANIFOLD_SOLID_BREP('Corps principal',#51) ;
#11=CALENDAR_DATE(2019,11,5) ;
#30=CC_DESIGN_APPROVAL(#21,(#16,#6,#14)) ;
#18=CC_DESIGN_DATE_AND_TIME_ASSIGNMENT(#13,#17,(#16)) ;
#29=CC_DESIGN_DATE_AND_TIME_ASSIGNMENT(#13,#28,(#14)) ;
#17=DATE_TIME_ROLE('classification_date') ;
#28=DATE_TIME_ROLE('creation_date') ;
#27=CC_DESIGN_PERSON_AND_ORGANIZATION_ASSIGNMENT(#25,#26,(#16)) ;
#33=CC_DESIGN_PERSON_AND_ORGANIZATION_ASSIGNMENT(#25,#34,(#6)) ;
#35=CC_DESIGN_PERSON_AND_ORGANIZATION_ASSIGNMENT(#25,#36,(#6,#14)) ;
#37=CC_DESIGN_PERSON_AND_ORGANIZATION_ASSIGNMENT(#25,#38,(#5)) ;
#26=PERSON_AND_ORGANIZATION_ROLE('classification_officer') ;
#34=PERSON_AND_ORGANIZATION_ROLE('design_supplier') ;
#36=PERSON_AND_ORGANIZATION_ROLE('creator') ;
#38=PERSON_AND_ORGANIZATION_ROLE('design_owner') ;
#39=CC_DESIGN_SECURITY_CLASSIFICATION(#16,(#6)) ;
#60=CIRCLE('generated circle',#59,3.5) ;
#69=CIRCLE('generated circle',#68,3.5) ;
#84=CIRCLE('generated circle',#83,10.) ;
#100=CIRCLE('generated circle',#99,5.) ;
#124=CIRCLE('generated circle',#123,10.) ;
#134=CIRCLE('generated circle',#133,5.) ;
#151=CIRCLE('generated circle',#150,3.5) ;
#182=CIRCLE('generated circle',#181,3.5) ;
#80=CONICAL_SURFACE('Cone',#79,5.,0.785398163397) ;
#207=SHAPE_REPRESENTATION_RELATIONSHIP(' ',' ',#49,#206) ;
#147=CYLINDRICAL_SURFACE('generated cylinder',#146,3.5) ;
#178=CYLINDRICAL_SURFACE('generated cylinder',#177,3.5) ;
#3=DESIGN_CONTEXT(' ',#1,'design') ;
#65=EDGE_CURVE('',#62,#64,#60,.F.) ;
#70=EDGE_CURVE('',#64,#62,#69,.F.) ;
#89=EDGE_CURVE('',#86,#88,#84,.T.) ;
#96=EDGE_CURVE('',#86,#95,#93,.F.) ;
#103=EDGE_CURVE('',#95,#102,#100,.T.) ;
#108=EDGE_CURVE('',#88,#102,#107,.F.) ;
#125=EDGE_CURVE('',#88,#86,#124,.T.) ;
#135=EDGE_CURVE('',#102,#95,#134,.T.) ;
#156=EDGE_CURVE('',#153,#155,#151,.T.) ;
#161=EDGE_CURVE('',#64,#155,#160,.F.) ;
#166=EDGE_CURVE('',#62,#153,#165,.F.) ;
#183=EDGE_CURVE('',#155,#153,#182,.T.) ;
#71=EDGE_LOOP('',(#72,#73)) ;
#109=EDGE_LOOP('',(#110,#111,#112,#113)) ;
#126=EDGE_LOOP('',(#127,#128)) ;
#136=EDGE_LOOP('',(#137,#138,#139,#140)) ;
#167=EDGE_LOOP('',(#168,#169,#170,#171)) ;
#184=EDGE_LOOP('',(#185,#186,#187,#188)) ;
#196=EDGE_LOOP('',(#197,#198)) ;
#200=EDGE_LOOP('',(#201,#202)) ;
#74=FACE_OUTER_BOUND('',#71,.T.) ;
#114=FACE_OUTER_BOUND('',#109,.T.) ;
#129=FACE_OUTER_BOUND('',#126,.T.) ;
#141=FACE_OUTER_BOUND('',#136,.T.) ;
#172=FACE_OUTER_BOUND('',#167,.T.) ;
#189=FACE_OUTER_BOUND('',#184,.T.) ;
#199=FACE_OUTER_BOUND('',#196,.T.) ;
#45=UNCERTAINTY_MEASURE_WITH_UNIT(LENGTH_MEASURE(0.005),#41,'distance_accuracy_value','CONFUSED CURVE UNCERTAINTY') ;
#93=LINE('Line',#90,#92) ;
#107=LINE('Line',#104,#106) ;
#160=LINE('Line',#157,#159) ;
#165=LINE('Line',#162,#164) ;
#2=MECHANICAL_CONTEXT(' ',#1,'mechanical') ;
#24=PERSONAL_ADDRESS(' ',' ',' ',' ',' ',' ',' ',' ',' ',' ',' ',' ',(#22),' ') ;
#56=PLANE('',#55) ;
#120=PLANE('',#119) ;
#195=PLANE('',#194) ;
#43=PLANE_ANGLE_MEASURE_WITH_UNIT(PLANE_ANGLE_MEASURE(0.0174532925199),#42) ;
#7=PRODUCT_CATEGORY('part',$) ;
#9=PRODUCT_CATEGORY_RELATIONSHIP(' ',' ',#7,#8) ;
#6=PRODUCT_DEFINITION_FORMATION_WITH_SPECIFIED_SOURCE('',' ',#5,.NOT_KNOWN.) ;
#8=PRODUCT_RELATED_PRODUCT_CATEGORY('detail',$,(#5)) ;
#50=SHAPE_DEFINITION_REPRESENTATION(#40,#49) ;
#62=VERTEX_POINT('',#61) ;
#64=VERTEX_POINT('',#63) ;
#86=VERTEX_POINT('',#85) ;
#88=VERTEX_POINT('',#87) ;
#95=VERTEX_POINT('',#94) ;
#102=VERTEX_POINT('',#101) ;
#153=VERTEX_POINT('',#152) ;
#155=VERTEX_POINT('',#154) ;
#41=(LENGTH_UNIT()NAMED_UNIT(*)SI_UNIT(.MILLI.,.METRE.)) ;
#42=(NAMED_UNIT(*)PLANE_ANGLE_UNIT()SI_UNIT($,.RADIAN.)) ;
#44=(NAMED_UNIT(*)SI_UNIT($,.STERADIAN.)SOLID_ANGLE_UNIT()) ;
#46=(GEOMETRIC_REPRESENTATION_CONTEXT(3)GLOBAL_UNCERTAINTY_ASSIGNED_CONTEXT((#45))GLOBAL_UNIT_ASSIGNED_CONTEXT((#41,#42,#44))REPRESENTATION_CONTEXT(' ',' ')) ;
ENDSEC;
END-ISO-10303-21;
