ISO-10303-21;
HEADER;
FILE_DESCRIPTION (( 'STEP AP214' ),
    '1' );
FILE_NAME ('Pot de transfert (modifier a 4,5).STEP',
    '2019-05-08T17:08:06',
    ( '' ),
    ( '' ),
    'SwSTEP 2.0',
    'SolidWorks 2018',
    '' );
FILE_SCHEMA (( 'AUTOMOTIVE_DESIGN' ));
ENDSEC;

DATA;
#1 =( GEOMETRIC_REPRESENTATION_CONTEXT ( 3 ) GLOBAL_UNCERTAINTY_ASSIGNED_CONTEXT ( ( #175 ) ) GLOBAL_UNIT_ASSIGNED_CONTEXT ( ( #5, #316, #157 ) ) REPRESENTATION_CONTEXT ( 'NONE', 'WORKASPACE' ) );
#2 = DIRECTION ( 'NONE',  ( -0.0000000000000000000, -1.000000000000000000, -0.0000000000000000000 ) ) ;
#3 = CARTESIAN_POINT ( 'NONE',  ( 0.0000000000000000000, 7.699999999999998401, 0.0000000000000000000 ) ) ;
#4 = ADVANCED_FACE ( 'NONE', ( #307 ), #291, .F. ) ;
#5 =( LENGTH_UNIT ( ) NAMED_UNIT ( * ) SI_UNIT ( .MILLI., .METRE. ) );
#6 = DIRECTION ( 'NONE',  ( 0.0000000000000000000, 0.0000000000000000000, -1.000000000000000000 ) ) ;
#7 = CARTESIAN_POINT ( 'NONE',  ( 0.0000000000000000000, 7.699999999999998401, -3.100000000000000089 ) ) ;
#8 = CARTESIAN_POINT ( 'NONE',  ( 0.0000000000000000000, -8.750000000000000000, -3.100000000000000089 ) ) ;
#9 = EDGE_CURVE ( 'NONE', #91, #295, #12, .T. ) ;
#10 = DIRECTION ( 'NONE',  ( -0.0000000000000000000, -1.000000000000000000, -0.0000000000000000000 ) ) ;
#11 =( NAMED_UNIT ( * ) PLANE_ANGLE_UNIT ( ) SI_UNIT ( $, .RADIAN. ) );
#12 = LINE ( 'NONE', #331, #300 ) ;
#13 = CARTESIAN_POINT ( 'NONE',  ( 0.0000000000000000000, -8.750000000000000000, 0.0000000000000000000 ) ) ;
#14 = DIRECTION ( 'NONE',  ( -0.0000000000000000000, -1.000000000000000000, -0.0000000000000000000 ) ) ;
#15 = DIRECTION ( 'NONE',  ( -0.0000000000000000000, -1.000000000000000000, -0.0000000000000000000 ) ) ;
#16 = ORIENTED_EDGE ( 'NONE', *, *, #105, .T. ) ;
#17 = EDGE_CURVE ( 'NONE', #146, #194, #301, .T. ) ;
#18 = CARTESIAN_POINT ( 'NONE',  ( 0.0000000000000000000, -7.700000000000000178, 0.0000000000000000000 ) ) ;
#19 = PRODUCT_DEFINITION_CONTEXT ( 'detailed design', #63, 'design' ) ;
#20 = ORIENTED_EDGE ( 'NONE', *, *, #69, .F. ) ;
#21 = MECHANICAL_DESIGN_GEOMETRIC_PRESENTATION_REPRESENTATION (  '', ( #92 ), #1 ) ;
#22 = ORIENTED_EDGE ( 'NONE', *, *, #172, .F. ) ;
#23 = VECTOR ( 'NONE', #124, 1000.000000000000000 ) ;
#24 =( LENGTH_UNIT ( ) NAMED_UNIT ( * ) SI_UNIT ( .MILLI., .METRE. ) );
#25 = EDGE_LOOP ( 'NONE', ( #182, #203, #168, #327 ) ) ;
#26 = DIRECTION ( 'NONE',  ( -0.0000000000000000000, -1.000000000000000000, -0.0000000000000000000 ) ) ;
#27 = ORIENTED_EDGE ( 'NONE', *, *, #82, .F. ) ;
#28 = DIRECTION ( 'NONE',  ( -0.0000000000000000000, -1.000000000000000000, -0.0000000000000000000 ) ) ;
#29 = DIRECTION ( 'NONE',  ( -0.0000000000000000000, -1.000000000000000000, -0.0000000000000000000 ) ) ;
#30 = ADVANCED_FACE ( 'NONE', ( #324 ), #119, .T. ) ;
#31 = AXIS2_PLACEMENT_3D ( 'NONE', #74, #242, #50 ) ;
#32 = DIRECTION ( 'NONE',  ( 0.0000000000000000000, 0.0000000000000000000, -1.000000000000000000 ) ) ;
#33 = UNCERTAINTY_MEASURE_WITH_UNIT (LENGTH_MEASURE( 1.000000000000000082E-05 ), #163, 'distance_accuracy_value', 'NONE');
#34 = APPLICATION_CONTEXT ( 'automotive_design' ) ;
#35 = CARTESIAN_POINT ( 'NONE',  ( 0.0000000000000000000, 8.750000000000000000, 0.0000000000000000000 ) ) ;
#36 = DIRECTION ( 'NONE',  ( 0.0000000000000000000, 0.0000000000000000000, -1.000000000000000000 ) ) ;
#37 = DIRECTION ( 'NONE',  ( 0.0000000000000000000, 0.0000000000000000000, 1.000000000000000000 ) ) ;
#38 = DIRECTION ( 'NONE',  ( -0.0000000000000000000, -1.000000000000000000, -0.0000000000000000000 ) ) ;
#39 = CARTESIAN_POINT ( 'NONE',  ( 3.796405077356794918E-16, 7.699999999999998401, 3.100000000000000089 ) ) ;
#40 = ORIENTED_EDGE ( 'NONE', *, *, #148, .T. ) ;
#41 = PRESENTATION_LAYER_ASSIGNMENT (  '', '', ( #92 ) ) ;
#42 = DIRECTION ( 'NONE',  ( 0.0000000000000000000, 0.0000000000000000000, -1.000000000000000000 ) ) ;
#43 = EDGE_LOOP ( 'NONE', ( #257, #144 ) ) ;
#44 = ORIENTED_EDGE ( 'NONE', *, *, #345, .T. ) ;
#45 = EDGE_CURVE ( 'NONE', #295, #180, #321, .T. ) ;
#46 = ORIENTED_EDGE ( 'NONE', *, *, #164, .F. ) ;
#47 = ORIENTED_EDGE ( 'NONE', *, *, #105, .F. ) ;
#48 = ORIENTED_EDGE ( 'NONE', *, *, #151, .T. ) ;
#49 = VERTEX_POINT ( 'NONE', #169 ) ;
#50 = DIRECTION ( 'NONE',  ( 0.0000000000000000000, 0.0000000000000000000, -1.000000000000000000 ) ) ;
#51 = DIRECTION ( 'NONE',  ( -0.0000000000000000000, -1.000000000000000000, -0.0000000000000000000 ) ) ;
#52 = EDGE_LOOP ( 'NONE', ( #338, #359, #58, #205 ) ) ;
#53 = DIRECTION ( 'NONE',  ( 0.0000000000000000000, 0.0000000000000000000, -1.000000000000000000 ) ) ;
#54 = ORIENTED_EDGE ( 'NONE', *, *, #120, .T. ) ;
#55 = AXIS2_PLACEMENT_3D ( 'NONE', #256, #51, #244 ) ;
#56 = CARTESIAN_POINT ( 'NONE',  ( 2.755455298081544778E-16, 8.750000000000000000, 2.250000000000000000 ) ) ;
#57 = DIRECTION ( 'NONE',  ( 0.0000000000000000000, 0.0000000000000000000, -1.000000000000000000 ) ) ;
#58 = ORIENTED_EDGE ( 'NONE', *, *, #308, .T. ) ;
#59 = CARTESIAN_POINT ( 'NONE',  ( 0.0000000000000000000, -7.700000000000000178, 0.0000000000000000000 ) ) ;
#60 = ADVANCED_FACE ( 'NONE', ( #142, #299 ), #99, .F. ) ;
#61 =( NAMED_UNIT ( * ) PLANE_ANGLE_UNIT ( ) SI_UNIT ( $, .RADIAN. ) );
#62 = DIRECTION ( 'NONE',  ( 0.0000000000000000000, 0.0000000000000000000, -1.000000000000000000 ) ) ;
#63 = APPLICATION_CONTEXT ( 'automotive_design' ) ;
#64 = CARTESIAN_POINT ( 'NONE',  ( 3.796405077356794425E-16, -8.750000000000000000, 3.099999999999999645 ) ) ;
#65 = DIRECTION ( 'NONE',  ( -0.0000000000000000000, -1.000000000000000000, -0.0000000000000000000 ) ) ;
#66 = AXIS2_PLACEMENT_3D ( 'NONE', #208, #26, #177 ) ;
#67 = DIRECTION ( 'NONE',  ( 0.0000000000000000000, 1.000000000000000000, 0.0000000000000000000 ) ) ;
#68 = DIRECTION ( 'NONE',  ( -0.0000000000000000000, -1.000000000000000000, -0.0000000000000000000 ) ) ;
#69 = EDGE_CURVE ( 'NONE', #198, #146, #103, .T. ) ;
#70 = LINE ( 'NONE', #352, #249 ) ;
#71 = EDGE_LOOP ( 'NONE', ( #44, #349 ) ) ;
#72 = AXIS2_PLACEMENT_3D ( 'NONE', #59, #217, #32 ) ;
#73 = ORIENTED_EDGE ( 'NONE', *, *, #308, .F. ) ;
#74 = CARTESIAN_POINT ( 'NONE',  ( 0.0000000000000000000, 7.699999999999998401, 0.0000000000000000000 ) ) ;
#75 = EDGE_CURVE ( 'NONE', #343, #296, #288, .T. ) ;
#76 = CARTESIAN_POINT ( 'NONE',  ( 0.0000000000000000000, -7.700000000000001066, 0.0000000000000000000 ) ) ;
#77 = CARTESIAN_POINT ( 'NONE',  ( 5.204748896376252671E-16, 7.699999999999998401, 4.250000000000001776 ) ) ;
#78 = ORIENTED_EDGE ( 'NONE', *, *, #345, .F. ) ;
#79 = EDGE_LOOP ( 'NONE', ( #20, #305 ) ) ;
#80 = CARTESIAN_POINT ( 'NONE',  ( 0.0000000000000000000, -8.750000000000000000, 0.0000000000000000000 ) ) ;
#81 = ADVANCED_FACE ( 'NONE', ( #283 ), #147, .F. ) ;
#82 = EDGE_CURVE ( 'NONE', #241, #91, #87, .T. ) ;
#83 = DIRECTION ( 'NONE',  ( -0.0000000000000000000, -1.000000000000000000, -0.0000000000000000000 ) ) ;
#84 = CARTESIAN_POINT ( 'NONE',  ( 0.0000000000000000000, 7.699999999999998401, -4.250000000000001776 ) ) ;
#85 = APPLICATION_PROTOCOL_DEFINITION ( 'draft international standard', 'automotive_design', 1998, #34 ) ;
#86 = DIRECTION ( 'NONE',  ( -0.0000000000000000000, -1.000000000000000000, -0.0000000000000000000 ) ) ;
#87 = CIRCLE ( 'NONE', #330, 4.250000000000001776 ) ;
#88 = CARTESIAN_POINT ( 'NONE',  ( 3.796405077356794918E-16, 8.750000000000000000, 3.100000000000000089 ) ) ;
#89 = SHAPE_DEFINITION_REPRESENTATION ( #160, #284 ) ;
#90 = ORIENTED_EDGE ( 'NONE', *, *, #9, .F. ) ;
#91 = VERTEX_POINT ( 'NONE', #77 ) ;
#92 = STYLED_ITEM ( 'NONE', ( #223 ), #335 ) ;
#93 = FILL_AREA_STYLE_COLOUR ( '', #129 ) ;
#94 = CARTESIAN_POINT ( 'NONE',  ( 0.0000000000000000000, -8.750000000000000000, 0.0000000000000000000 ) ) ;
#95 = ORIENTED_EDGE ( 'NONE', *, *, #125, .F. ) ;
#96 = LINE ( 'NONE', #183, #274 ) ;
#97 = ORIENTED_EDGE ( 'NONE', *, *, #45, .F. ) ;
#98 = EDGE_CURVE ( 'NONE', #91, #241, #313, .T. ) ;
#99 = PLANE ( 'NONE',  #285 ) ;
#100 = PRODUCT_RELATED_PRODUCT_CATEGORY ( 'part', '', ( #235 ) ) ;
#101 = EDGE_CURVE ( 'NONE', #146, #198, #276, .T. ) ;
#102 = DIRECTION ( 'NONE',  ( 0.0000000000000000000, 0.0000000000000000000, -1.000000000000000000 ) ) ;
#103 = CIRCLE ( 'NONE', #201, 3.100000000000000089 ) ;
#104 = CARTESIAN_POINT ( 'NONE',  ( -3.100000000000000089, -7.700000000000000178, 0.0000000000000000000 ) ) ;
#105 = EDGE_CURVE ( 'NONE', #173, #365, #123, .T. ) ;
#106 =( NAMED_UNIT ( * ) SI_UNIT ( $, .STERADIAN. ) SOLID_ANGLE_UNIT ( ) );
#107 = DIRECTION ( 'NONE',  ( -0.0000000000000000000, -1.000000000000000000, -0.0000000000000000000 ) ) ;
#108 = ORIENTED_EDGE ( 'NONE', *, *, #246, .T. ) ;
#109 = AXIS2_PLACEMENT_3D ( 'NONE', #156, #220, #36 ) ;
#110 = ADVANCED_FACE ( 'NONE', ( #199, #262 ), #191, .F. ) ;
#111 = CIRCLE ( 'NONE', #231, 3.100000000000000089 ) ;
#112 = DIRECTION ( 'NONE',  ( 0.0000000000000000000, 0.0000000000000000000, -1.000000000000000000 ) ) ;
#113 = FILL_AREA_STYLE ('',( #93 ) ) ;
#114 = EDGE_CURVE ( 'NONE', #289, #173, #70, .T. ) ;
#115 = DIRECTION ( 'NONE',  ( -0.0000000000000000000, -1.000000000000000000, -0.0000000000000000000 ) ) ;
#116 = PRODUCT_DEFINITION_FORMATION_WITH_SPECIFIED_SOURCE ( 'ANY', '', #235, .NOT_KNOWN. ) ;
#117 = DIRECTION ( 'NONE',  ( -0.0000000000000000000, -1.000000000000000000, -0.0000000000000000000 ) ) ;
#118 = ORIENTED_EDGE ( 'NONE', *, *, #82, .T. ) ;
#119 = CYLINDRICAL_SURFACE ( 'NONE', #265, 3.099999999999999645 ) ;
#120 = EDGE_CURVE ( 'NONE', #365, #173, #358, .T. ) ;
#121 = DIRECTION ( 'NONE',  ( -0.0000000000000000000, -1.000000000000000000, -0.0000000000000000000 ) ) ;
#122 = AXIS2_PLACEMENT_3D ( 'NONE', #35, #189, #6 ) ;
#123 = CIRCLE ( 'NONE', #66, 3.100000000000000089 ) ;
#124 = DIRECTION ( 'NONE',  ( -0.0000000000000000000, -1.000000000000000000, -0.0000000000000000000 ) ) ;
#125 = EDGE_CURVE ( 'NONE', #362, #365, #292, .T. ) ;
#126 = DIRECTION ( 'NONE',  ( -0.0000000000000000000, -1.000000000000000000, -0.0000000000000000000 ) ) ;
#127 = FACE_BOUND ( 'NONE', #79, .T. ) ;
#128 = PRESENTATION_STYLE_ASSIGNMENT (( #353 ) ) ;
#129 = COLOUR_RGB ( '',0.6470588235294117974, 0.5176470588235293491, 0.0000000000000000000 ) ;
#130 = PRODUCT_DEFINITION ( 'UNKNOWN', '', #116, #19 ) ;
#131 = DIRECTION ( 'NONE',  ( -0.0000000000000000000, -1.000000000000000000, -0.0000000000000000000 ) ) ;
#132 = FILL_AREA_STYLE_COLOUR ( '', #221 ) ;
#133 = ADVANCED_FACE ( 'NONE', ( #127, #329 ), #354, .F. ) ;
#134 = DIRECTION ( 'NONE',  ( 0.0000000000000000000, 0.0000000000000000000, -1.000000000000000000 ) ) ;
#135 = DIRECTION ( 'NONE',  ( 0.0000000000000000000, -0.0000000000000000000, 1.000000000000000000 ) ) ;
#136 = SURFACE_SIDE_STYLE ('',( #152 ) ) ;
#137 = PLANE ( 'NONE',  #109 ) ;
#138 = CARTESIAN_POINT ( 'NONE',  ( 0.0000000000000000000, -8.750000000000000000, -2.249999999999998668 ) ) ;
#139 = CARTESIAN_POINT ( 'NONE',  ( 0.0000000000000000000, -8.750000000000000000, 0.0000000000000000000 ) ) ;
#140 = AXIS2_PLACEMENT_3D ( 'NONE', #13, #38, #260 ) ;
#141 = DIRECTION ( 'NONE',  ( 0.0000000000000000000, 0.0000000000000000000, -1.000000000000000000 ) ) ;
#142 = FACE_BOUND ( 'NONE', #357, .T. ) ;
#143 = AXIS2_PLACEMENT_3D ( 'NONE', #266, #37, #224 ) ;
#144 = ORIENTED_EDGE ( 'NONE', *, *, #293, .F. ) ;
#145 = EDGE_CURVE ( 'NONE', #194, #49, #271, .T. ) ;
#146 = VERTEX_POINT ( 'NONE', #279 ) ;
#147 = CYLINDRICAL_SURFACE ( 'NONE', #346, 2.249999999999998668 ) ;
#148 = EDGE_CURVE ( 'NONE', #362, #289, #111, .T. ) ;
#149 = CYLINDRICAL_SURFACE ( 'NONE', #314, 4.250000000000000888 ) ;
#150 = CARTESIAN_POINT ( 'NONE',  ( -3.100000000000000089, 8.750000000000000000, 0.0000000000000000000 ) ) ;
#151 = EDGE_CURVE ( 'NONE', #210, #154, #350, .T. ) ;
#152 = SURFACE_STYLE_FILL_AREA ( #113 ) ;
#153 = SURFACE_SIDE_STYLE ('',( #229 ) ) ;
#154 = VERTEX_POINT ( 'NONE', #351 ) ;
#155 = AXIS2_PLACEMENT_3D ( 'NONE', #294, #115, #184 ) ;
#156 = CARTESIAN_POINT ( 'NONE',  ( -4.250000000000001776, 7.700000000000000178, 0.0000000000000000000 ) ) ;
#157 =( NAMED_UNIT ( * ) SI_UNIT ( $, .STERADIAN. ) SOLID_ANGLE_UNIT ( ) );
#158 = ADVANCED_FACE ( 'NONE', ( #372 ), #281, .T. ) ;
#159 = CARTESIAN_POINT ( 'NONE',  ( 0.0000000000000000000, -8.750000000000000000, -3.099999999999999645 ) ) ;
#160 = PRODUCT_DEFINITION_SHAPE ( 'NONE', 'NONE',  #130 ) ;
#161 = EDGE_LOOP ( 'NONE', ( #40, #342, #322, #95 ) ) ;
#162 = DIRECTION ( 'NONE',  ( -0.0000000000000000000, -1.000000000000000000, -0.0000000000000000000 ) ) ;
#163 =( LENGTH_UNIT ( ) NAMED_UNIT ( * ) SI_UNIT ( .MILLI., .METRE. ) );
#164 = EDGE_CURVE ( 'NONE', #154, #210, #336, .T. ) ;
#165 = DIRECTION ( 'NONE',  ( 0.0000000000000000000, 0.0000000000000000000, -1.000000000000000000 ) ) ;
#166 = CARTESIAN_POINT ( 'NONE',  ( 0.0000000000000000000, 8.750000000000000000, 0.0000000000000000000 ) ) ;
#167 = CIRCLE ( 'NONE', #361, 3.099999999999999645 ) ;
#168 = ORIENTED_EDGE ( 'NONE', *, *, #75, .T. ) ;
#169 = CARTESIAN_POINT ( 'NONE',  ( 0.0000000000000000000, -8.750000000000000000, -3.099999999999999645 ) ) ;
#170 = AXIS2_PLACEMENT_3D ( 'NONE', #18, #68, #42 ) ;
#171 = FACE_OUTER_BOUND ( 'NONE', #239, .T. ) ;
#172 = EDGE_CURVE ( 'NONE', #210, #343, #96, .T. ) ;
#173 = VERTEX_POINT ( 'NONE', #39 ) ;
#174 = ORIENTED_EDGE ( 'NONE', *, *, #164, .T. ) ;
#175 = UNCERTAINTY_MEASURE_WITH_UNIT (LENGTH_MEASURE( 1.000000000000000082E-05 ), #5, 'distance_accuracy_value', 'NONE');
#176 = ORIENTED_EDGE ( 'NONE', *, *, #69, .T. ) ;
#177 = DIRECTION ( 'NONE',  ( 0.0000000000000000000, 0.0000000000000000000, -1.000000000000000000 ) ) ;
#178 = EDGE_CURVE ( 'NONE', #154, #296, #366, .T. ) ;
#179 = DIRECTION ( 'NONE',  ( 0.0000000000000000000, 0.0000000000000000000, -1.000000000000000000 ) ) ;
#180 = VERTEX_POINT ( 'NONE', #355 ) ;
#181 = EDGE_LOOP ( 'NONE', ( #176, #364, #78, #73 ) ) ;
#182 = ORIENTED_EDGE ( 'NONE', *, *, #151, .F. ) ;
#183 = CARTESIAN_POINT ( 'NONE',  ( 2.755455298081542806E-16, -8.750000000000000000, 2.249999999999998668 ) ) ;
#184 = DIRECTION ( 'NONE',  ( 0.0000000000000000000, 0.0000000000000000000, -1.000000000000000000 ) ) ;
#185 = FILL_AREA_STYLE ('',( #132 ) ) ;
#186 = ADVANCED_FACE ( 'NONE', ( #269 ), #254, .T. ) ;
#187 = ORIENTED_EDGE ( 'NONE', *, *, #293, .T. ) ;
#188 = AXIS2_PLACEMENT_3D ( 'NONE', #104, #323, #135 ) ;
#189 = DIRECTION ( 'NONE',  ( -0.0000000000000000000, -1.000000000000000000, -0.0000000000000000000 ) ) ;
#190 = UNCERTAINTY_MEASURE_WITH_UNIT (LENGTH_MEASURE( 1.000000000000000082E-05 ), #24, 'distance_accuracy_value', 'NONE');
#191 = PLANE ( 'NONE',  #340 ) ;
#192 = CARTESIAN_POINT ( 'NONE',  ( 5.204748896376251685E-16, -7.700000000000000178, 4.250000000000000000 ) ) ;
#193 = DIRECTION ( 'NONE',  ( -0.0000000000000000000, -1.000000000000000000, -0.0000000000000000000 ) ) ;
#194 = VERTEX_POINT ( 'NONE', #64 ) ;
#195 = CARTESIAN_POINT ( 'NONE',  ( 0.0000000000000000000, 8.750000000000000000, 0.0000000000000000000 ) ) ;
#196 = CARTESIAN_POINT ( 'NONE',  ( 0.0000000000000000000, -8.750000000000000000, 0.0000000000000000000 ) ) ;
#197 = AXIS2_PLACEMENT_3D ( 'NONE', #139, #15, #326 ) ;
#198 = VERTEX_POINT ( 'NONE', #225 ) ;
#199 = FACE_OUTER_BOUND ( 'NONE', #43, .T. ) ;
#200 = CARTESIAN_POINT ( 'NONE',  ( 3.796405077356794425E-16, -8.750000000000000000, 3.099999999999999645 ) ) ;
#201 = AXIS2_PLACEMENT_3D ( 'NONE', #332, #107, #264 ) ;
#202 = ORIENTED_EDGE ( 'NONE', *, *, #9, .T. ) ;
#203 = ORIENTED_EDGE ( 'NONE', *, *, #172, .T. ) ;
#204 =( GEOMETRIC_REPRESENTATION_CONTEXT ( 3 ) GLOBAL_UNCERTAINTY_ASSIGNED_CONTEXT ( ( #33 ) ) GLOBAL_UNIT_ASSIGNED_CONTEXT ( ( #163, #11, #106 ) ) REPRESENTATION_CONTEXT ( 'NONE', 'WORKASPACE' ) );
#205 = ORIENTED_EDGE ( 'NONE', *, *, #145, .F. ) ;
#206 = AXIS2_PLACEMENT_3D ( 'NONE', #251, #117, #297 ) ;
#207 = SURFACE_STYLE_USAGE ( .BOTH. , #153 ) ;
#208 = CARTESIAN_POINT ( 'NONE',  ( 0.0000000000000000000, 7.699999999999998401, 0.0000000000000000000 ) ) ;
#209 = ORIENTED_EDGE ( 'NONE', *, *, #125, .T. ) ;
#210 = VERTEX_POINT ( 'NONE', #56 ) ;
#211 = EDGE_CURVE ( 'NONE', #241, #180, #261, .T. ) ;
#212 = EDGE_LOOP ( 'NONE', ( #54, #16 ) ) ;
#213 = AXIS2_PLACEMENT_3D ( 'NONE', #195, #14, #165 ) ;
#214 = DIRECTION ( 'NONE',  ( 0.0000000000000000000, 0.0000000000000000000, -1.000000000000000000 ) ) ;
#215 = CYLINDRICAL_SURFACE ( 'NONE', #55, 3.100000000000000089 ) ;
#216 = ADVANCED_FACE ( 'NONE', ( #273 ), #238, .T. ) ;
#217 = DIRECTION ( 'NONE',  ( -0.0000000000000000000, -1.000000000000000000, -0.0000000000000000000 ) ) ;
#218 = APPLICATION_PROTOCOL_DEFINITION ( 'draft international standard', 'automotive_design', 1998, #63 ) ;
#219 = CARTESIAN_POINT ( 'NONE',  ( 0.0000000000000000000, -8.750000000000000000, -2.249999999999997780 ) ) ;
#220 = DIRECTION ( 'NONE',  ( 0.0000000000000000000, -1.000000000000000000, -0.0000000000000000000 ) ) ;
#221 = COLOUR_RGB ( '',0.6470588235294117974, 0.5176470588235293491, 0.0000000000000000000 ) ;
#222 = CIRCLE ( 'NONE', #72, 4.250000000000000000 ) ;
#223 = PRESENTATION_STYLE_ASSIGNMENT (( #207 ) ) ;
#224 = DIRECTION ( 'NONE',  ( 1.000000000000000000, 0.0000000000000000000, 0.0000000000000000000 ) ) ;
#225 = CARTESIAN_POINT ( 'NONE',  ( 0.0000000000000000000, -7.700000000000001066, -3.100000000000000089 ) ) ;
#226 = MECHANICAL_DESIGN_GEOMETRIC_PRESENTATION_REPRESENTATION (  '', ( #275 ), #204 ) ;
#227 = DIRECTION ( 'NONE',  ( 0.0000000000000000000, 0.0000000000000000000, -1.000000000000000000 ) ) ;
#228 = DIRECTION ( 'NONE',  ( 0.0000000000000000000, 0.0000000000000000000, -1.000000000000000000 ) ) ;
#229 = SURFACE_STYLE_FILL_AREA ( #185 ) ;
#230 = EDGE_LOOP ( 'NONE', ( #22, #46, #333, #108 ) ) ;
#231 = AXIS2_PLACEMENT_3D ( 'NONE', #166, #360, #112 ) ;
#232 = DIRECTION ( 'NONE',  ( -0.0000000000000000000, -1.000000000000000000, -0.0000000000000000000 ) ) ;
#233 = VECTOR ( 'NONE', #2, 1000.000000000000000 ) ;
#234 = LINE ( 'NONE', #159, #233 ) ;
#235 = PRODUCT ( 'Pot de transfert (modifier a 4,5)', 'Pot de transfert (modifier a 4,5)', '', ( #303 ) ) ;
#236 = ORIENTED_EDGE ( 'NONE', *, *, #45, .T. ) ;
#237 = FACE_BOUND ( 'NONE', #212, .T. ) ;
#238 = CYLINDRICAL_SURFACE ( 'NONE', #140, 3.100000000000000089 ) ;
#239 = EDGE_LOOP ( 'NONE', ( #118, #202, #373, #334 ) ) ;
#240 = FACE_OUTER_BOUND ( 'NONE', #368, .T. ) ;
#241 = VERTEX_POINT ( 'NONE', #84 ) ;
#242 = DIRECTION ( 'NONE',  ( -0.0000000000000000000, -1.000000000000000000, -0.0000000000000000000 ) ) ;
#243 = FACE_OUTER_BOUND ( 'NONE', #348, .T. ) ;
#244 = DIRECTION ( 'NONE',  ( 0.0000000000000000000, 0.0000000000000000000, -1.000000000000000000 ) ) ;
#245 = DIRECTION ( 'NONE',  ( 0.0000000000000000000, 0.0000000000000000000, -1.000000000000000000 ) ) ;
#246 = EDGE_CURVE ( 'NONE', #296, #343, #272, .T. ) ;
#247 = VECTOR ( 'NONE', #193, 1000.000000000000000 ) ;
#248 = PRESENTATION_LAYER_ASSIGNMENT (  '', '', ( #275 ) ) ;
#249 = VECTOR ( 'NONE', #311, 1000.000000000000000 ) ;
#250 = CLOSED_SHELL ( 'NONE', ( #216, #347, #158, #4, #110, #81, #60, #30, #133, #186, #253, #318 ) ) ;
#251 = CARTESIAN_POINT ( 'NONE',  ( 0.0000000000000000000, 8.750000000000000000, 0.0000000000000000000 ) ) ;
#252 = DIRECTION ( 'NONE',  ( -0.0000000000000000000, -1.000000000000000000, -0.0000000000000000000 ) ) ;
#253 = ADVANCED_FACE ( 'NONE', ( #240, #237 ), #137, .F. ) ;
#254 = CYLINDRICAL_SURFACE ( 'NONE', #155, 4.250000000000000888 ) ;
#255 = AXIS2_PLACEMENT_3D ( 'NONE', #259, #28, #62 ) ;
#256 = CARTESIAN_POINT ( 'NONE',  ( 0.0000000000000000000, -8.750000000000000000, 0.0000000000000000000 ) ) ;
#257 = ORIENTED_EDGE ( 'NONE', *, *, #148, .F. ) ;
#258 = CARTESIAN_POINT ( 'NONE',  ( -2.249999999999997780, -8.750000000000000000, 0.0000000000000000000 ) ) ;
#259 = CARTESIAN_POINT ( 'NONE',  ( 0.0000000000000000000, -8.750000000000000000, 0.0000000000000000000 ) ) ;
#260 = DIRECTION ( 'NONE',  ( 0.0000000000000000000, 0.0000000000000000000, -1.000000000000000000 ) ) ;
#261 = LINE ( 'NONE', #290, #247 ) ;
#262 = FACE_BOUND ( 'NONE', #312, .T. ) ;
#263 = CARTESIAN_POINT ( 'NONE',  ( 0.0000000000000000000, -8.750000000000000000, 0.0000000000000000000 ) ) ;
#264 = DIRECTION ( 'NONE',  ( 0.0000000000000000000, 0.0000000000000000000, -1.000000000000000000 ) ) ;
#265 = AXIS2_PLACEMENT_3D ( 'NONE', #298, #302, #141 ) ;
#266 = CARTESIAN_POINT ( 'NONE',  ( 0.0000000000000000000, 0.0000000000000000000, 0.0000000000000000000 ) ) ;
#267 = DIRECTION ( 'NONE',  ( 0.0000000000000000000, -0.0000000000000000000, 1.000000000000000000 ) ) ;
#268 = CIRCLE ( 'NONE', #122, 3.100000000000000089 ) ;
#269 = FACE_OUTER_BOUND ( 'NONE', #309, .T. ) ;
#270 = AXIS2_PLACEMENT_3D ( 'NONE', #196, #131, #228 ) ;
#271 = CIRCLE ( 'NONE', #320, 3.099999999999999645 ) ;
#272 = CIRCLE ( 'NONE', #255, 2.249999999999997780 ) ;
#273 = FACE_OUTER_BOUND ( 'NONE', #161, .T. ) ;
#274 = VECTOR ( 'NONE', #29, 1000.000000000000000 ) ;
#275 = STYLED_ITEM ( 'NONE', ( #128 ), #284 ) ;
#276 = CIRCLE ( 'NONE', #369, 3.100000000000000089 ) ;
#277 = DIRECTION ( 'NONE',  ( 0.0000000000000000000, 0.0000000000000000000, -1.000000000000000000 ) ) ;
#278 = AXIS2_PLACEMENT_3D ( 'NONE', #280, #86, #214 ) ;
#279 = CARTESIAN_POINT ( 'NONE',  ( 3.796405077356795411E-16, -7.700000000000001066, 3.100000000000000533 ) ) ;
#280 = CARTESIAN_POINT ( 'NONE',  ( 0.0000000000000000000, -8.750000000000000000, 0.0000000000000000000 ) ) ;
#281 = CYLINDRICAL_SURFACE ( 'NONE', #197, 3.099999999999999645 ) ;
#282 =( NAMED_UNIT ( * ) SI_UNIT ( $, .STERADIAN. ) SOLID_ANGLE_UNIT ( ) );
#283 = FACE_OUTER_BOUND ( 'NONE', #230, .T. ) ;
#284 = ADVANCED_BREP_SHAPE_REPRESENTATION ( 'Pot de transfert (modifier a 4,5)', ( #335, #143 ), #337 ) ;
#285 = AXIS2_PLACEMENT_3D ( 'NONE', #258, #67, #267 ) ;
#286 = CARTESIAN_POINT ( 'NONE',  ( 0.0000000000000000000, -8.750000000000000000, 0.0000000000000000000 ) ) ;
#287 = VECTOR ( 'NONE', #121, 1000.000000000000000 ) ;
#288 = CIRCLE ( 'NONE', #270, 2.249999999999997780 ) ;
#289 = VERTEX_POINT ( 'NONE', #88 ) ;
#290 = CARTESIAN_POINT ( 'NONE',  ( 0.0000000000000000000, -8.750000000000000000, -4.250000000000000888 ) ) ;
#291 = CYLINDRICAL_SURFACE ( 'NONE', #278, 2.249999999999998668 ) ;
#292 = LINE ( 'NONE', #8, #23 ) ;
#293 = EDGE_CURVE ( 'NONE', #289, #362, #268, .T. ) ;
#294 = CARTESIAN_POINT ( 'NONE',  ( 0.0000000000000000000, -8.750000000000000000, 0.0000000000000000000 ) ) ;
#295 = VERTEX_POINT ( 'NONE', #192 ) ;
#296 = VERTEX_POINT ( 'NONE', #219 ) ;
#297 = DIRECTION ( 'NONE',  ( 0.0000000000000000000, 0.0000000000000000000, -1.000000000000000000 ) ) ;
#298 = CARTESIAN_POINT ( 'NONE',  ( 0.0000000000000000000, -8.750000000000000000, 0.0000000000000000000 ) ) ;
#299 = FACE_OUTER_BOUND ( 'NONE', #71, .T. ) ;
#300 = VECTOR ( 'NONE', #232, 1000.000000000000000 ) ;
#301 = LINE ( 'NONE', #200, #287 ) ;
#302 = DIRECTION ( 'NONE',  ( -0.0000000000000000000, -1.000000000000000000, -0.0000000000000000000 ) ) ;
#303 = PRODUCT_CONTEXT ( 'NONE', #34, 'mechanical' ) ;
#304 = DIRECTION ( 'NONE',  ( -0.0000000000000000000, -1.000000000000000000, -0.0000000000000000000 ) ) ;
#305 = ORIENTED_EDGE ( 'NONE', *, *, #101, .F. ) ;
#306 = ORIENTED_EDGE ( 'NONE', *, *, #328, .T. ) ;
#307 = FACE_OUTER_BOUND ( 'NONE', #25, .T. ) ;
#308 = EDGE_CURVE ( 'NONE', #198, #49, #234, .T. ) ;
#309 = EDGE_LOOP ( 'NONE', ( #90, #363, #356, #97 ) ) ;
#310 = AXIS2_PLACEMENT_3D ( 'NONE', #341, #126, #102 ) ;
#311 = DIRECTION ( 'NONE',  ( -0.0000000000000000000, -1.000000000000000000, -0.0000000000000000000 ) ) ;
#312 = EDGE_LOOP ( 'NONE', ( #174, #48 ) ) ;
#313 = CIRCLE ( 'NONE', #310, 4.250000000000001776 ) ;
#314 = AXIS2_PLACEMENT_3D ( 'NONE', #286, #83, #134 ) ;
#315 = ORIENTED_EDGE ( 'NONE', *, *, #246, .F. ) ;
#316 =( NAMED_UNIT ( * ) PLANE_ANGLE_UNIT ( ) SI_UNIT ( $, .RADIAN. ) );
#317 = CARTESIAN_POINT ( 'NONE',  ( 0.0000000000000000000, 8.750000000000000000, -3.100000000000000089 ) ) ;
#318 = ADVANCED_FACE ( 'NONE', ( #243 ), #215, .T. ) ;
#319 = CARTESIAN_POINT ( 'NONE',  ( 2.755455298081542313E-16, -8.750000000000000000, 2.249999999999997780 ) ) ;
#320 = AXIS2_PLACEMENT_3D ( 'NONE', #263, #65, #227 ) ;
#321 = CIRCLE ( 'NONE', #170, 4.250000000000000000 ) ;
#322 = ORIENTED_EDGE ( 'NONE', *, *, #120, .F. ) ;
#323 = DIRECTION ( 'NONE',  ( 0.0000000000000000000, 1.000000000000000000, 0.0000000000000000000 ) ) ;
#324 = FACE_OUTER_BOUND ( 'NONE', #52, .T. ) ;
#325 = DIRECTION ( 'NONE',  ( -0.0000000000000000000, -1.000000000000000000, -0.0000000000000000000 ) ) ;
#326 = DIRECTION ( 'NONE',  ( 0.0000000000000000000, 0.0000000000000000000, -1.000000000000000000 ) ) ;
#327 = ORIENTED_EDGE ( 'NONE', *, *, #178, .F. ) ;
#328 = EDGE_CURVE ( 'NONE', #180, #295, #222, .T. ) ;
#329 = FACE_OUTER_BOUND ( 'NONE', #374, .T. ) ;
#330 = AXIS2_PLACEMENT_3D ( 'NONE', #3, #10, #179 ) ;
#331 = CARTESIAN_POINT ( 'NONE',  ( 5.204748896376251685E-16, -8.750000000000000000, 4.250000000000000888 ) ) ;
#332 = CARTESIAN_POINT ( 'NONE',  ( 0.0000000000000000000, -7.700000000000001066, 0.0000000000000000000 ) ) ;
#333 = ORIENTED_EDGE ( 'NONE', *, *, #178, .T. ) ;
#334 = ORIENTED_EDGE ( 'NONE', *, *, #211, .F. ) ;
#335 = MANIFOLD_SOLID_BREP ( 'Révolution1', #250 ) ;
#336 = CIRCLE ( 'NONE', #213, 2.250000000000000000 ) ;
#337 =( GEOMETRIC_REPRESENTATION_CONTEXT ( 3 ) GLOBAL_UNCERTAINTY_ASSIGNED_CONTEXT ( ( #190 ) ) GLOBAL_UNIT_ASSIGNED_CONTEXT ( ( #24, #61, #282 ) ) REPRESENTATION_CONTEXT ( 'NONE', 'WORKASPACE' ) );
#338 = ORIENTED_EDGE ( 'NONE', *, *, #17, .F. ) ;
#339 = ORIENTED_EDGE ( 'NONE', *, *, #98, .F. ) ;
#340 = AXIS2_PLACEMENT_3D ( 'NONE', #150, #371, #277 ) ;
#341 = CARTESIAN_POINT ( 'NONE',  ( 0.0000000000000000000, 7.699999999999998401, 0.0000000000000000000 ) ) ;
#342 = ORIENTED_EDGE ( 'NONE', *, *, #114, .T. ) ;
#343 = VERTEX_POINT ( 'NONE', #319 ) ;
#344 = ORIENTED_EDGE ( 'NONE', *, *, #75, .F. ) ;
#345 = EDGE_CURVE ( 'NONE', #49, #194, #167, .T. ) ;
#346 = AXIS2_PLACEMENT_3D ( 'NONE', #94, #304, #53 ) ;
#347 = ADVANCED_FACE ( 'NONE', ( #171 ), #149, .T. ) ;
#348 = EDGE_LOOP ( 'NONE', ( #367, #187, #209, #47 ) ) ;
#349 = ORIENTED_EDGE ( 'NONE', *, *, #145, .T. ) ;
#350 = CIRCLE ( 'NONE', #206, 2.250000000000000000 ) ;
#351 = CARTESIAN_POINT ( 'NONE',  ( 0.0000000000000000000, 8.750000000000000000, -2.250000000000000000 ) ) ;
#352 = CARTESIAN_POINT ( 'NONE',  ( 3.796405077356794918E-16, -8.750000000000000000, 3.100000000000000089 ) ) ;
#353 = SURFACE_STYLE_USAGE ( .BOTH. , #136 ) ;
#354 = PLANE ( 'NONE',  #188 ) ;
#355 = CARTESIAN_POINT ( 'NONE',  ( 0.0000000000000000000, -7.700000000000000178, -4.250000000000000000 ) ) ;
#356 = ORIENTED_EDGE ( 'NONE', *, *, #211, .T. ) ;
#357 = EDGE_LOOP ( 'NONE', ( #315, #344 ) ) ;
#358 = CIRCLE ( 'NONE', #31, 3.100000000000000089 ) ;
#359 = ORIENTED_EDGE ( 'NONE', *, *, #101, .T. ) ;
#360 = DIRECTION ( 'NONE',  ( -0.0000000000000000000, -1.000000000000000000, -0.0000000000000000000 ) ) ;
#361 = AXIS2_PLACEMENT_3D ( 'NONE', #80, #252, #57 ) ;
#362 = VERTEX_POINT ( 'NONE', #317 ) ;
#363 = ORIENTED_EDGE ( 'NONE', *, *, #98, .T. ) ;
#364 = ORIENTED_EDGE ( 'NONE', *, *, #17, .T. ) ;
#365 = VERTEX_POINT ( 'NONE', #7 ) ;
#366 = LINE ( 'NONE', #138, #370 ) ;
#367 = ORIENTED_EDGE ( 'NONE', *, *, #114, .F. ) ;
#368 = EDGE_LOOP ( 'NONE', ( #27, #339 ) ) ;
#369 = AXIS2_PLACEMENT_3D ( 'NONE', #76, #162, #245 ) ;
#370 = VECTOR ( 'NONE', #325, 1000.000000000000000 ) ;
#371 = DIRECTION ( 'NONE',  ( 0.0000000000000000000, -1.000000000000000000, -0.0000000000000000000 ) ) ;
#372 = FACE_OUTER_BOUND ( 'NONE', #181, .T. ) ;
#373 = ORIENTED_EDGE ( 'NONE', *, *, #328, .F. ) ;
#374 = EDGE_LOOP ( 'NONE', ( #306, #236 ) ) ;
ENDSEC;
END-ISO-10303-21;
