ISO-10303-21;
HEADER;
FILE_DESCRIPTION(('CATIA V5 STEP Exchange'),'2;1');

FILE_NAME('C:\\Documents and Settings\\Administrateur\\Bureau\\DOCS FRANCIS\\Mline\\4-CHIFFRAGES-ETUDES\\OLIVIER BOISSEAU\\GALET.stp','2019-04-15T11:32:09+00:00',('none'),('none'),'CATIA Version 5 Release 18 GA (IN-10)','CATIA V5 STEP AP203','none');

FILE_SCHEMA(('CONFIG_CONTROL_DESIGN'));

ENDSEC;
/* file written by CATIA V5R18 */
DATA;
#5=PRODUCT('Part2','','',(#2)) ;
#1=APPLICATION_CONTEXT('configuration controlled 3D design of mechanical parts and assemblies') ;
#14=PRODUCT_DEFINITION(' ',' ',#6,#3) ;
#16=SECURITY_CLASSIFICATION(' ',' ',#15) ;
#15=SECURITY_CLASSIFICATION_LEVEL('unclassified') ;
#47=CARTESIAN_POINT(' ',(0.,0.,0.)) ;
#52=CARTESIAN_POINT('Axis2P3D Location',(0.,-24.,-0.1)) ;
#57=CARTESIAN_POINT('Line Origine',(-3.0351192903,-22.3419067747,-1.42108547152E-014)) ;
#61=CARTESIAN_POINT('Vertex',(-3.0351192903,-22.3419067747,-55.9176899639)) ;
#63=CARTESIAN_POINT('Vertex',(-3.0351192903,-22.3419067747,-14.6897260319)) ;
#67=CARTESIAN_POINT('Control Point',(-3.0351192903,-22.3419067747,-55.9176899639)) ;
#68=CARTESIAN_POINT('Control Point',(-2.6832194332,-21.6977584071,-55.9367905033)) ;
#69=CARTESIAN_POINT('Control Point',(-2.16051476437,-21.1471137127,-55.9623855233)) ;
#70=CARTESIAN_POINT('Control Point',(-1.49966498479,-20.7505596234,-55.9870903852)) ;
#71=CARTESIAN_POINT('Control Point',(-0.401303248282,-20.447792356,-56.0057864723)) ;
#72=CARTESIAN_POINT('Control Point',(0.701269424772,-20.5833036884,-55.99741864)) ;
#73=CARTESIAN_POINT('Control Point',(1.06052807499,-20.6772326888,-55.991594667)) ;
#74=CARTESIAN_POINT('Control Point',(1.74579010288,-20.9581849177,-55.9750522214)) ;
#75=CARTESIAN_POINT('Control Point',(2.33397679034,-21.4080063523,-55.9524317495)) ;
#76=CARTESIAN_POINT('Control Point',(2.59651124262,-21.6710499639,-55.940510686)) ;
#77=CARTESIAN_POINT('Control Point',(3.25165842503,-22.531169377,-55.9074970394)) ;
#78=CARTESIAN_POINT('Control Point',(3.54636363518,-23.597563869,-55.8875047726)) ;
#79=CARTESIAN_POINT('Control Point',(3.55336305855,-24.3351172723,-55.8870018603)) ;
#80=CARTESIAN_POINT('Control Point',(3.37295228697,-25.0396940729,-55.8993529502)) ;
#81=CARTESIAN_POINT('Control Point',(3.0351192903,-25.6580932253,-55.9176899639)) ;
#82=CARTESIAN_POINT('Vertex',(3.0351192903,-25.6580932253,-55.9176899639)) ;
#85=CARTESIAN_POINT('Line Origine',(3.0351192903,-25.6580932253,-1.42108547152E-014)) ;
#89=CARTESIAN_POINT('Vertex',(3.0351192903,-25.6580932253,-14.6897260319)) ;
#93=CARTESIAN_POINT('Control Point',(-3.0351192903,-22.3419067747,-14.6897260319)) ;
#94=CARTESIAN_POINT('Control Point',(-2.85947333242,-22.0203890055,-14.72601714)) ;
#95=CARTESIAN_POINT('Control Point',(-2.64153834713,-21.7226510995,-14.7683083151)) ;
#96=CARTESIAN_POINT('Control Point',(-2.38546835471,-21.4556911446,-14.813131614)) ;
#97=CARTESIAN_POINT('Control Point',(-1.61944722473,-20.8443633849,-14.9271254395)) ;
#98=CARTESIAN_POINT('Control Point',(-0.673673917371,-20.5242269704,-15.0034730475)) ;
#99=CARTESIAN_POINT('Control Point',(-0.0448845672559,-20.4593055884,-15.0199544934)) ;
#100=CARTESIAN_POINT('Control Point',(1.01200909113,-20.5897237217,-14.9859654127)) ;
#101=CARTESIAN_POINT('Control Point',(1.93494531991,-21.0852074037,-14.8818003702)) ;
#102=CARTESIAN_POINT('Control Point',(2.28099215974,-21.347511345,-14.8306444604)) ;
#103=CARTESIAN_POINT('Control Point',(2.83658380822,-21.9235401331,-14.7339028468)) ;
#104=CARTESIAN_POINT('Control Point',(3.20798162148,-22.631679582,-14.654201137)) ;
#105=CARTESIAN_POINT('Control Point',(3.335114277,-22.9792390864,-14.6248899324)) ;
#106=CARTESIAN_POINT('Control Point',(3.50275042197,-23.7393229098,-14.5855060047)) ;
#107=CARTESIAN_POINT('Control Point',(3.45580734972,-24.5187531647,-14.5963816332)) ;
#108=CARTESIAN_POINT('Control Point',(3.37071566315,-24.9210513821,-14.6170667103)) ;
#109=CARTESIAN_POINT('Control Point',(3.2285645244,-25.3039940994,-14.6497573245)) ;
#110=CARTESIAN_POINT('Control Point',(3.0351192903,-25.6580932253,-14.6897260319)) ;
#120=CARTESIAN_POINT('Control Point',(3.0351192903,-25.6580932253,-55.9176899639)) ;
#121=CARTESIAN_POINT('Control Point',(2.6832194332,-26.3022415929,-55.9367905033)) ;
#122=CARTESIAN_POINT('Control Point',(2.16051476437,-26.8528862873,-55.9623855233)) ;
#123=CARTESIAN_POINT('Control Point',(1.4996649848,-27.2494403766,-55.9870903852)) ;
#124=CARTESIAN_POINT('Control Point',(0.40130324828,-27.552207644,-56.0057864723)) ;
#125=CARTESIAN_POINT('Control Point',(-0.701269424782,-27.4166963116,-55.99741864)) ;
#126=CARTESIAN_POINT('Control Point',(-1.06052807496,-27.3227673112,-55.991594667)) ;
#127=CARTESIAN_POINT('Control Point',(-1.74579010282,-27.0418150824,-55.9750522214)) ;
#128=CARTESIAN_POINT('Control Point',(-2.33397679025,-26.5919936477,-55.9524317495)) ;
#129=CARTESIAN_POINT('Control Point',(-2.59651124268,-26.3289500361,-55.940510686)) ;
#130=CARTESIAN_POINT('Control Point',(-3.25165842508,-25.4688306229,-55.9074970394)) ;
#131=CARTESIAN_POINT('Control Point',(-3.54636363522,-24.4024361309,-55.8875047726)) ;
#132=CARTESIAN_POINT('Control Point',(-3.55336305859,-23.6648827278,-55.8870018603)) ;
#133=CARTESIAN_POINT('Control Point',(-3.372952287,-22.9603059272,-55.8993529502)) ;
#134=CARTESIAN_POINT('Control Point',(-3.0351192903,-22.3419067747,-55.9176899639)) ;
#137=CARTESIAN_POINT('Control Point',(3.0351192903,-25.6580932253,-14.6897260319)) ;
#138=CARTESIAN_POINT('Control Point',(2.85947333243,-25.9796109945,-14.72601714)) ;
#139=CARTESIAN_POINT('Control Point',(2.64153834715,-26.2773489005,-14.7683083151)) ;
#140=CARTESIAN_POINT('Control Point',(2.38546835468,-26.5443088554,-14.8131316141)) ;
#141=CARTESIAN_POINT('Control Point',(1.61944722469,-27.1556366151,-14.9271254395)) ;
#142=CARTESIAN_POINT('Control Point',(0.673673917319,-27.4757730296,-15.0034730475)) ;
#143=CARTESIAN_POINT('Control Point',(0.0448845672925,-27.5406944116,-15.0199544934)) ;
#144=CARTESIAN_POINT('Control Point',(-1.01200909112,-27.4102762783,-14.9859654127)) ;
#145=CARTESIAN_POINT('Control Point',(-1.93494531992,-26.9147925963,-14.8818003702)) ;
#146=CARTESIAN_POINT('Control Point',(-2.28099215974,-26.652488655,-14.8306444604)) ;
#147=CARTESIAN_POINT('Control Point',(-2.83658380823,-26.0764598668,-14.7339028468)) ;
#148=CARTESIAN_POINT('Control Point',(-3.20798162148,-25.368320418,-14.654201137)) ;
#149=CARTESIAN_POINT('Control Point',(-3.335114277,-25.0207609136,-14.6248899324)) ;
#150=CARTESIAN_POINT('Control Point',(-3.50275042197,-24.2606770902,-14.5855060047)) ;
#151=CARTESIAN_POINT('Control Point',(-3.45580734972,-23.4812468353,-14.5963816332)) ;
#152=CARTESIAN_POINT('Control Point',(-3.37071566315,-23.0789486179,-14.6170667103)) ;
#153=CARTESIAN_POINT('Control Point',(-3.2285645244,-22.6960059006,-14.6497573245)) ;
#154=CARTESIAN_POINT('Control Point',(-3.0351192903,-22.3419067747,-14.6897260319)) ;
#163=CARTESIAN_POINT('Axis2P3D Location',(0.,0.,0.)) ;
#168=CARTESIAN_POINT('Axis2P3D Location',(0.,-18.7511804201,0.)) ;
#172=CARTESIAN_POINT('Vertex',(49.1446234659,-18.7511804201,-26.8478301618)) ;
#174=CARTESIAN_POINT('Vertex',(-49.1446234659,-18.7511804201,26.8478301618)) ;
#177=CARTESIAN_POINT('Line Origine',(49.1446234659,-1.42108547152E-014,-26.8478301618)) ;
#181=CARTESIAN_POINT('Vertex',(49.1446234659,-32.,-26.8478301618)) ;
#184=CARTESIAN_POINT('Axis2P3D Location',(0.,-32.,0.)) ;
#188=CARTESIAN_POINT('Vertex',(-49.1446234659,-32.,26.8478301618)) ;
#191=CARTESIAN_POINT('Line Origine',(-49.1446234659,-1.42108547152E-014,26.8478301618)) ;
#207=CARTESIAN_POINT('Axis2P3D Location',(0.,-18.7511804201,0.)) ;
#212=CARTESIAN_POINT('Axis2P3D Location',(0.,-32.,0.)) ;
#224=CARTESIAN_POINT('Axis2P3D Location',(56.,-32.,0.)) ;
#233=CARTESIAN_POINT('Axis2P3D Location',(0.,-32.,0.)) ;
#237=CARTESIAN_POINT('Vertex',(-13.1637384284,-32.,7.19138307906)) ;
#239=CARTESIAN_POINT('Vertex',(13.1637384284,-32.,-7.19138307906)) ;
#242=CARTESIAN_POINT('Axis2P3D Location',(0.,-32.,0.)) ;
#252=CARTESIAN_POINT('Axis2P3D Location',(56.,32.,0.)) ;
#257=CARTESIAN_POINT('Axis2P3D Location',(0.,32.,0.)) ;
#261=CARTESIAN_POINT('Vertex',(-49.1446234659,32.,26.8478301618)) ;
#263=CARTESIAN_POINT('Vertex',(49.1446234659,32.,-26.8478301618)) ;
#266=CARTESIAN_POINT('Axis2P3D Location',(0.,32.,0.)) ;
#275=CARTESIAN_POINT('Axis2P3D Location',(0.,32.,0.)) ;
#279=CARTESIAN_POINT('Vertex',(13.1637384284,32.,-7.19138307906)) ;
#281=CARTESIAN_POINT('Vertex',(-13.1637384284,32.,7.19138307906)) ;
#284=CARTESIAN_POINT('Axis2P3D Location',(0.,32.,0.)) ;
#294=CARTESIAN_POINT('Line Origine',(-49.1446234659,-1.42108547152E-014,26.8478301618)) ;
#298=CARTESIAN_POINT('Vertex',(-49.1446234659,18.7511804201,26.8478301618)) ;
#301=CARTESIAN_POINT('Axis2P3D Location',(0.,18.7511804201,0.)) ;
#305=CARTESIAN_POINT('Vertex',(49.1446234659,18.7511804201,-26.8478301618)) ;
#308=CARTESIAN_POINT('Line Origine',(49.1446234659,-1.42108547152E-014,-26.8478301618)) ;
#320=CARTESIAN_POINT('Axis2P3D Location',(0.,18.7511804201,0.)) ;
#333=CARTESIAN_POINT('Control Point',(56.,18.7511804201,0.)) ;
#334=CARTESIAN_POINT('Control Point',(54.6894081504,17.9055839678,0.)) ;
#335=CARTESIAN_POINT('Control Point',(53.4526937711,16.7136650722,0.)) ;
#336=CARTESIAN_POINT('Control Point',(52.3302460961,15.2013394676,0.)) ;
#337=CARTESIAN_POINT('Control Point',(50.3850346237,11.6317391537,0.)) ;
#338=CARTESIAN_POINT('Control Point',(49.1372710479,7.21839872328,0.)) ;
#339=CARTESIAN_POINT('Control Point',(48.7123982651,4.86217936882,0.)) ;
#340=CARTESIAN_POINT('Control Point',(48.2876028316,-1.30408075272E-014,0.)) ;
#341=CARTESIAN_POINT('Control Point',(48.7123982651,-4.86217936882,0.)) ;
#342=CARTESIAN_POINT('Control Point',(49.1372710479,-7.21839872328,0.)) ;
#343=CARTESIAN_POINT('Control Point',(50.3850346237,-11.6317391537,0.)) ;
#344=CARTESIAN_POINT('Control Point',(52.3302460961,-15.2013394676,0.)) ;
#345=CARTESIAN_POINT('Control Point',(53.4526937711,-16.7136650722,0.)) ;
#346=CARTESIAN_POINT('Control Point',(54.6894081504,-17.9055839678,0.)) ;
#347=CARTESIAN_POINT('Control Point',(56.,-18.7511804201,0.)) ;
#348=CARTESIAN_POINT('Axis1P Location',(0.,0.,0.)) ;
#353=CARTESIAN_POINT('Control Point',(-49.1446234659,18.7511804201,26.8478301618)) ;
#354=CARTESIAN_POINT('Control Point',(-47.9944709129,17.9055839678,26.2194989585)) ;
#355=CARTESIAN_POINT('Control Point',(-46.9091519396,16.7136650722,25.626586501)) ;
#356=CARTESIAN_POINT('Control Point',(-45.9241114334,15.2013394676,25.0884564199)) ;
#357=CARTESIAN_POINT('Control Point',(-44.217027766,11.6317391537,24.155872362)) ;
#358=CARTESIAN_POINT('Control Point',(-43.1220122105,7.21839872328,23.5576626377)) ;
#359=CARTESIAN_POINT('Control Point',(-42.7491512653,4.86217936882,23.353967775)) ;
#360=CARTESIAN_POINT('Control Point',(-42.3763582005,-1.36077991588E-014,23.1503099955)) ;
#361=CARTESIAN_POINT('Control Point',(-42.7491512653,-4.86217936882,23.353967775)) ;
#362=CARTESIAN_POINT('Control Point',(-43.1220122105,-7.21839872328,23.5576626377)) ;
#363=CARTESIAN_POINT('Control Point',(-44.217027766,-11.6317391537,24.155872362)) ;
#364=CARTESIAN_POINT('Control Point',(-45.9241114334,-15.2013394676,25.0884564199)) ;
#365=CARTESIAN_POINT('Control Point',(-46.9091519396,-16.7136650722,25.626586501)) ;
#366=CARTESIAN_POINT('Control Point',(-47.9944709129,-17.9055839678,26.2194989585)) ;
#367=CARTESIAN_POINT('Control Point',(-49.1446234659,-18.7511804201,26.8478301618)) ;
#370=CARTESIAN_POINT('Control Point',(49.1446234659,18.7511804201,-26.8478301618)) ;
#371=CARTESIAN_POINT('Control Point',(47.9944709129,17.9055839678,-26.2194989585)) ;
#372=CARTESIAN_POINT('Control Point',(46.9091519396,16.7136650722,-25.626586501)) ;
#373=CARTESIAN_POINT('Control Point',(45.9241114334,15.2013394676,-25.0884564199)) ;
#374=CARTESIAN_POINT('Control Point',(44.217027766,11.6317391537,-24.155872362)) ;
#375=CARTESIAN_POINT('Control Point',(43.1220122105,7.21839872328,-23.5576626377)) ;
#376=CARTESIAN_POINT('Control Point',(42.7491512653,4.86217936882,-23.353967775)) ;
#377=CARTESIAN_POINT('Control Point',(42.3763582005,-1.36077991588E-014,-23.1503099955)) ;
#378=CARTESIAN_POINT('Control Point',(42.7491512653,-4.86217936882,-23.353967775)) ;
#379=CARTESIAN_POINT('Control Point',(43.1220122105,-7.21839872328,-23.5576626377)) ;
#380=CARTESIAN_POINT('Control Point',(44.217027766,-11.6317391537,-24.155872362)) ;
#381=CARTESIAN_POINT('Control Point',(45.9241114334,-15.2013394676,-25.0884564199)) ;
#382=CARTESIAN_POINT('Control Point',(46.9091519396,-16.7136650722,-25.626586501)) ;
#383=CARTESIAN_POINT('Control Point',(47.9944709129,-17.9055839678,-26.2194989585)) ;
#384=CARTESIAN_POINT('Control Point',(49.1446234659,-18.7511804201,-26.8478301618)) ;
#394=CARTESIAN_POINT('Control Point',(56.,18.7511804201,0.)) ;
#395=CARTESIAN_POINT('Control Point',(54.6894081504,17.9055839678,0.)) ;
#396=CARTESIAN_POINT('Control Point',(53.4526937711,16.7136650722,0.)) ;
#397=CARTESIAN_POINT('Control Point',(52.3302460961,15.2013394676,0.)) ;
#398=CARTESIAN_POINT('Control Point',(50.3850346237,11.6317391537,0.)) ;
#399=CARTESIAN_POINT('Control Point',(49.1372710479,7.21839872328,0.)) ;
#400=CARTESIAN_POINT('Control Point',(48.7123982651,4.86217936882,0.)) ;
#401=CARTESIAN_POINT('Control Point',(48.2876028316,-1.30408075272E-014,0.)) ;
#402=CARTESIAN_POINT('Control Point',(48.7123982651,-4.86217936882,0.)) ;
#403=CARTESIAN_POINT('Control Point',(49.1372710479,-7.21839872328,0.)) ;
#404=CARTESIAN_POINT('Control Point',(50.3850346237,-11.6317391537,0.)) ;
#405=CARTESIAN_POINT('Control Point',(52.3302460961,-15.2013394676,0.)) ;
#406=CARTESIAN_POINT('Control Point',(53.4526937711,-16.7136650722,0.)) ;
#407=CARTESIAN_POINT('Control Point',(54.6894081504,-17.9055839678,0.)) ;
#408=CARTESIAN_POINT('Control Point',(56.,-18.7511804201,0.)) ;
#409=CARTESIAN_POINT('Axis1P Location',(0.,0.,0.)) ;
#420=CARTESIAN_POINT('Axis2P3D Location',(0.,0.,0.)) ;
#425=CARTESIAN_POINT('Line Origine',(13.1637384284,-1.42108547152E-014,-7.19138307906)) ;
#430=CARTESIAN_POINT('Line Origine',(-13.1637384284,-1.42108547152E-014,7.19138307906)) ;
#53=DIRECTION('Axis2P3D Direction',(0.,-0.,-1.)) ;
#54=DIRECTION('Axis2P3D XDirection',(0.87758256189,-0.479425538604,0.)) ;
#58=DIRECTION('Vector Direction',(0.,0.,-1.)) ;
#86=DIRECTION('Vector Direction',(0.,0.,-1.)) ;
#164=DIRECTION('Axis2P3D Direction',(0.,1.,0.)) ;
#165=DIRECTION('Axis2P3D XDirection',(0.87758256189,0.,-0.479425538604)) ;
#169=DIRECTION('Axis2P3D Direction',(0.,1.,0.)) ;
#178=DIRECTION('Vector Direction',(0.,1.,0.)) ;
#185=DIRECTION('Axis2P3D Direction',(0.,1.,0.)) ;
#192=DIRECTION('Vector Direction',(0.,1.,0.)) ;
#208=DIRECTION('Axis2P3D Direction',(0.,1.,0.)) ;
#213=DIRECTION('Axis2P3D Direction',(0.,1.,0.)) ;
#225=DIRECTION('Axis2P3D Direction',(0.,1.,0.)) ;
#226=DIRECTION('Axis2P3D XDirection',(1.,-0.,0.)) ;
#234=DIRECTION('Axis2P3D Direction',(0.,1.,0.)) ;
#243=DIRECTION('Axis2P3D Direction',(0.,1.,0.)) ;
#253=DIRECTION('Axis2P3D Direction',(0.,1.,0.)) ;
#254=DIRECTION('Axis2P3D XDirection',(1.,-0.,0.)) ;
#258=DIRECTION('Axis2P3D Direction',(0.,1.,0.)) ;
#267=DIRECTION('Axis2P3D Direction',(0.,1.,0.)) ;
#276=DIRECTION('Axis2P3D Direction',(0.,1.,0.)) ;
#285=DIRECTION('Axis2P3D Direction',(0.,1.,0.)) ;
#295=DIRECTION('Vector Direction',(0.,1.,0.)) ;
#302=DIRECTION('Axis2P3D Direction',(0.,1.,0.)) ;
#309=DIRECTION('Vector Direction',(0.,1.,0.)) ;
#321=DIRECTION('Axis2P3D Direction',(0.,1.,0.)) ;
#349=DIRECTION('Axis1P Direction',(0.,1.,0.)) ;
#410=DIRECTION('Axis1P Direction',(0.,1.,0.)) ;
#421=DIRECTION('Axis2P3D Direction',(0.,1.,0.)) ;
#422=DIRECTION('Axis2P3D XDirection',(0.87758256189,0.,-0.479425538604)) ;
#426=DIRECTION('Vector Direction',(0.,1.,0.)) ;
#431=DIRECTION('Vector Direction',(0.,1.,0.)) ;
#48=AXIS2_PLACEMENT_3D(' ',#47,$,$) ;
#55=AXIS2_PLACEMENT_3D('Cylinder Axis2P3D',#52,#53,#54) ;
#166=AXIS2_PLACEMENT_3D('Cylinder Axis2P3D',#163,#164,#165) ;
#170=AXIS2_PLACEMENT_3D('Circle Axis2P3D',#168,#169,$) ;
#186=AXIS2_PLACEMENT_3D('Circle Axis2P3D',#184,#185,$) ;
#209=AXIS2_PLACEMENT_3D('Circle Axis2P3D',#207,#208,$) ;
#214=AXIS2_PLACEMENT_3D('Circle Axis2P3D',#212,#213,$) ;
#227=AXIS2_PLACEMENT_3D('Plane Axis2P3D',#224,#225,#226) ;
#235=AXIS2_PLACEMENT_3D('Circle Axis2P3D',#233,#234,$) ;
#244=AXIS2_PLACEMENT_3D('Circle Axis2P3D',#242,#243,$) ;
#255=AXIS2_PLACEMENT_3D('Plane Axis2P3D',#252,#253,#254) ;
#259=AXIS2_PLACEMENT_3D('Circle Axis2P3D',#257,#258,$) ;
#268=AXIS2_PLACEMENT_3D('Circle Axis2P3D',#266,#267,$) ;
#277=AXIS2_PLACEMENT_3D('Circle Axis2P3D',#275,#276,$) ;
#286=AXIS2_PLACEMENT_3D('Circle Axis2P3D',#284,#285,$) ;
#303=AXIS2_PLACEMENT_3D('Circle Axis2P3D',#301,#302,$) ;
#322=AXIS2_PLACEMENT_3D('Circle Axis2P3D',#320,#321,$) ;
#423=AXIS2_PLACEMENT_3D('Cylinder Axis2P3D',#420,#421,#422) ;
#40=PRODUCT_DEFINITION_SHAPE(' ',' ',#14) ;
#31=APPROVAL_PERSON_ORGANIZATION(#25,#21,#19) ;
#25=PERSON_AND_ORGANIZATION(#22,#23) ;
#22=PERSON(' ',' ',' ',$,$,$) ;
#23=ORGANIZATION(' ',' ',' ') ;
#21=APPROVAL(#20,' ') ;
#20=APPROVAL_STATUS('not_yet_approved') ;
#19=APPROVAL_ROLE('APPROVER') ;
#13=DATE_AND_TIME(#11,#12) ;
#12=LOCAL_TIME(13,32,9.,#10) ;
#10=COORDINATED_UNIVERSAL_TIME_OFFSET(0,0,.AHEAD.) ;
#113=ORIENTED_EDGE('',*,*,#65,.F.) ;
#114=ORIENTED_EDGE('',*,*,#84,.T.) ;
#115=ORIENTED_EDGE('',*,*,#91,.T.) ;
#116=ORIENTED_EDGE('',*,*,#111,.F.) ;
#157=ORIENTED_EDGE('',*,*,#91,.F.) ;
#158=ORIENTED_EDGE('',*,*,#135,.T.) ;
#159=ORIENTED_EDGE('',*,*,#65,.T.) ;
#160=ORIENTED_EDGE('',*,*,#155,.F.) ;
#197=ORIENTED_EDGE('',*,*,#176,.F.) ;
#198=ORIENTED_EDGE('',*,*,#183,.T.) ;
#199=ORIENTED_EDGE('',*,*,#190,.T.) ;
#200=ORIENTED_EDGE('',*,*,#195,.F.) ;
#203=ORIENTED_EDGE('',*,*,#135,.F.) ;
#204=ORIENTED_EDGE('',*,*,#84,.F.) ;
#218=ORIENTED_EDGE('',*,*,#211,.F.) ;
#219=ORIENTED_EDGE('',*,*,#195,.T.) ;
#220=ORIENTED_EDGE('',*,*,#216,.T.) ;
#221=ORIENTED_EDGE('',*,*,#183,.F.) ;
#230=ORIENTED_EDGE('',*,*,#190,.F.) ;
#231=ORIENTED_EDGE('',*,*,#216,.F.) ;
#248=ORIENTED_EDGE('',*,*,#241,.T.) ;
#249=ORIENTED_EDGE('',*,*,#246,.T.) ;
#272=ORIENTED_EDGE('',*,*,#265,.T.) ;
#273=ORIENTED_EDGE('',*,*,#270,.T.) ;
#290=ORIENTED_EDGE('',*,*,#283,.F.) ;
#291=ORIENTED_EDGE('',*,*,#288,.F.) ;
#314=ORIENTED_EDGE('',*,*,#265,.F.) ;
#315=ORIENTED_EDGE('',*,*,#300,.T.) ;
#316=ORIENTED_EDGE('',*,*,#307,.T.) ;
#317=ORIENTED_EDGE('',*,*,#312,.F.) ;
#326=ORIENTED_EDGE('',*,*,#270,.F.) ;
#327=ORIENTED_EDGE('',*,*,#312,.T.) ;
#328=ORIENTED_EDGE('',*,*,#324,.T.) ;
#329=ORIENTED_EDGE('',*,*,#300,.F.) ;
#387=ORIENTED_EDGE('',*,*,#307,.F.) ;
#388=ORIENTED_EDGE('',*,*,#368,.T.) ;
#389=ORIENTED_EDGE('',*,*,#211,.T.) ;
#390=ORIENTED_EDGE('',*,*,#385,.F.) ;
#414=ORIENTED_EDGE('',*,*,#324,.F.) ;
#415=ORIENTED_EDGE('',*,*,#385,.T.) ;
#416=ORIENTED_EDGE('',*,*,#176,.T.) ;
#417=ORIENTED_EDGE('',*,*,#368,.F.) ;
#436=ORIENTED_EDGE('',*,*,#246,.F.) ;
#437=ORIENTED_EDGE('',*,*,#429,.T.) ;
#438=ORIENTED_EDGE('',*,*,#283,.T.) ;
#439=ORIENTED_EDGE('',*,*,#434,.F.) ;
#442=ORIENTED_EDGE('',*,*,#111,.T.) ;
#443=ORIENTED_EDGE('',*,*,#155,.T.) ;
#447=ORIENTED_EDGE('',*,*,#241,.F.) ;
#448=ORIENTED_EDGE('',*,*,#434,.T.) ;
#449=ORIENTED_EDGE('',*,*,#288,.T.) ;
#450=ORIENTED_EDGE('',*,*,#429,.F.) ;
#205=FACE_BOUND('',#202,.T.) ;
#250=FACE_BOUND('',#247,.T.) ;
#292=FACE_BOUND('',#289,.T.) ;
#444=FACE_BOUND('',#441,.T.) ;
#51=CLOSED_SHELL('Closed Shell',(#118,#162,#206,#223,#251,#293,#319,#331,#392,#419,#445,#452)) ;
#59=VECTOR('Line Direction',#58,1.) ;
#87=VECTOR('Line Direction',#86,1.) ;
#179=VECTOR('Line Direction',#178,1.) ;
#193=VECTOR('Line Direction',#192,1.) ;
#296=VECTOR('Line Direction',#295,1.) ;
#310=VECTOR('Line Direction',#309,1.) ;
#427=VECTOR('Line Direction',#426,1.) ;
#432=VECTOR('Line Direction',#431,1.) ;
#454=ADVANCED_BREP_SHAPE_REPRESENTATION('NONE',(#453),#46) ;
#49=SHAPE_REPRESENTATION(' ',(#48),#46) ;
#118=ADVANCED_FACE('Corps principal',(#117),#56,.F.) ;
#162=ADVANCED_FACE('Corps principal',(#161),#56,.F.) ;
#206=ADVANCED_FACE('Corps principal',(#201,#205),#167,.T.) ;
#223=ADVANCED_FACE('Corps principal',(#222),#167,.T.) ;
#251=ADVANCED_FACE('Corps principal',(#232,#250),#228,.F.) ;
#293=ADVANCED_FACE('Corps principal',(#274,#292),#256,.T.) ;
#319=ADVANCED_FACE('Corps principal',(#318),#167,.T.) ;
#331=ADVANCED_FACE('Corps principal',(#330),#167,.T.) ;
#392=ADVANCED_FACE('Corps principal',(#391),#351,.F.) ;
#419=ADVANCED_FACE('Corps principal',(#418),#412,.F.) ;
#445=ADVANCED_FACE('Corps principal',(#440,#444),#424,.F.) ;
#452=ADVANCED_FACE('Corps principal',(#451),#424,.F.) ;
#4=APPLICATION_PROTOCOL_DEFINITION('international standard','config_control_design',1994,#1) ;
#32=APPROVAL_DATE_TIME(#13,#21) ;
#350=AXIS1_PLACEMENT('Revolution Surface Axis1P',#348,#349) ;
#411=AXIS1_PLACEMENT('Revolution Surface Axis1P',#409,#410) ;
#66=B_SPLINE_CURVE_WITH_KNOTS('',5,(#67,#68,#69,#70,#71,#72,#73,#74,#75,#76,#77,#78,#79,#80,#81),.UNSPECIFIED.,.F.,.U.,(6,3,3,3,6),(0.,5.19194308338,7.78680172263,10.3847692628,15.3691693842),.UNSPECIFIED.) ;
#92=B_SPLINE_CURVE_WITH_KNOTS('',5,(#93,#94,#95,#96,#97,#98,#99,#100,#101,#102,#103,#104,#105,#106,#107,#108,#109,#110),.UNSPECIFIED.,.F.,.U.,(6,3,3,3,3,6),(0.,2.60328852603,6.91633279897,9.9567650605,12.5501641335,15.4172597641),.UNSPECIFIED.) ;
#119=B_SPLINE_CURVE_WITH_KNOTS('',5,(#120,#121,#122,#123,#124,#125,#126,#127,#128,#129,#130,#131,#132,#133,#134),.UNSPECIFIED.,.F.,.U.,(6,3,3,3,6),(0.,5.19194308336,7.78680172269,10.3847692625,15.3691693843),.UNSPECIFIED.) ;
#136=B_SPLINE_CURVE_WITH_KNOTS('',5,(#137,#138,#139,#140,#141,#142,#143,#144,#145,#146,#147,#148,#149,#150,#151,#152,#153,#154),.UNSPECIFIED.,.F.,.U.,(6,3,3,3,3,6),(0.,2.60328852592,6.91633279901,9.95676506056,12.5501641336,15.4172597642),.UNSPECIFIED.) ;
#332=B_SPLINE_CURVE_WITH_KNOTS('',5,(#333,#334,#335,#336,#337,#338,#339,#340,#341,#342,#343,#344,#345,#346,#347),.UNSPECIFIED.,.F.,.U.,(6,3,3,3,6),(8.19584327478,22.2174836518,36.2391240288,50.2607644058,64.2824047829),.UNSPECIFIED.) ;
#352=B_SPLINE_CURVE_WITH_KNOTS('',5,(#353,#354,#355,#356,#357,#358,#359,#360,#361,#362,#363,#364,#365,#366,#367),.UNSPECIFIED.,.F.,.U.,(6,3,3,3,6),(8.19584327478,22.2174836518,36.2391240288,50.2607644058,64.2824047829),.UNSPECIFIED.) ;
#369=B_SPLINE_CURVE_WITH_KNOTS('',5,(#370,#371,#372,#373,#374,#375,#376,#377,#378,#379,#380,#381,#382,#383,#384),.UNSPECIFIED.,.F.,.U.,(6,3,3,3,6),(8.19584327478,22.2174836518,36.2391240288,50.2607644058,64.2824047829),.UNSPECIFIED.) ;
#393=B_SPLINE_CURVE_WITH_KNOTS('',5,(#394,#395,#396,#397,#398,#399,#400,#401,#402,#403,#404,#405,#406,#407,#408),.UNSPECIFIED.,.F.,.U.,(6,3,3,3,6),(8.19584327478,22.2174836518,36.2391240288,50.2607644058,64.2824047829),.UNSPECIFIED.) ;
#453=MANIFOLD_SOLID_BREP('Corps principal',#51) ;
#11=CALENDAR_DATE(2019,15,4) ;
#30=CC_DESIGN_APPROVAL(#21,(#16,#6,#14)) ;
#18=CC_DESIGN_DATE_AND_TIME_ASSIGNMENT(#13,#17,(#16)) ;
#29=CC_DESIGN_DATE_AND_TIME_ASSIGNMENT(#13,#28,(#14)) ;
#17=DATE_TIME_ROLE('classification_date') ;
#28=DATE_TIME_ROLE('creation_date') ;
#27=CC_DESIGN_PERSON_AND_ORGANIZATION_ASSIGNMENT(#25,#26,(#16)) ;
#33=CC_DESIGN_PERSON_AND_ORGANIZATION_ASSIGNMENT(#25,#34,(#6)) ;
#35=CC_DESIGN_PERSON_AND_ORGANIZATION_ASSIGNMENT(#25,#36,(#6,#14)) ;
#37=CC_DESIGN_PERSON_AND_ORGANIZATION_ASSIGNMENT(#25,#38,(#5)) ;
#26=PERSON_AND_ORGANIZATION_ROLE('classification_officer') ;
#34=PERSON_AND_ORGANIZATION_ROLE('design_supplier') ;
#36=PERSON_AND_ORGANIZATION_ROLE('creator') ;
#38=PERSON_AND_ORGANIZATION_ROLE('design_owner') ;
#39=CC_DESIGN_SECURITY_CLASSIFICATION(#16,(#6)) ;
#171=CIRCLE('generated circle',#170,56.) ;
#187=CIRCLE('generated circle',#186,56.) ;
#210=CIRCLE('generated circle',#209,56.) ;
#215=CIRCLE('generated circle',#214,56.) ;
#236=CIRCLE('generated circle',#235,15.) ;
#245=CIRCLE('generated circle',#244,15.) ;
#260=CIRCLE('generated circle',#259,56.) ;
#269=CIRCLE('generated circle',#268,56.) ;
#278=CIRCLE('generated circle',#277,15.) ;
#287=CIRCLE('generated circle',#286,15.) ;
#304=CIRCLE('generated circle',#303,56.) ;
#323=CIRCLE('generated circle',#322,56.) ;
#455=SHAPE_REPRESENTATION_RELATIONSHIP(' ',' ',#49,#454) ;
#56=CYLINDRICAL_SURFACE('generated cylinder',#55,3.4585) ;
#167=CYLINDRICAL_SURFACE('generated cylinder',#166,56.) ;
#424=CYLINDRICAL_SURFACE('generated cylinder',#423,15.) ;
#3=DESIGN_CONTEXT(' ',#1,'design') ;
#65=EDGE_CURVE('',#62,#64,#60,.F.) ;
#84=EDGE_CURVE('',#62,#83,#66,.T.) ;
#91=EDGE_CURVE('',#83,#90,#88,.F.) ;
#111=EDGE_CURVE('',#64,#90,#92,.T.) ;
#135=EDGE_CURVE('',#83,#62,#119,.T.) ;
#155=EDGE_CURVE('',#90,#64,#136,.T.) ;
#176=EDGE_CURVE('',#173,#175,#171,.T.) ;
#183=EDGE_CURVE('',#173,#182,#180,.F.) ;
#190=EDGE_CURVE('',#182,#189,#187,.T.) ;
#195=EDGE_CURVE('',#175,#189,#194,.F.) ;
#211=EDGE_CURVE('',#175,#173,#210,.T.) ;
#216=EDGE_CURVE('',#189,#182,#215,.T.) ;
#241=EDGE_CURVE('',#238,#240,#236,.T.) ;
#246=EDGE_CURVE('',#240,#238,#245,.T.) ;
#265=EDGE_CURVE('',#262,#264,#260,.T.) ;
#270=EDGE_CURVE('',#264,#262,#269,.T.) ;
#283=EDGE_CURVE('',#280,#282,#278,.T.) ;
#288=EDGE_CURVE('',#282,#280,#287,.T.) ;
#300=EDGE_CURVE('',#262,#299,#297,.F.) ;
#307=EDGE_CURVE('',#299,#306,#304,.T.) ;
#312=EDGE_CURVE('',#264,#306,#311,.F.) ;
#324=EDGE_CURVE('',#306,#299,#323,.T.) ;
#368=EDGE_CURVE('',#299,#175,#352,.T.) ;
#385=EDGE_CURVE('',#306,#173,#369,.T.) ;
#429=EDGE_CURVE('',#240,#280,#428,.T.) ;
#434=EDGE_CURVE('',#238,#282,#433,.T.) ;
#112=EDGE_LOOP('',(#113,#114,#115,#116)) ;
#156=EDGE_LOOP('',(#157,#158,#159,#160)) ;
#196=EDGE_LOOP('',(#197,#198,#199,#200)) ;
#202=EDGE_LOOP('',(#203,#204)) ;
#217=EDGE_LOOP('',(#218,#219,#220,#221)) ;
#229=EDGE_LOOP('',(#230,#231)) ;
#247=EDGE_LOOP('',(#248,#249)) ;
#271=EDGE_LOOP('',(#272,#273)) ;
#289=EDGE_LOOP('',(#290,#291)) ;
#313=EDGE_LOOP('',(#314,#315,#316,#317)) ;
#325=EDGE_LOOP('',(#326,#327,#328,#329)) ;
#386=EDGE_LOOP('',(#387,#388,#389,#390)) ;
#413=EDGE_LOOP('',(#414,#415,#416,#417)) ;
#435=EDGE_LOOP('',(#436,#437,#438,#439)) ;
#441=EDGE_LOOP('',(#442,#443)) ;
#446=EDGE_LOOP('',(#447,#448,#449,#450)) ;
#117=FACE_OUTER_BOUND('',#112,.T.) ;
#161=FACE_OUTER_BOUND('',#156,.T.) ;
#201=FACE_OUTER_BOUND('',#196,.T.) ;
#222=FACE_OUTER_BOUND('',#217,.T.) ;
#232=FACE_OUTER_BOUND('',#229,.T.) ;
#274=FACE_OUTER_BOUND('',#271,.T.) ;
#318=FACE_OUTER_BOUND('',#313,.T.) ;
#330=FACE_OUTER_BOUND('',#325,.T.) ;
#391=FACE_OUTER_BOUND('',#386,.T.) ;
#418=FACE_OUTER_BOUND('',#413,.T.) ;
#440=FACE_OUTER_BOUND('',#435,.T.) ;
#451=FACE_OUTER_BOUND('',#446,.T.) ;
#45=UNCERTAINTY_MEASURE_WITH_UNIT(LENGTH_MEASURE(0.005),#41,'distance_accuracy_value','CONFUSED CURVE UNCERTAINTY') ;
#60=LINE('Line',#57,#59) ;
#88=LINE('Line',#85,#87) ;
#180=LINE('Line',#177,#179) ;
#194=LINE('Line',#191,#193) ;
#297=LINE('Line',#294,#296) ;
#311=LINE('Line',#308,#310) ;
#428=LINE('Line',#425,#427) ;
#433=LINE('Line',#430,#432) ;
#2=MECHANICAL_CONTEXT(' ',#1,'mechanical') ;
#24=PERSONAL_ADDRESS(' ',' ',' ',' ',' ',' ',' ',' ',' ',' ',' ',' ',(#22),' ') ;
#228=PLANE('Plane',#227) ;
#256=PLANE('Plane',#255) ;
#43=PLANE_ANGLE_MEASURE_WITH_UNIT(PLANE_ANGLE_MEASURE(0.0174532925199),#42) ;
#7=PRODUCT_CATEGORY('part',$) ;
#9=PRODUCT_CATEGORY_RELATIONSHIP(' ',' ',#7,#8) ;
#6=PRODUCT_DEFINITION_FORMATION_WITH_SPECIFIED_SOURCE('',' ',#5,.NOT_KNOWN.) ;
#8=PRODUCT_RELATED_PRODUCT_CATEGORY('detail',$,(#5)) ;
#50=SHAPE_DEFINITION_REPRESENTATION(#40,#49) ;
#351=SURFACE_OF_REVOLUTION('Surface of Revolution',#332,#350) ;
#412=SURFACE_OF_REVOLUTION('Surface of Revolution',#393,#411) ;
#62=VERTEX_POINT('',#61) ;
#64=VERTEX_POINT('',#63) ;
#83=VERTEX_POINT('',#82) ;
#90=VERTEX_POINT('',#89) ;
#173=VERTEX_POINT('',#172) ;
#175=VERTEX_POINT('',#174) ;
#182=VERTEX_POINT('',#181) ;
#189=VERTEX_POINT('',#188) ;
#238=VERTEX_POINT('',#237) ;
#240=VERTEX_POINT('',#239) ;
#262=VERTEX_POINT('',#261) ;
#264=VERTEX_POINT('',#263) ;
#280=VERTEX_POINT('',#279) ;
#282=VERTEX_POINT('',#281) ;
#299=VERTEX_POINT('',#298) ;
#306=VERTEX_POINT('',#305) ;
#41=(LENGTH_UNIT()NAMED_UNIT(*)SI_UNIT(.MILLI.,.METRE.)) ;
#42=(NAMED_UNIT(*)PLANE_ANGLE_UNIT()SI_UNIT($,.RADIAN.)) ;
#44=(NAMED_UNIT(*)SI_UNIT($,.STERADIAN.)SOLID_ANGLE_UNIT()) ;
#46=(GEOMETRIC_REPRESENTATION_CONTEXT(3)GLOBAL_UNCERTAINTY_ASSIGNED_CONTEXT((#45))GLOBAL_UNIT_ASSIGNED_CONTEXT((#41,#42,#44))REPRESENTATION_CONTEXT(' ',' ')) ;
ENDSEC;
END-ISO-10303-21;
