ISO-10303-21;
HEADER;
FILE_DESCRIPTION (( 'STEP AP214' ),
    '1' );
FILE_NAME ('Bague Alu standard .STEP',
    '2019-03-18T10:38:21',
    ( '' ),
    ( '' ),
    'SwSTEP 2.0',
    'SolidWorks 2016',
    '' );
FILE_SCHEMA (( 'AUTOMOTIVE_DESIGN' ));
ENDSEC;

DATA;
#1 = DIRECTION ( 'NONE',  ( -0.0000000000000000000, -0.0000000000000000000, 1.000000000000000000 ) ) ;
#2 = ORIENTED_EDGE ( 'NONE', *, *, #299, .T. ) ;
#3 = ORIENTED_EDGE ( 'NONE', *, *, #152, .T. ) ;
#4 = LINE ( 'NONE', #97, #164 ) ;
#5 = AXIS2_PLACEMENT_3D ( 'NONE', #44, #230, #80 ) ;
#6 = DIRECTION ( 'NONE',  ( 1.000000000000000000, 0.0000000000000000000, 0.0000000000000000000 ) ) ;
#7 = ORIENTED_EDGE ( 'NONE', *, *, #312, .F. ) ;
#8 = EDGE_LOOP ( 'NONE', ( #269, #108, #199, #211 ) ) ;
#9 = AXIS2_PLACEMENT_3D ( 'NONE', #288, #132, #293 ) ;
#10 = VERTEX_POINT ( 'NONE', #144 ) ;
#11 = ADVANCED_FACE ( 'NONE', ( #260 ), #120, .T. ) ;
#12 = CARTESIAN_POINT ( 'NONE',  ( -41.99999999999999300, 5.143516556418882500E-015, -32.00000000000000000 ) ) ;
#13 = COLOUR_RGB ( '',1.000000000000000000, 0.0000000000000000000, 0.0000000000000000000 ) ;
#14 = VERTEX_POINT ( 'NONE', #12 ) ;
#15 = ADVANCED_FACE ( 'NONE', ( #310 ), #240, .T. ) ;
#16 = ORIENTED_EDGE ( 'NONE', *, *, #187, .T. ) ;
#17 = SURFACE_STYLE_USAGE ( .BOTH. , #308 ) ;
#18 = DIRECTION ( 'NONE',  ( -0.0000000000000000000, -0.0000000000000000000, 1.000000000000000000 ) ) ;
#19 = ORIENTED_EDGE ( 'NONE', *, *, #152, .F. ) ;
#20 = DIRECTION ( 'NONE',  ( -0.0000000000000000000, -0.0000000000000000000, 1.000000000000000000 ) ) ;
#21 = FACE_OUTER_BOUND ( 'NONE', #137, .T. ) ;
#22 = AXIS2_PLACEMENT_3D ( 'NONE', #125, #18, #175 ) ;
#23 = DIRECTION ( 'NONE',  ( 1.000000000000000000, 0.0000000000000000000, 0.0000000000000000000 ) ) ;
#24 = EDGE_LOOP ( 'NONE', ( #228, #159, #244, #291 ) ) ;
#25 = CARTESIAN_POINT ( 'NONE',  ( -21.25000000000000000, 2.602374448188125400E-015, 0.0000000000000000000 ) ) ;
#26 = AXIS2_PLACEMENT_3D ( 'NONE', #217, #162, #33 ) ;
#27 = CARTESIAN_POINT ( 'NONE',  ( 0.0000000000000000000, 0.0000000000000000000, 0.0000000000000000000 ) ) ;
#28 = ORIENTED_EDGE ( 'NONE', *, *, #31, .T. ) ;
#29 = DIRECTION ( 'NONE',  ( 1.000000000000000000, 0.0000000000000000000, 0.0000000000000000000 ) ) ;
#30 = PRESENTATION_LAYER_ASSIGNMENT (  '', '', ( #63 ) ) ;
#31 = EDGE_CURVE ( 'NONE', #298, #232, #332, .T. ) ;
#32 = DIRECTION ( 'NONE',  ( 0.0000000000000000000, 0.0000000000000000000, -1.000000000000000000 ) ) ;
#33 = DIRECTION ( 'NONE',  ( 1.000000000000000000, 0.0000000000000000000, 0.0000000000000000000 ) ) ;
#34 = SURFACE_STYLE_FILL_AREA ( #176 ) ;
#35 = DIRECTION ( 'NONE',  ( -0.0000000000000000000, -0.0000000000000000000, 1.000000000000000000 ) ) ;
#36 = FACE_OUTER_BOUND ( 'NONE', #153, .T. ) ;
#37 = EDGE_CURVE ( 'NONE', #265, #277, #218, .T. ) ;
#38 = PRODUCT ( 'Bague Alu standard ', 'Bague Alu standard ', '', ( #165 ) ) ;
#39 = PRODUCT_DEFINITION ( 'UNKNOWN', '', #321, #193 ) ;
#40 = VERTEX_POINT ( 'NONE', #146 ) ;
#41 = DIRECTION ( 'NONE',  ( -1.000000000000000000, 0.0000000000000000000, 0.0000000000000000000 ) ) ;
#42 = ADVANCED_FACE ( 'NONE', ( #21, #285 ), #233, .T. ) ;
#43 = VECTOR ( 'NONE', #105, 1000.000000000000000 ) ;
#44 = CARTESIAN_POINT ( 'NONE',  ( 0.0000000000000000000, 0.0000000000000000000, -2.499999999999981300 ) ) ;
#45 = PRODUCT_DEFINITION_SHAPE ( 'NONE', 'NONE',  #39 ) ;
#46 = DIRECTION ( 'NONE',  ( -0.0000000000000000000, -0.0000000000000000000, 1.000000000000000000 ) ) ;
#47 = AXIS2_PLACEMENT_3D ( 'NONE', #315, #184, #50 ) ;
#48 = EDGE_CURVE ( 'NONE', #141, #298, #4, .T. ) ;
#49 = EDGE_LOOP ( 'NONE', ( #163, #272, #236, #121 ) ) ;
#50 = DIRECTION ( 'NONE',  ( 1.000000000000000000, 0.0000000000000000000, 0.0000000000000000000 ) ) ;
#51 = DIRECTION ( 'NONE',  ( 1.000000000000000000, 0.0000000000000000000, 0.0000000000000000000 ) ) ;
#52 = EDGE_CURVE ( 'NONE', #40, #10, #178, .T. ) ;
#53 = DIRECTION ( 'NONE',  ( -0.0000000000000000000, -0.0000000000000000000, 1.000000000000000000 ) ) ;
#54 = AXIS2_PLACEMENT_3D ( 'NONE', #249, #100, #206 ) ;
#55 = EDGE_CURVE ( 'NONE', #99, #10, #250, .T. ) ;
#56 = DIRECTION ( 'NONE',  ( 1.000000000000000000, 0.0000000000000000000, 0.0000000000000000000 ) ) ;
#57 = AXIS2_PLACEMENT_3D ( 'NONE', #128, #32, #191 ) ;
#58 = CYLINDRICAL_SURFACE ( 'NONE', #266, 27.00000000000000400 ) ;
#59 = EDGE_LOOP ( 'NONE', ( #156, #2 ) ) ;
#60 = DIRECTION ( 'NONE',  ( 1.000000000000000000, 0.0000000000000000000, 0.0000000000000000000 ) ) ;
#61 = DIRECTION ( 'NONE',  ( -0.0000000000000000000, -0.0000000000000000000, 1.000000000000000000 ) ) ;
#62 = UNCERTAINTY_MEASURE_WITH_UNIT (LENGTH_MEASURE( 1.000000000000000100E-005 ), #270, 'distance_accuracy_value', 'NONE');
#63 = STYLED_ITEM ( 'NONE', ( #280 ), #136 ) ;
#64 = AXIS2_PLACEMENT_3D ( 'NONE', #70, #74, #283 ) ;
#65 = CIRCLE ( 'NONE', #9, 24.50000000000003200 ) ;
#66 = ORIENTED_EDGE ( 'NONE', *, *, #219, .F. ) ;
#67 = AXIS2_PLACEMENT_3D ( 'NONE', #216, #297, #239 ) ;
#68 = VECTOR ( 'NONE', #35, 1000.000000000000000 ) ;
#69 = EDGE_LOOP ( 'NONE', ( #327, #339, #222, #296 ) ) ;
#70 = CARTESIAN_POINT ( 'NONE',  ( 0.0000000000000000000, 0.0000000000000000000, 0.0000000000000000000 ) ) ;
#71 = AXIS2_PLACEMENT_3D ( 'NONE', #337, #229, #102 ) ;
#72 = VERTEX_POINT ( 'NONE', #126 ) ;
#73 = PRESENTATION_STYLE_ASSIGNMENT (( #188 ) ) ;
#74 = DIRECTION ( 'NONE',  ( -0.0000000000000000000, -0.0000000000000000000, 1.000000000000000000 ) ) ;
#75 = DIRECTION ( 'NONE',  ( 1.000000000000000000, 0.0000000000000000000, 0.0000000000000000000 ) ) ;
#76 = VERTEX_POINT ( 'NONE', #340 ) ;
#77 = EDGE_CURVE ( 'NONE', #336, #232, #322, .T. ) ;
#78 = ORIENTED_EDGE ( 'NONE', *, *, #245, .T. ) ;
#79 = UNCERTAINTY_MEASURE_WITH_UNIT (LENGTH_MEASURE( 1.000000000000000100E-005 ), #300, 'distance_accuracy_value', 'NONE');
#80 = DIRECTION ( 'NONE',  ( 1.000000000000000000, 0.0000000000000000000, 0.0000000000000000000 ) ) ;
#81 = DIRECTION ( 'NONE',  ( -0.0000000000000000000, -0.0000000000000000000, 1.000000000000000000 ) ) ;
#82 = DIRECTION ( 'NONE',  ( 1.000000000000000000, 0.0000000000000000000, 0.0000000000000000000 ) ) ;
#83 = CARTESIAN_POINT ( 'NONE',  ( 27.00000000000000400, 0.0000000000000000000, -2.499999999999981300 ) ) ;
#84 = CIRCLE ( 'NONE', #26, 27.00000000000000400 ) ;
#85 = EDGE_LOOP ( 'NONE', ( #93, #16, #234, #127 ) ) ;
#86 = AXIS2_PLACEMENT_3D ( 'NONE', #161, #292, #342 ) ;
#87 = CARTESIAN_POINT ( 'NONE',  ( 0.0000000000000000000, 0.0000000000000000000, -22.00000000000000000 ) ) ;
#88 = DIRECTION ( 'NONE',  ( -0.0000000000000000000, -0.0000000000000000000, 1.000000000000000000 ) ) ;
#89 = CARTESIAN_POINT ( 'NONE',  ( 27.00000000000000400, 0.0000000000000000000, 0.0000000000000000000 ) ) ;
#90 = SHAPE_DEFINITION_REPRESENTATION ( #45, #224 ) ;
#91 = ORIENTED_EDGE ( 'NONE', *, *, #256, .T. ) ;
#92 = APPLICATION_PROTOCOL_DEFINITION ( 'draft international standard', 'automotive_design', 1998, #264 ) ;
#93 = ORIENTED_EDGE ( 'NONE', *, *, #299, .F. ) ;
#94 = ORIENTED_EDGE ( 'NONE', *, *, #279, .T. ) ;
#95 = VECTOR ( 'NONE', #252, 1000.000000000000100 ) ;
#96 = CARTESIAN_POINT ( 'NONE',  ( -24.50000000000003200, 0.0000000000000000000, -3.520859547548644400E-016 ) ) ;
#97 = CARTESIAN_POINT ( 'NONE',  ( -24.50000000000003200, 0.0000000000000000000, -3.520859547548644400E-016 ) ) ;
#98 = FACE_OUTER_BOUND ( 'NONE', #254, .T. ) ;
#99 = VERTEX_POINT ( 'NONE', #335 ) ;
#100 = DIRECTION ( 'NONE',  ( -0.0000000000000000000, -0.0000000000000000000, 1.000000000000000000 ) ) ;
#101 = AXIS2_PLACEMENT_3D ( 'NONE', #111, #1, #60 ) ;
#102 = DIRECTION ( 'NONE',  ( -1.000000000000000000, 0.0000000000000000000, 0.0000000000000000000 ) ) ;
#103 = CYLINDRICAL_SURFACE ( 'NONE', #286, 27.00000000000000400 ) ;
#104 = CARTESIAN_POINT ( 'NONE',  ( 0.0000000000000000000, 0.0000000000000000000, 0.0000000000000000000 ) ) ;
#105 = DIRECTION ( 'NONE',  ( -0.0000000000000000000, -0.0000000000000000000, 1.000000000000000000 ) ) ;
#106 = DIRECTION ( 'NONE',  ( -0.0000000000000000000, -0.0000000000000000000, 1.000000000000000000 ) ) ;
#107 = CIRCLE ( 'NONE', #341, 21.25000000000000000 ) ;
#108 = ORIENTED_EDGE ( 'NONE', *, *, #221, .T. ) ;
#109 = DIRECTION ( 'NONE',  ( -0.0000000000000000000, -0.0000000000000000000, 1.000000000000000000 ) ) ;
#110 = APPLICATION_CONTEXT ( 'automotive_design' ) ;
#111 = CARTESIAN_POINT ( 'NONE',  ( 0.0000000000000000000, 0.0000000000000000000, -32.00000000000000000 ) ) ;
#112 = EDGE_LOOP ( 'NONE', ( #66, #174 ) ) ;
#113 = FILL_AREA_STYLE ('',( #319 ) ) ;
#114 = EDGE_CURVE ( 'NONE', #14, #198, #223, .T. ) ;
#115 = SURFACE_STYLE_FILL_AREA ( #113 ) ;
#116 =( GEOMETRIC_REPRESENTATION_CONTEXT ( 3 ) GLOBAL_UNCERTAINTY_ASSIGNED_CONTEXT ( ( #143 ) ) GLOBAL_UNIT_ASSIGNED_CONTEXT ( ( #151, #201, #284 ) ) REPRESENTATION_CONTEXT ( 'NONE', 'WORKASPACE' ) );
#117 = AXIS2_PLACEMENT_3D ( 'NONE', #87, #61, #6 ) ;
#118 = EDGE_CURVE ( 'NONE', #10, #99, #150, .T. ) ;
#119 = CONICAL_SURFACE ( 'NONE', #71, 24.50000000000003200, 0.7853981633974463900 ) ;
#120 = CONICAL_SURFACE ( 'NONE', #331, 24.50000000000003200, 0.7853981633974463900 ) ;
#121 = ORIENTED_EDGE ( 'NONE', *, *, #138, .F. ) ;
#122 = ADVANCED_FACE ( 'NONE', ( #212 ), #103, .T. ) ;
#123 = CARTESIAN_POINT ( 'NONE',  ( 0.0000000000000000000, 0.0000000000000000000, -3.520859547548644400E-016 ) ) ;
#124 = ORIENTED_EDGE ( 'NONE', *, *, #326, .T. ) ;
#125 = CARTESIAN_POINT ( 'NONE',  ( 0.0000000000000000000, 0.0000000000000000000, 0.0000000000000000000 ) ) ;
#126 = CARTESIAN_POINT ( 'NONE',  ( -21.25000000000000000, 2.602374448188125400E-015, -32.00000000000000000 ) ) ;
#127 = ORIENTED_EDGE ( 'NONE', *, *, #52, .F. ) ;
#128 = CARTESIAN_POINT ( 'NONE',  ( 21.25000000000000000, 0.0000000000000000000, -32.00000000000000000 ) ) ;
#129 = CIRCLE ( 'NONE', #231, 27.00000000000000400 ) ;
#130 = AXIS2_PLACEMENT_3D ( 'NONE', #309, #208, #226 ) ;
#131 = DIRECTION ( 'NONE',  ( 0.0000000000000000000, -0.0000000000000000000, 1.000000000000000000 ) ) ;
#132 = DIRECTION ( 'NONE',  ( -0.0000000000000000000, -0.0000000000000000000, 1.000000000000000000 ) ) ;
#133 = CARTESIAN_POINT ( 'NONE',  ( 41.99999999999999300, 0.0000000000000000000, 0.0000000000000000000 ) ) ;
#134 = CIRCLE ( 'NONE', #67, 24.50000000000003200 ) ;
#135 = AXIS2_PLACEMENT_3D ( 'NONE', #241, #192, #243 ) ;
#136 = MANIFOLD_SOLID_BREP ( 'Chanfrein1', #197 ) ;
#137 = EDGE_LOOP ( 'NONE', ( #262, #124 ) ) ;
#138 = EDGE_CURVE ( 'NONE', #232, #298, #129, .T. ) ;
#139 =( NAMED_UNIT ( * ) SI_UNIT ( $, .STERADIAN. ) SOLID_ANGLE_UNIT ( ) );
#140 = EDGE_LOOP ( 'NONE', ( #273, #282 ) ) ;
#141 = VERTEX_POINT ( 'NONE', #96 ) ;
#142 = FACE_OUTER_BOUND ( 'NONE', #112, .T. ) ;
#143 = UNCERTAINTY_MEASURE_WITH_UNIT (LENGTH_MEASURE( 1.000000000000000100E-005 ), #151, 'distance_accuracy_value', 'NONE');
#144 = CARTESIAN_POINT ( 'NONE',  ( 21.25000000000000000, 0.0000000000000000000, 0.0000000000000000000 ) ) ;
#145 = ADVANCED_FACE ( 'NONE', ( #343 ), #119, .T. ) ;
#146 = CARTESIAN_POINT ( 'NONE',  ( 21.25000000000000000, 0.0000000000000000000, -32.00000000000000000 ) ) ;
#147 = ADVANCED_FACE ( 'NONE', ( #169 ), #263, .F. ) ;
#148 = DIRECTION ( 'NONE',  ( 1.000000000000000000, 0.0000000000000000000, 0.0000000000000000000 ) ) ;
#149 = VECTOR ( 'NONE', #88, 1000.000000000000000 ) ;
#150 = CIRCLE ( 'NONE', #22, 21.25000000000000000 ) ;
#151 =( LENGTH_UNIT ( ) NAMED_UNIT ( * ) SI_UNIT ( .MILLI., .METRE. ) );
#152 = EDGE_CURVE ( 'NONE', #76, #237, #168, .T. ) ;
#153 = EDGE_LOOP ( 'NONE', ( #3, #276, #28, #7 ) ) ;
#154 = DIRECTION ( 'NONE',  ( -0.7071067811865461300, 0.0000000000000000000, -0.7071067811865489100 ) ) ;
#155 = CARTESIAN_POINT ( 'NONE',  ( 41.99999999999999300, 0.0000000000000000000, -32.00000000000000000 ) ) ;
#156 = ORIENTED_EDGE ( 'NONE', *, *, #242, .T. ) ;
#157 = CARTESIAN_POINT ( 'NONE',  ( 27.00000000000000700, 0.0000000000000000000, -3.520859547548644400E-016 ) ) ;
#158 = CARTESIAN_POINT ( 'NONE',  ( 42.00000000000000000, 0.0000000000000000000, -22.00000000000000000 ) ) ;
#159 = ORIENTED_EDGE ( 'NONE', *, *, #77, .T. ) ;
#160 = CARTESIAN_POINT ( 'NONE',  ( 0.0000000000000000000, 0.0000000000000000000, -2.499999999999981300 ) ) ;
#161 = CARTESIAN_POINT ( 'NONE',  ( 0.0000000000000000000, 0.0000000000000000000, -22.00000000000000000 ) ) ;
#162 = DIRECTION ( 'NONE',  ( -0.0000000000000000000, -0.0000000000000000000, 1.000000000000000000 ) ) ;
#163 = ORIENTED_EDGE ( 'NONE', *, *, #77, .F. ) ;
#164 = VECTOR ( 'NONE', #154, 1000.000000000000100 ) ;
#165 = PRODUCT_CONTEXT ( 'NONE', #264, 'mechanical' ) ;
#166 = AXIS2_PLACEMENT_3D ( 'NONE', #305, #20, #148 ) ;
#167 = LINE ( 'NONE', #25, #275 ) ;
#168 = CIRCLE ( 'NONE', #86, 27.00000000000000400 ) ;
#169 = FACE_OUTER_BOUND ( 'NONE', #85, .T. ) ;
#170 = ADVANCED_FACE ( 'NONE', ( #98, #186 ), #210, .T. ) ;
#171 = CYLINDRICAL_SURFACE ( 'NONE', #333, 41.99999999999999300 ) ;
#172 = CARTESIAN_POINT ( 'NONE',  ( 21.25000000000000000, 0.0000000000000000000, 0.0000000000000000000 ) ) ;
#173 = ADVANCED_FACE ( 'NONE', ( #294 ), #171, .T. ) ;
#174 = ORIENTED_EDGE ( 'NONE', *, *, #114, .F. ) ;
#175 = DIRECTION ( 'NONE',  ( 1.000000000000000000, 0.0000000000000000000, 0.0000000000000000000 ) ) ;
#176 = FILL_AREA_STYLE ('',( #334 ) ) ;
#177 = LINE ( 'NONE', #133, #68 ) ;
#178 = LINE ( 'NONE', #172, #329 ) ;
#179 = CARTESIAN_POINT ( 'NONE',  ( 42.00000000000000000, 0.0000000000000000000, -22.00000000000000000 ) ) ;
#180 = DIRECTION ( 'NONE',  ( -0.0000000000000000000, -0.0000000000000000000, 1.000000000000000000 ) ) ;
#181 = CARTESIAN_POINT ( 'NONE',  ( -41.99999999999999300, 5.143516556418882500E-015, 0.0000000000000000000 ) ) ;
#182 = ORIENTED_EDGE ( 'NONE', *, *, #312, .T. ) ;
#183 = CARTESIAN_POINT ( 'NONE',  ( 0.0000000000000000000, 0.0000000000000000000, 0.0000000000000000000 ) ) ;
#184 = DIRECTION ( 'NONE',  ( -0.0000000000000000000, -0.0000000000000000000, 1.000000000000000000 ) ) ;
#185 =( NAMED_UNIT ( * ) SI_UNIT ( $, .STERADIAN. ) SOLID_ANGLE_UNIT ( ) );
#186 = FACE_BOUND ( 'NONE', #140, .T. ) ;
#187 = EDGE_CURVE ( 'NONE', #72, #99, #167, .T. ) ;
#188 = SURFACE_STYLE_USAGE ( .BOTH. , #323 ) ;
#189 = ORIENTED_EDGE ( 'NONE', *, *, #203, .F. ) ;
#190 = EDGE_LOOP ( 'NONE', ( #189, #94, #182, #325 ) ) ;
#191 = DIRECTION ( 'NONE',  ( -1.000000000000000000, 0.0000000000000000000, -0.0000000000000000000 ) ) ;
#192 = DIRECTION ( 'NONE',  ( 0.0000000000000000000, 0.0000000000000000000, 1.000000000000000000 ) ) ;
#193 = PRODUCT_DEFINITION_CONTEXT ( 'detailed design', #110, 'design' ) ;
#194 = MECHANICAL_DESIGN_GEOMETRIC_PRESENTATION_REPRESENTATION (  '', ( #63 ), #116 ) ;
#195 = LINE ( 'NONE', #318, #220 ) ;
#196 = MECHANICAL_DESIGN_GEOMETRIC_PRESENTATION_REPRESENTATION (  '', ( #303 ), #246 ) ;
#197 = CLOSED_SHELL ( 'NONE', ( #145, #247, #15, #147, #170, #200, #278, #173, #42, #122, #11 ) ) ;
#198 = VERTEX_POINT ( 'NONE', #155 ) ;
#199 = ORIENTED_EDGE ( 'NONE', *, *, #37, .F. ) ;
#200 = ADVANCED_FACE ( 'NONE', ( #227 ), #316, .F. ) ;
#201 =( NAMED_UNIT ( * ) PLANE_ANGLE_UNIT ( ) SI_UNIT ( $, .RADIAN. ) );
#202 = AXIS2_PLACEMENT_3D ( 'NONE', #261, #255, #56 ) ;
#203 = EDGE_CURVE ( 'NONE', #237, #298, #195, .T. ) ;
#204 = DIRECTION ( 'NONE',  ( 1.000000000000000000, 0.0000000000000000000, 0.0000000000000000000 ) ) ;
#205 = FACE_BOUND ( 'NONE', #59, .T. ) ;
#206 = DIRECTION ( 'NONE',  ( 1.000000000000000000, 0.0000000000000000000, 0.0000000000000000000 ) ) ;
#207 = ORIENTED_EDGE ( 'NONE', *, *, #279, .F. ) ;
#208 = DIRECTION ( 'NONE',  ( -0.0000000000000000000, -0.0000000000000000000, 1.000000000000000000 ) ) ;
#209 = ORIENTED_EDGE ( 'NONE', *, *, #118, .T. ) ;
#210 = PLANE ( 'NONE',  #281 ) ;
#211 = ORIENTED_EDGE ( 'NONE', *, *, #302, .F. ) ;
#212 = FACE_OUTER_BOUND ( 'NONE', #190, .T. ) ;
#213 = AXIS2_PLACEMENT_3D ( 'NONE', #104, #180, #311 ) ;
#214 =( NAMED_UNIT ( * ) PLANE_ANGLE_UNIT ( ) SI_UNIT ( $, .RADIAN. ) );
#215 = ORIENTED_EDGE ( 'NONE', *, *, #242, .F. ) ;
#216 = CARTESIAN_POINT ( 'NONE',  ( 0.0000000000000000000, 0.0000000000000000000, -3.520859547548644400E-016 ) ) ;
#217 = CARTESIAN_POINT ( 'NONE',  ( 0.0000000000000000000, 0.0000000000000000000, -22.00000000000000000 ) ) ;
#218 = CIRCLE ( 'NONE', #130, 42.00000000000000000 ) ;
#219 = EDGE_CURVE ( 'NONE', #198, #14, #271, .T. ) ;
#220 = VECTOR ( 'NONE', #109, 1000.000000000000000 ) ;
#221 = EDGE_CURVE ( 'NONE', #14, #277, #253, .T. ) ;
#222 = ORIENTED_EDGE ( 'NONE', *, *, #302, .T. ) ;
#223 = CIRCLE ( 'NONE', #54, 41.99999999999999300 ) ;
#224 = ADVANCED_BREP_SHAPE_REPRESENTATION ( 'Bague Alu standard ', ( #136, #135 ), #238 ) ;
#225 = CARTESIAN_POINT ( 'NONE',  ( 24.50000000000003200, 3.000384657911019000E-015, -3.520859547548644400E-016 ) ) ;
#226 = DIRECTION ( 'NONE',  ( 1.000000000000000000, 0.0000000000000000000, 0.0000000000000000000 ) ) ;
#227 = FACE_OUTER_BOUND ( 'NONE', #251, .T. ) ;
#228 = ORIENTED_EDGE ( 'NONE', *, *, #256, .F. ) ;
#229 = DIRECTION ( 'NONE',  ( 0.0000000000000000000, 0.0000000000000000000, -1.000000000000000000 ) ) ;
#230 = DIRECTION ( 'NONE',  ( 0.0000000000000000000, 0.0000000000000000000, -1.000000000000000000 ) ) ;
#231 = AXIS2_PLACEMENT_3D ( 'NONE', #160, #235, #82 ) ;
#232 = VERTEX_POINT ( 'NONE', #83 ) ;
#233 = PLANE ( 'NONE',  #267 ) ;
#234 = ORIENTED_EDGE ( 'NONE', *, *, #55, .T. ) ;
#235 = DIRECTION ( 'NONE',  ( 0.0000000000000000000, 0.0000000000000000000, -1.000000000000000000 ) ) ;
#236 = ORIENTED_EDGE ( 'NONE', *, *, #48, .T. ) ;
#237 = VERTEX_POINT ( 'NONE', #257 ) ;
#238 =( GEOMETRIC_REPRESENTATION_CONTEXT ( 3 ) GLOBAL_UNCERTAINTY_ASSIGNED_CONTEXT ( ( #62 ) ) GLOBAL_UNIT_ASSIGNED_CONTEXT ( ( #270, #295, #139 ) ) REPRESENTATION_CONTEXT ( 'NONE', 'WORKASPACE' ) );
#239 = DIRECTION ( 'NONE',  ( 1.000000000000000000, 0.0000000000000000000, 0.0000000000000000000 ) ) ;
#240 = CYLINDRICAL_SURFACE ( 'NONE', #64, 41.99999999999999300 ) ;
#241 = CARTESIAN_POINT ( 'NONE',  ( 0.0000000000000000000, 0.0000000000000000000, 0.0000000000000000000 ) ) ;
#242 = EDGE_CURVE ( 'NONE', #40, #72, #107, .T. ) ;
#243 = DIRECTION ( 'NONE',  ( 1.000000000000000000, 0.0000000000000000000, 0.0000000000000000000 ) ) ;
#244 = ORIENTED_EDGE ( 'NONE', *, *, #31, .F. ) ;
#245 = EDGE_CURVE ( 'NONE', #141, #336, #65, .T. ) ;
#246 =( GEOMETRIC_REPRESENTATION_CONTEXT ( 3 ) GLOBAL_UNCERTAINTY_ASSIGNED_CONTEXT ( ( #79 ) ) GLOBAL_UNIT_ASSIGNED_CONTEXT ( ( #300, #214, #185 ) ) REPRESENTATION_CONTEXT ( 'NONE', 'WORKASPACE' ) );
#247 = ADVANCED_FACE ( 'NONE', ( #36 ), #58, .T. ) ;
#248 = COLOUR_RGB ( '',1.000000000000000000, 0.0000000000000000000, 0.0000000000000000000 ) ;
#249 = CARTESIAN_POINT ( 'NONE',  ( 0.0000000000000000000, 0.0000000000000000000, -32.00000000000000000 ) ) ;
#250 = CIRCLE ( 'NONE', #166, 21.25000000000000000 ) ;
#251 = EDGE_LOOP ( 'NONE', ( #304, #215, #344, #209 ) ) ;
#252 = DIRECTION ( 'NONE',  ( 0.7071067811865461300, 8.659560562354914400E-017, -0.7071067811865489100 ) ) ;
#253 = LINE ( 'NONE', #181, #43 ) ;
#254 = EDGE_LOOP ( 'NONE', ( #78, #91 ) ) ;
#255 = DIRECTION ( 'NONE',  ( -0.0000000000000000000, -0.0000000000000000000, 1.000000000000000000 ) ) ;
#256 = EDGE_CURVE ( 'NONE', #336, #141, #134, .T. ) ;
#257 = CARTESIAN_POINT ( 'NONE',  ( -27.00000000000000400, 3.306546357697854100E-015, -22.00000000000000000 ) ) ;
#258 = DIRECTION ( 'NONE',  ( -0.0000000000000000000, -0.0000000000000000000, 1.000000000000000000 ) ) ;
#259 = CIRCLE ( 'NONE', #101, 21.25000000000000000 ) ;
#260 = FACE_OUTER_BOUND ( 'NONE', #49, .T. ) ;
#261 = CARTESIAN_POINT ( 'NONE',  ( 0.0000000000000000000, 0.0000000000000000000, -32.00000000000000000 ) ) ;
#262 = ORIENTED_EDGE ( 'NONE', *, *, #37, .T. ) ;
#263 = CYLINDRICAL_SURFACE ( 'NONE', #213, 21.25000000000000000 ) ;
#264 = APPLICATION_CONTEXT ( 'automotive_design' ) ;
#265 = VERTEX_POINT ( 'NONE', #158 ) ;
#266 = AXIS2_PLACEMENT_3D ( 'NONE', #183, #106, #289 ) ;
#267 = AXIS2_PLACEMENT_3D ( 'NONE', #179, #287, #75 ) ;
#268 = CARTESIAN_POINT ( 'NONE',  ( -27.00000000000000400, 3.306546357697854100E-015, -2.499999999999981300 ) ) ;
#269 = ORIENTED_EDGE ( 'NONE', *, *, #219, .T. ) ;
#270 =( LENGTH_UNIT ( ) NAMED_UNIT ( * ) SI_UNIT ( .MILLI., .METRE. ) );
#271 = CIRCLE ( 'NONE', #202, 41.99999999999999300 ) ;
#272 = ORIENTED_EDGE ( 'NONE', *, *, #245, .F. ) ;
#273 = ORIENTED_EDGE ( 'NONE', *, *, #118, .F. ) ;
#274 = PRODUCT_RELATED_PRODUCT_CATEGORY ( 'part', '', ( #38 ) ) ;
#275 = VECTOR ( 'NONE', #81, 1000.000000000000000 ) ;
#276 = ORIENTED_EDGE ( 'NONE', *, *, #203, .T. ) ;
#277 = VERTEX_POINT ( 'NONE', #313 ) ;
#278 = ADVANCED_FACE ( 'NONE', ( #205, #142 ), #317, .T. ) ;
#279 = EDGE_CURVE ( 'NONE', #237, #76, #84, .T. ) ;
#280 = PRESENTATION_STYLE_ASSIGNMENT (( #17 ) ) ;
#281 = AXIS2_PLACEMENT_3D ( 'NONE', #157, #131, #51 ) ;
#282 = ORIENTED_EDGE ( 'NONE', *, *, #55, .F. ) ;
#283 = DIRECTION ( 'NONE',  ( 1.000000000000000000, 0.0000000000000000000, 0.0000000000000000000 ) ) ;
#284 =( NAMED_UNIT ( * ) SI_UNIT ( $, .STERADIAN. ) SOLID_ANGLE_UNIT ( ) );
#285 = FACE_BOUND ( 'NONE', #314, .T. ) ;
#286 = AXIS2_PLACEMENT_3D ( 'NONE', #307, #46, #204 ) ;
#287 = DIRECTION ( 'NONE',  ( 0.0000000000000000000, -0.0000000000000000000, 1.000000000000000000 ) ) ;
#288 = CARTESIAN_POINT ( 'NONE',  ( 0.0000000000000000000, 0.0000000000000000000, -3.520859547548644400E-016 ) ) ;
#289 = DIRECTION ( 'NONE',  ( 1.000000000000000000, 0.0000000000000000000, 0.0000000000000000000 ) ) ;
#290 = CARTESIAN_POINT ( 'NONE',  ( 0.0000000000000000000, 0.0000000000000000000, -32.00000000000000000 ) ) ;
#291 = ORIENTED_EDGE ( 'NONE', *, *, #48, .F. ) ;
#292 = DIRECTION ( 'NONE',  ( -0.0000000000000000000, -0.0000000000000000000, 1.000000000000000000 ) ) ;
#293 = DIRECTION ( 'NONE',  ( 1.000000000000000000, 0.0000000000000000000, 0.0000000000000000000 ) ) ;
#294 = FACE_OUTER_BOUND ( 'NONE', #69, .T. ) ;
#295 =( NAMED_UNIT ( * ) PLANE_ANGLE_UNIT ( ) SI_UNIT ( $, .RADIAN. ) );
#296 = ORIENTED_EDGE ( 'NONE', *, *, #326, .F. ) ;
#297 = DIRECTION ( 'NONE',  ( -0.0000000000000000000, -0.0000000000000000000, 1.000000000000000000 ) ) ;
#298 = VERTEX_POINT ( 'NONE', #268 ) ;
#299 = EDGE_CURVE ( 'NONE', #72, #40, #259, .T. ) ;
#300 =( LENGTH_UNIT ( ) NAMED_UNIT ( * ) SI_UNIT ( .MILLI., .METRE. ) );
#301 = PRESENTATION_LAYER_ASSIGNMENT (  '', '', ( #303 ) ) ;
#302 = EDGE_CURVE ( 'NONE', #198, #265, #177, .T. ) ;
#303 = STYLED_ITEM ( 'NONE', ( #73 ), #224 ) ;
#304 = ORIENTED_EDGE ( 'NONE', *, *, #187, .F. ) ;
#305 = CARTESIAN_POINT ( 'NONE',  ( 0.0000000000000000000, 0.0000000000000000000, 0.0000000000000000000 ) ) ;
#306 = DIRECTION ( 'NONE',  ( -0.0000000000000000000, -0.0000000000000000000, 1.000000000000000000 ) ) ;
#307 = CARTESIAN_POINT ( 'NONE',  ( 0.0000000000000000000, 0.0000000000000000000, 0.0000000000000000000 ) ) ;
#308 = SURFACE_SIDE_STYLE ('',( #34 ) ) ;
#309 = CARTESIAN_POINT ( 'NONE',  ( 0.0000000000000000000, 0.0000000000000000000, -22.00000000000000000 ) ) ;
#310 = FACE_OUTER_BOUND ( 'NONE', #8, .T. ) ;
#311 = DIRECTION ( 'NONE',  ( 1.000000000000000000, 0.0000000000000000000, 0.0000000000000000000 ) ) ;
#312 = EDGE_CURVE ( 'NONE', #76, #232, #338, .T. ) ;
#313 = CARTESIAN_POINT ( 'NONE',  ( -42.00000000000000000, 5.143516556418883300E-015, -22.00000000000000000 ) ) ;
#314 = EDGE_LOOP ( 'NONE', ( #19, #207 ) ) ;
#315 = CARTESIAN_POINT ( 'NONE',  ( 0.0000000000000000000, 0.0000000000000000000, 0.0000000000000000000 ) ) ;
#316 = CYLINDRICAL_SURFACE ( 'NONE', #47, 21.25000000000000000 ) ;
#317 = PLANE ( 'NONE',  #57 ) ;
#318 = CARTESIAN_POINT ( 'NONE',  ( -27.00000000000000400, 3.306546357697854100E-015, 0.0000000000000000000 ) ) ;
#319 = FILL_AREA_STYLE_COLOUR ( '', #248 ) ;
#320 = APPLICATION_PROTOCOL_DEFINITION ( 'draft international standard', 'automotive_design', 1998, #110 ) ;
#321 = PRODUCT_DEFINITION_FORMATION_WITH_SPECIFIED_SOURCE ( 'ANY', '', #38, .NOT_KNOWN. ) ;
#322 = LINE ( 'NONE', #225, #95 ) ;
#323 = SURFACE_SIDE_STYLE ('',( #115 ) ) ;
#324 = CARTESIAN_POINT ( 'NONE',  ( 24.50000000000003200, 3.153465507804436800E-015, -3.520859547548644400E-016 ) ) ;
#325 = ORIENTED_EDGE ( 'NONE', *, *, #138, .T. ) ;
#326 = EDGE_CURVE ( 'NONE', #277, #265, #328, .T. ) ;
#327 = ORIENTED_EDGE ( 'NONE', *, *, #221, .F. ) ;
#328 = CIRCLE ( 'NONE', #117, 42.00000000000000000 ) ;
#329 = VECTOR ( 'NONE', #306, 1000.000000000000000 ) ;
#330 = DIRECTION ( 'NONE',  ( 0.0000000000000000000, 0.0000000000000000000, -1.000000000000000000 ) ) ;
#331 = AXIS2_PLACEMENT_3D ( 'NONE', #123, #330, #41 ) ;
#332 = CIRCLE ( 'NONE', #5, 27.00000000000000400 ) ;
#333 = AXIS2_PLACEMENT_3D ( 'NONE', #27, #53, #29 ) ;
#334 = FILL_AREA_STYLE_COLOUR ( '', #13 ) ;
#335 = CARTESIAN_POINT ( 'NONE',  ( -21.25000000000000000, 2.602374448188125400E-015, 0.0000000000000000000 ) ) ;
#336 = VERTEX_POINT ( 'NONE', #324 ) ;
#337 = CARTESIAN_POINT ( 'NONE',  ( 0.0000000000000000000, 0.0000000000000000000, -3.520859547548644400E-016 ) ) ;
#338 = LINE ( 'NONE', #89, #149 ) ;
#339 = ORIENTED_EDGE ( 'NONE', *, *, #114, .T. ) ;
#340 = CARTESIAN_POINT ( 'NONE',  ( 27.00000000000000400, 0.0000000000000000000, -22.00000000000000000 ) ) ;
#341 = AXIS2_PLACEMENT_3D ( 'NONE', #290, #258, #23 ) ;
#342 = DIRECTION ( 'NONE',  ( 1.000000000000000000, 0.0000000000000000000, 0.0000000000000000000 ) ) ;
#343 = FACE_OUTER_BOUND ( 'NONE', #24, .T. ) ;
#344 = ORIENTED_EDGE ( 'NONE', *, *, #52, .T. ) ;
ENDSEC;
END-ISO-10303-21;
