ISO-10303-21;
HEADER;
/* Generated by software containing ST-Developer
 * from STEP Tools, Inc. (www.steptools.com) 
 */

FILE_DESCRIPTION(
/* description */ (''),
/* implementation_level */ '2;1');

FILE_NAME(
/* name */ 'D:/Mes docs/PAV/SafeStrap/Vis du ressort.step',
/* time_stamp */ '2019-03-09T17:52:26+01:00',
/* author */ (''),
/* organization */ (''),
/* preprocessor_version */ 'ST-DEVELOPER v17.2',
/* originating_system */ 'Autodesk Translation Framework v7.6.0.251',
/* authorisation */ '');

FILE_SCHEMA (('AUTOMOTIVE_DESIGN { 1 0 10303 214 3 1 1 }'));
ENDSEC;

DATA;
#10=MECHANICAL_DESIGN_GEOMETRIC_PRESENTATION_REPRESENTATION('',(#13),#451);
#11=SHAPE_REPRESENTATION_RELATIONSHIP('SRR','None',#458,#12);
#12=ADVANCED_BREP_SHAPE_REPRESENTATION('',(#14),#450);
#13=STYLED_ITEM('',(#467),#14);
#14=MANIFOLD_SOLID_BREP('Body1',#215);
#15=PLANE('',#238);
#16=PLANE('',#239);
#17=PLANE('',#253);
#18=CONICAL_SURFACE('',#233,1.9,0.785398163397448);
#19=CONICAL_SURFACE('',#241,2.92677669529664,1.17809724509618);
#20=CONICAL_SURFACE('',#249,3.375,0.785398163397448);
#21=CONICAL_SURFACE('',#250,1.375,1.02974425867665);
#22=FACE_BOUND('',#38,.T.);
#23=FACE_BOUND('',#44,.T.);
#24=FACE_BOUND('',#51,.T.);
#25=FACE_OUTER_BOUND('',#37,.T.);
#26=FACE_OUTER_BOUND('',#39,.T.);
#27=FACE_OUTER_BOUND('',#40,.T.);
#28=FACE_OUTER_BOUND('',#41,.T.);
#29=FACE_OUTER_BOUND('',#42,.T.);
#30=FACE_OUTER_BOUND('',#43,.T.);
#31=FACE_OUTER_BOUND('',#45,.T.);
#32=FACE_OUTER_BOUND('',#46,.T.);
#33=FACE_OUTER_BOUND('',#47,.T.);
#34=FACE_OUTER_BOUND('',#48,.T.);
#35=FACE_OUTER_BOUND('',#49,.T.);
#36=FACE_OUTER_BOUND('',#50,.T.);
#37=EDGE_LOOP('',(#140,#141,#142,#143,#144,#145,#146,#147,#148,#149));
#38=EDGE_LOOP('',(#150,#151));
#39=EDGE_LOOP('',(#152,#153,#154,#155,#156,#157,#158,#159));
#40=EDGE_LOOP('',(#160,#161,#162,#163));
#41=EDGE_LOOP('',(#164,#165,#166,#167));
#42=EDGE_LOOP('',(#168));
#43=EDGE_LOOP('',(#169));
#44=EDGE_LOOP('',(#170));
#45=EDGE_LOOP('',(#171,#172,#173,#174,#175,#176));
#46=EDGE_LOOP('',(#177,#178,#179,#180,#181,#182));
#47=EDGE_LOOP('',(#183,#184,#185,#186,#187));
#48=EDGE_LOOP('',(#188,#189,#190,#191));
#49=EDGE_LOOP('',(#192,#193,#194,#195));
#50=EDGE_LOOP('',(#196));
#51=EDGE_LOOP('',(#197));
#52=B_SPLINE_CURVE_WITH_KNOTS('',3,(#323,#324,#325,#326,#327,#328,#329,
#330,#331,#332),.UNSPECIFIED.,.F.,.F.,(4,2,2,2,4),(0.151368710052977,0.189208241875948,
0.227047773698919,0.264892596902436,0.302737420105954),.UNSPECIFIED.);
#53=B_SPLINE_CURVE_WITH_KNOTS('',3,(#334,#335,#336,#337,#338,#339,#340,
#341,#342,#343),.UNSPECIFIED.,.F.,.F.,(4,2,2,2,4),(0.302737420105954,0.340582243309471,
0.378427066512988,0.416266598335959,0.454106130158931),.UNSPECIFIED.);
#54=B_SPLINE_CURVE_WITH_KNOTS('',3,(#348,#349,#350,#351,#352,#353,#354,
#355,#356,#357),.UNSPECIFIED.,.F.,.F.,(4,2,2,2,4),(0.454106130158931,0.491945661981902,
0.529785193804873,0.56763001700839,0.605474840211907),.UNSPECIFIED.);
#55=B_SPLINE_CURVE_WITH_KNOTS('',3,(#358,#359,#360,#361,#362,#363,#364,
#365,#366,#367),.UNSPECIFIED.,.F.,.F.,(4,2,2,2,4),(0.,0.0378448232035173,
0.0756896464070345,0.113529178230006,0.151368710052977),.UNSPECIFIED.);
#56=B_SPLINE_CURVE_WITH_KNOTS('',3,(#370,#371,#372,#373,#374,#375,#376,
#377,#378,#379,#380,#381,#382,#383,#384,#385,#386,#387),.UNSPECIFIED.,.F.,
 .F.,(4,2,2,2,2,2,2,2,4),(0.,0.0378448232035173,0.0756896464070345,0.113529178230006,
0.151368710052977,0.189208241875948,0.227047773698919,0.264892596902436,
0.302737420105954),.UNSPECIFIED.);
#57=B_SPLINE_CURVE_WITH_KNOTS('',3,(#388,#389,#390,#391,#392,#393,#394,
#395,#396,#397,#398,#399,#400,#401,#402,#403,#404,#405),.UNSPECIFIED.,.F.,
 .F.,(4,2,2,2,2,2,2,2,4),(0.302737420105954,0.340582243309471,0.378427066512989,
0.41626659833596,0.454106130158931,0.491945661981902,0.529785193804873,
0.56763001700839,0.605474840211907),.UNSPECIFIED.);
#58=LINE('',#321,#68);
#59=LINE('',#345,#69);
#60=LINE('',#407,#70);
#61=LINE('',#412,#71);
#62=LINE('',#416,#72);
#63=LINE('',#428,#73);
#64=LINE('',#434,#74);
#65=LINE('',#439,#75);
#66=LINE('',#442,#76);
#67=LINE('',#446,#77);
#68=VECTOR('',#260,4.);
#69=VECTOR('',#261,4.);
#70=VECTOR('',#266,1.);
#71=VECTOR('',#271,1.9);
#72=VECTOR('',#276,2.25);
#73=VECTOR('',#291,2.92677669529664);
#74=VECTOR('',#298,2.75);
#75=VECTOR('',#305,3.375);
#76=VECTOR('',#308,1.375);
#77=VECTOR('',#313,4.);
#78=CIRCLE('',#230,4.);
#79=CIRCLE('',#231,4.);
#80=CIRCLE('',#234,1.55);
#81=CIRCLE('',#235,2.25);
#82=CIRCLE('',#237,2.25);
#83=CIRCLE('',#240,3.933);
#84=CIRCLE('',#242,2.75);
#85=CIRCLE('',#243,2.75);
#86=CIRCLE('',#244,3.10355339059327);
#87=CIRCLE('',#245,3.10355339059327);
#88=CIRCLE('',#247,2.75);
#89=CIRCLE('',#248,2.75);
#90=CIRCLE('',#252,3.933);
#91=VERTEX_POINT('',#318);
#92=VERTEX_POINT('',#320);
#93=VERTEX_POINT('',#322);
#94=VERTEX_POINT('',#333);
#95=VERTEX_POINT('',#344);
#96=VERTEX_POINT('',#347);
#97=VERTEX_POINT('',#368);
#98=VERTEX_POINT('',#369);
#99=VERTEX_POINT('',#409);
#100=VERTEX_POINT('',#411);
#101=VERTEX_POINT('',#415);
#102=VERTEX_POINT('',#420);
#103=VERTEX_POINT('',#423);
#104=VERTEX_POINT('',#424);
#105=VERTEX_POINT('',#427);
#106=VERTEX_POINT('',#429);
#107=VERTEX_POINT('',#433);
#108=VERTEX_POINT('',#435);
#109=VERTEX_POINT('',#441);
#110=VERTEX_POINT('',#444);
#111=EDGE_CURVE('',#91,#91,#78,.T.);
#112=EDGE_CURVE('',#91,#92,#58,.T.);
#113=EDGE_CURVE('',#92,#93,#52,.T.);
#114=EDGE_CURVE('',#93,#94,#53,.T.);
#115=EDGE_CURVE('',#94,#95,#59,.T.);
#116=EDGE_CURVE('',#95,#95,#79,.T.);
#117=EDGE_CURVE('',#94,#96,#54,.T.);
#118=EDGE_CURVE('',#96,#92,#55,.T.);
#119=EDGE_CURVE('',#97,#98,#56,.T.);
#120=EDGE_CURVE('',#98,#97,#57,.T.);
#121=EDGE_CURVE('',#93,#98,#60,.T.);
#122=EDGE_CURVE('',#99,#99,#80,.T.);
#123=EDGE_CURVE('',#99,#100,#61,.T.);
#124=EDGE_CURVE('',#100,#100,#81,.T.);
#125=EDGE_CURVE('',#100,#101,#62,.T.);
#126=EDGE_CURVE('',#101,#101,#82,.T.);
#127=EDGE_CURVE('',#102,#102,#83,.T.);
#128=EDGE_CURVE('',#103,#104,#84,.T.);
#129=EDGE_CURVE('',#104,#103,#85,.T.);
#130=EDGE_CURVE('',#103,#105,#63,.T.);
#131=EDGE_CURVE('',#105,#106,#86,.T.);
#132=EDGE_CURVE('',#106,#105,#87,.T.);
#133=EDGE_CURVE('',#104,#107,#64,.T.);
#134=EDGE_CURVE('',#107,#108,#88,.T.);
#135=EDGE_CURVE('',#108,#107,#89,.T.);
#136=EDGE_CURVE('',#91,#106,#65,.T.);
#137=EDGE_CURVE('',#107,#109,#66,.T.);
#138=EDGE_CURVE('',#110,#110,#90,.T.);
#139=EDGE_CURVE('',#110,#102,#67,.T.);
#140=ORIENTED_EDGE('',*,*,#111,.F.);
#141=ORIENTED_EDGE('',*,*,#112,.T.);
#142=ORIENTED_EDGE('',*,*,#113,.T.);
#143=ORIENTED_EDGE('',*,*,#114,.T.);
#144=ORIENTED_EDGE('',*,*,#115,.T.);
#145=ORIENTED_EDGE('',*,*,#116,.F.);
#146=ORIENTED_EDGE('',*,*,#115,.F.);
#147=ORIENTED_EDGE('',*,*,#117,.T.);
#148=ORIENTED_EDGE('',*,*,#118,.T.);
#149=ORIENTED_EDGE('',*,*,#112,.F.);
#150=ORIENTED_EDGE('',*,*,#119,.T.);
#151=ORIENTED_EDGE('',*,*,#120,.T.);
#152=ORIENTED_EDGE('',*,*,#118,.F.);
#153=ORIENTED_EDGE('',*,*,#117,.F.);
#154=ORIENTED_EDGE('',*,*,#114,.F.);
#155=ORIENTED_EDGE('',*,*,#121,.T.);
#156=ORIENTED_EDGE('',*,*,#119,.F.);
#157=ORIENTED_EDGE('',*,*,#120,.F.);
#158=ORIENTED_EDGE('',*,*,#121,.F.);
#159=ORIENTED_EDGE('',*,*,#113,.F.);
#160=ORIENTED_EDGE('',*,*,#122,.T.);
#161=ORIENTED_EDGE('',*,*,#123,.T.);
#162=ORIENTED_EDGE('',*,*,#124,.T.);
#163=ORIENTED_EDGE('',*,*,#123,.F.);
#164=ORIENTED_EDGE('',*,*,#124,.F.);
#165=ORIENTED_EDGE('',*,*,#125,.T.);
#166=ORIENTED_EDGE('',*,*,#126,.T.);
#167=ORIENTED_EDGE('',*,*,#125,.F.);
#168=ORIENTED_EDGE('',*,*,#122,.F.);
#169=ORIENTED_EDGE('',*,*,#127,.F.);
#170=ORIENTED_EDGE('',*,*,#126,.F.);
#171=ORIENTED_EDGE('',*,*,#128,.T.);
#172=ORIENTED_EDGE('',*,*,#129,.T.);
#173=ORIENTED_EDGE('',*,*,#130,.T.);
#174=ORIENTED_EDGE('',*,*,#131,.T.);
#175=ORIENTED_EDGE('',*,*,#132,.T.);
#176=ORIENTED_EDGE('',*,*,#130,.F.);
#177=ORIENTED_EDGE('',*,*,#128,.F.);
#178=ORIENTED_EDGE('',*,*,#129,.F.);
#179=ORIENTED_EDGE('',*,*,#133,.T.);
#180=ORIENTED_EDGE('',*,*,#134,.T.);
#181=ORIENTED_EDGE('',*,*,#135,.T.);
#182=ORIENTED_EDGE('',*,*,#133,.F.);
#183=ORIENTED_EDGE('',*,*,#111,.T.);
#184=ORIENTED_EDGE('',*,*,#136,.T.);
#185=ORIENTED_EDGE('',*,*,#131,.F.);
#186=ORIENTED_EDGE('',*,*,#132,.F.);
#187=ORIENTED_EDGE('',*,*,#136,.F.);
#188=ORIENTED_EDGE('',*,*,#135,.F.);
#189=ORIENTED_EDGE('',*,*,#134,.F.);
#190=ORIENTED_EDGE('',*,*,#137,.T.);
#191=ORIENTED_EDGE('',*,*,#137,.F.);
#192=ORIENTED_EDGE('',*,*,#138,.T.);
#193=ORIENTED_EDGE('',*,*,#139,.T.);
#194=ORIENTED_EDGE('',*,*,#127,.T.);
#195=ORIENTED_EDGE('',*,*,#139,.F.);
#196=ORIENTED_EDGE('',*,*,#116,.T.);
#197=ORIENTED_EDGE('',*,*,#138,.F.);
#198=CYLINDRICAL_SURFACE('',#229,4.);
#199=CYLINDRICAL_SURFACE('',#232,1.);
#200=CYLINDRICAL_SURFACE('',#236,2.25);
#201=CYLINDRICAL_SURFACE('',#246,2.75);
#202=CYLINDRICAL_SURFACE('',#251,3.933);
#203=ADVANCED_FACE('',(#25,#22),#198,.T.);
#204=ADVANCED_FACE('',(#26),#199,.F.);
#205=ADVANCED_FACE('',(#27),#18,.T.);
#206=ADVANCED_FACE('',(#28),#200,.T.);
#207=ADVANCED_FACE('',(#29),#15,.T.);
#208=ADVANCED_FACE('',(#30,#23),#16,.T.);
#209=ADVANCED_FACE('',(#31),#19,.F.);
#210=ADVANCED_FACE('',(#32),#201,.F.);
#211=ADVANCED_FACE('',(#33),#20,.T.);
#212=ADVANCED_FACE('',(#34),#21,.F.);
#213=ADVANCED_FACE('',(#35),#202,.T.);
#214=ADVANCED_FACE('',(#36,#24),#17,.T.);
#215=CLOSED_SHELL('',(#203,#204,#205,#206,#207,#208,#209,#210,#211,#212,
#213,#214));
#216=DERIVED_UNIT_ELEMENT(#218,1.);
#217=DERIVED_UNIT_ELEMENT(#453,3.);
#218=(
MASS_UNIT()
NAMED_UNIT(*)
SI_UNIT(.KILO.,.GRAM.)
);
#219=DERIVED_UNIT((#216,#217));
#220=MEASURE_REPRESENTATION_ITEM('density measure',
POSITIVE_RATIO_MEASURE(7850.),#219);
#221=PROPERTY_DEFINITION_REPRESENTATION(#226,#223);
#222=PROPERTY_DEFINITION_REPRESENTATION(#227,#224);
#223=REPRESENTATION('material name',(#225),#450);
#224=REPRESENTATION('density',(#220),#450);
#225=DESCRIPTIVE_REPRESENTATION_ITEM('Steel','Steel');
#226=PROPERTY_DEFINITION('material property','material name',#460);
#227=PROPERTY_DEFINITION('material property','density of part',#460);
#228=AXIS2_PLACEMENT_3D('placement',#316,#254,#255);
#229=AXIS2_PLACEMENT_3D('',#317,#256,#257);
#230=AXIS2_PLACEMENT_3D('',#319,#258,#259);
#231=AXIS2_PLACEMENT_3D('',#346,#262,#263);
#232=AXIS2_PLACEMENT_3D('',#406,#264,#265);
#233=AXIS2_PLACEMENT_3D('',#408,#267,#268);
#234=AXIS2_PLACEMENT_3D('',#410,#269,#270);
#235=AXIS2_PLACEMENT_3D('',#413,#272,#273);
#236=AXIS2_PLACEMENT_3D('',#414,#274,#275);
#237=AXIS2_PLACEMENT_3D('',#417,#277,#278);
#238=AXIS2_PLACEMENT_3D('',#418,#279,#280);
#239=AXIS2_PLACEMENT_3D('',#419,#281,#282);
#240=AXIS2_PLACEMENT_3D('',#421,#283,#284);
#241=AXIS2_PLACEMENT_3D('',#422,#285,#286);
#242=AXIS2_PLACEMENT_3D('',#425,#287,#288);
#243=AXIS2_PLACEMENT_3D('',#426,#289,#290);
#244=AXIS2_PLACEMENT_3D('',#430,#292,#293);
#245=AXIS2_PLACEMENT_3D('',#431,#294,#295);
#246=AXIS2_PLACEMENT_3D('',#432,#296,#297);
#247=AXIS2_PLACEMENT_3D('',#436,#299,#300);
#248=AXIS2_PLACEMENT_3D('',#437,#301,#302);
#249=AXIS2_PLACEMENT_3D('',#438,#303,#304);
#250=AXIS2_PLACEMENT_3D('',#440,#306,#307);
#251=AXIS2_PLACEMENT_3D('',#443,#309,#310);
#252=AXIS2_PLACEMENT_3D('',#445,#311,#312);
#253=AXIS2_PLACEMENT_3D('',#447,#314,#315);
#254=DIRECTION('axis',(0.,0.,1.));
#255=DIRECTION('refdir',(1.,0.,0.));
#256=DIRECTION('center_axis',(6.12303176911189E-17,-2.76401039674949E-33,
-1.));
#257=DIRECTION('ref_axis',(-5.55111512312577E-17,1.,-6.16297582203915E-33));
#258=DIRECTION('center_axis',(6.12303176911189E-17,-2.76401039674949E-33,
-1.));
#259=DIRECTION('ref_axis',(-5.55111512312577E-17,1.,-6.16297582203915E-33));
#260=DIRECTION('',(-6.12303176911189E-17,2.76401039674949E-33,1.));
#261=DIRECTION('',(-6.12303176911189E-17,2.76401039674949E-33,1.));
#262=DIRECTION('center_axis',(-3.88938454867076E-62,0.,1.));
#263=DIRECTION('ref_axis',(-5.55111512312577E-17,1.,-6.16297582203915E-33));
#264=DIRECTION('center_axis',(0.,1.,0.));
#265=DIRECTION('ref_axis',(1.,0.,3.88938454867076E-62));
#266=DIRECTION('',(0.,1.,0.));
#267=DIRECTION('center_axis',(0.,0.,-1.));
#268=DIRECTION('ref_axis',(-1.,0.,0.));
#269=DIRECTION('center_axis',(0.,0.,-1.));
#270=DIRECTION('ref_axis',(-1.,0.,0.));
#271=DIRECTION('',(0.707106781186547,8.65956056235493E-17,-0.707106781186548));
#272=DIRECTION('center_axis',(0.,0.,1.));
#273=DIRECTION('ref_axis',(-1.,0.,0.));
#274=DIRECTION('center_axis',(0.,0.,-1.));
#275=DIRECTION('ref_axis',(-1.,0.,0.));
#276=DIRECTION('',(0.,0.,-1.));
#277=DIRECTION('center_axis',(0.,0.,1.));
#278=DIRECTION('ref_axis',(-1.,0.,0.));
#279=DIRECTION('center_axis',(0.,0.,1.));
#280=DIRECTION('ref_axis',(1.,0.,0.));
#281=DIRECTION('center_axis',(0.,0.,1.));
#282=DIRECTION('ref_axis',(-1.,0.,0.));
#283=DIRECTION('center_axis',(0.,0.,-1.));
#284=DIRECTION('ref_axis',(-5.55111512312578E-17,1.,-6.16297582203915E-33));
#285=DIRECTION('center_axis',(-9.62533960474222E-16,1.29765951604149E-15,
-1.));
#286=DIRECTION('ref_axis',(1.,5.55111512312577E-17,2.87660097063727E-17));
#287=DIRECTION('center_axis',(-6.12303176911189E-17,2.76401039674949E-33,
1.));
#288=DIRECTION('ref_axis',(1.,5.55111512312577E-17,6.12303176911189E-17));
#289=DIRECTION('center_axis',(-6.12303176911189E-17,2.76401039674949E-33,
1.));
#290=DIRECTION('ref_axis',(1.,5.55111512312577E-17,6.12303176911189E-17));
#291=DIRECTION('',(-0.923879532511288,3.32164569962508E-16,-0.382683432365087));
#292=DIRECTION('center_axis',(3.421138828918E-49,-6.16297582203915E-33,
-1.));
#293=DIRECTION('ref_axis',(1.,5.55111512312577E-17,0.));
#294=DIRECTION('center_axis',(3.421138828918E-49,-6.16297582203915E-33,
-1.));
#295=DIRECTION('ref_axis',(1.,5.55111512312577E-17,0.));
#296=DIRECTION('center_axis',(-6.12303176911189E-17,2.76401039674949E-33,
1.));
#297=DIRECTION('ref_axis',(-1.,-5.55111512312577E-17,-6.12303176911189E-17));
#298=DIRECTION('',(-6.12303176911189E-17,2.76401039674949E-33,1.));
#299=DIRECTION('center_axis',(-6.12303176911189E-17,2.76401039674949E-33,
1.));
#300=DIRECTION('ref_axis',(-1.,-5.55111512312577E-17,-6.12303176911189E-17));
#301=DIRECTION('center_axis',(-6.12303176911189E-17,2.76401039674949E-33,
1.));
#302=DIRECTION('ref_axis',(-1.,-5.55111512312577E-17,-6.12303176911189E-17));
#303=DIRECTION('center_axis',(-6.12303176911189E-17,2.76401039674949E-33,
1.));
#304=DIRECTION('ref_axis',(-5.55111512312577E-17,1.,-6.16297582203915E-33));
#305=DIRECTION('',(-8.25515442370468E-17,0.707106781186547,-0.707106781186548));
#306=DIRECTION('center_axis',(6.12303176911189E-17,-2.76401039674949E-33,
-1.));
#307=DIRECTION('ref_axis',(-1.,-5.55111512312577E-17,-6.12303176911189E-17));
#308=DIRECTION('',(-0.857167300702112,-1.52555062773626E-16,0.515038074910054));
#309=DIRECTION('center_axis',(6.12303176911189E-17,-2.76401039674949E-33,
-1.));
#310=DIRECTION('ref_axis',(-5.55111512312578E-17,1.,-6.16297582203915E-33));
#311=DIRECTION('center_axis',(-3.88938454867076E-62,0.,1.));
#312=DIRECTION('ref_axis',(-5.55111512312577E-17,1.,-6.16297582203915E-33));
#313=DIRECTION('',(-6.12303176911189E-17,2.76401039674949E-33,1.));
#314=DIRECTION('center_axis',(-3.88463676479788E-62,-2.15640658929199E-78,
1.));
#315=DIRECTION('ref_axis',(1.,0.,3.88463676479788E-62));
#316=CARTESIAN_POINT('',(0.,0.,0.));
#317=CARTESIAN_POINT('Origin',(8.58037662832498E-16,-5.33705728108432E-31,
-14.01328125));
#318=CARTESIAN_POINT('',(2.42939755768987E-15,-4.,-28.05));
#319=CARTESIAN_POINT('Origin',(1.71751041123589E-15,-5.7250336466968E-31,
-28.05));
#320=CARTESIAN_POINT('',(1.16767272834257E-14,-4.,-23.1389978446513));
#321=CARTESIAN_POINT('',(5.90223548098588E-16,-4.,-14.01328125));
#322=CARTESIAN_POINT('',(-0.999999999999979,-3.87298334620742,-22.1389978446513));
#323=CARTESIAN_POINT('Ctrl Pts',(2.21003770839445E-14,-4.,-23.1389978446513));
#324=CARTESIAN_POINT('Ctrl Pts',(-0.126131772743215,-4.,-23.1389978446513));
#325=CARTESIAN_POINT('Ctrl Pts',(-0.260310655816474,-3.99343660097956,-23.1136812156814));
#326=CARTESIAN_POINT('Ctrl Pts',(-0.506537904602022,-3.96972503780337,-23.0114591039586));
#327=CARTESIAN_POINT('Ctrl Pts',(-0.618628827071507,-3.95289504667745,-22.9345825799529));
#328=CARTESIAN_POINT('Ctrl Pts',(-0.795597107825797,-3.92111060516342,-22.7576142991986));
#329=CARTESIAN_POINT('Ctrl Pts',(-0.872463985116113,-3.90404477778931,-22.6455285296817));
#330=CARTESIAN_POINT('Ctrl Pts',(-0.974679054089932,-3.87978863465685,-22.3993195526618));
#331=CARTESIAN_POINT('Ctrl Pts',(-0.999999999999979,-3.87298334620742,-22.2651472553297));
#332=CARTESIAN_POINT('Ctrl Pts',(-0.999999999999979,-3.87298334620742,-22.1389978446513));
#333=CARTESIAN_POINT('',(1.15981497309748E-14,-4.,-21.1389978446513));
#334=CARTESIAN_POINT('Ctrl Pts',(-0.999999999999979,-3.87298334620742,-22.1389978446513));
#335=CARTESIAN_POINT('Ctrl Pts',(-0.999999999999979,-3.87298334620742,-22.0128484339729));
#336=CARTESIAN_POINT('Ctrl Pts',(-0.974679054089932,-3.87978863465685,-21.8786761366408));
#337=CARTESIAN_POINT('Ctrl Pts',(-0.872463985116113,-3.90404477778931,-21.6324671596209));
#338=CARTESIAN_POINT('Ctrl Pts',(-0.795597107825797,-3.92111060516342,-21.520381390104));
#339=CARTESIAN_POINT('Ctrl Pts',(-0.618628827071508,-3.95289504667745,-21.3434131093497));
#340=CARTESIAN_POINT('Ctrl Pts',(-0.506537904602023,-3.96972503780337,-21.266536585344));
#341=CARTESIAN_POINT('Ctrl Pts',(-0.260310655816474,-3.99343660097956,-21.1643144736212));
#342=CARTESIAN_POINT('Ctrl Pts',(-0.126131772743215,-4.,-21.1389978446513));
#343=CARTESIAN_POINT('Ctrl Pts',(2.2291196666302E-14,-4.,-21.1389978446513));
#344=CARTESIAN_POINT('',(1.99773999609747E-15,-4.,-21.));
#345=CARTESIAN_POINT('',(5.90223548098588E-16,-4.,-14.01328125));
#346=CARTESIAN_POINT('Origin',(1.2858366715135E-15,-5.53017091372596E-31,
-21.));
#347=CARTESIAN_POINT('',(1.00000000000002,-3.87298334620741,-22.1389978446513));
#348=CARTESIAN_POINT('Ctrl Pts',(2.22044604925031E-14,-4.,-21.1389978446513));
#349=CARTESIAN_POINT('Ctrl Pts',(0.126131772743259,-4.,-21.1389978446513));
#350=CARTESIAN_POINT('Ctrl Pts',(0.260310655816519,-3.99343660097956,-21.1643144736212));
#351=CARTESIAN_POINT('Ctrl Pts',(0.506537904602068,-3.96972503780337,-21.266536585344));
#352=CARTESIAN_POINT('Ctrl Pts',(0.618628827071553,-3.95289504667744,-21.3434131093497));
#353=CARTESIAN_POINT('Ctrl Pts',(0.795597107825842,-3.92111060516341,-21.520381390104));
#354=CARTESIAN_POINT('Ctrl Pts',(0.872463985116156,-3.9040447777893,-21.6324671596209));
#355=CARTESIAN_POINT('Ctrl Pts',(0.974679054089977,-3.87978863465684,-21.8786761366408));
#356=CARTESIAN_POINT('Ctrl Pts',(1.00000000000002,-3.87298334620741,-22.0128484339729));
#357=CARTESIAN_POINT('Ctrl Pts',(1.00000000000002,-3.87298334620741,-22.1389978446513));
#358=CARTESIAN_POINT('Ctrl Pts',(1.00000000000002,-3.87298334620741,-22.1389978446513));
#359=CARTESIAN_POINT('Ctrl Pts',(1.00000000000002,-3.87298334620741,-22.2651472553297));
#360=CARTESIAN_POINT('Ctrl Pts',(0.974679054089977,-3.87978863465684,-22.3993195526618));
#361=CARTESIAN_POINT('Ctrl Pts',(0.872463985116158,-3.9040447777893,-22.6455285296817));
#362=CARTESIAN_POINT('Ctrl Pts',(0.795597107825842,-3.92111060516341,-22.7576142991986));
#363=CARTESIAN_POINT('Ctrl Pts',(0.618628827071552,-3.95289504667744,-22.9345825799529));
#364=CARTESIAN_POINT('Ctrl Pts',(0.506537904602068,-3.96972503780337,-23.0114591039586));
#365=CARTESIAN_POINT('Ctrl Pts',(0.260310655816519,-3.99343660097956,-23.1136812156814));
#366=CARTESIAN_POINT('Ctrl Pts',(0.12613177274326,-4.,-23.1389978446513));
#367=CARTESIAN_POINT('Ctrl Pts',(2.25514051876985E-14,-4.,-23.1389978446513));
#368=CARTESIAN_POINT('',(1.00000000000002,3.87298334620741,-22.1389978446513));
#369=CARTESIAN_POINT('',(-0.999999999999979,3.87298334620742,-22.1389978446513));
#370=CARTESIAN_POINT('Ctrl Pts',(1.00000000000002,3.87298334620741,-22.1389978446513));
#371=CARTESIAN_POINT('Ctrl Pts',(1.00000000000002,3.87298334620741,-22.0128484339729));
#372=CARTESIAN_POINT('Ctrl Pts',(0.974679054089977,3.87978863465684,-21.8786761366408));
#373=CARTESIAN_POINT('Ctrl Pts',(0.872463985116158,3.9040447777893,-21.6324671596209));
#374=CARTESIAN_POINT('Ctrl Pts',(0.795597107825842,3.92111060516341,-21.520381390104));
#375=CARTESIAN_POINT('Ctrl Pts',(0.618628827071553,3.95289504667744,-21.3434131093497));
#376=CARTESIAN_POINT('Ctrl Pts',(0.506537904602068,3.96972503780337,-21.266536585344));
#377=CARTESIAN_POINT('Ctrl Pts',(0.260310655816519,3.99343660097956,-21.1643144736212));
#378=CARTESIAN_POINT('Ctrl Pts',(0.126131772743259,4.,-21.1389978446513));
#379=CARTESIAN_POINT('Ctrl Pts',(-0.126131772743215,4.,-21.1389978446513));
#380=CARTESIAN_POINT('Ctrl Pts',(-0.260310655816474,3.99343660097956,-21.1643144736212));
#381=CARTESIAN_POINT('Ctrl Pts',(-0.506537904602023,3.96972503780337,-21.266536585344));
#382=CARTESIAN_POINT('Ctrl Pts',(-0.618628827071508,3.95289504667745,-21.3434131093497));
#383=CARTESIAN_POINT('Ctrl Pts',(-0.795597107825797,3.92111060516342,-21.520381390104));
#384=CARTESIAN_POINT('Ctrl Pts',(-0.872463985116113,3.90404477778931,-21.6324671596209));
#385=CARTESIAN_POINT('Ctrl Pts',(-0.974679054089932,3.87978863465685,-21.8786761366408));
#386=CARTESIAN_POINT('Ctrl Pts',(-0.999999999999979,3.87298334620742,-22.0128484339729));
#387=CARTESIAN_POINT('Ctrl Pts',(-0.999999999999979,3.87298334620742,-22.1389978446513));
#388=CARTESIAN_POINT('Ctrl Pts',(-0.999999999999979,3.87298334620742,-22.1389978446513));
#389=CARTESIAN_POINT('Ctrl Pts',(-0.999999999999979,3.87298334620742,-22.2651472553297));
#390=CARTESIAN_POINT('Ctrl Pts',(-0.974679054089934,3.87978863465685,-22.3993195526618));
#391=CARTESIAN_POINT('Ctrl Pts',(-0.872463985116114,3.90404477778931,-22.6455285296817));
#392=CARTESIAN_POINT('Ctrl Pts',(-0.795597107825798,3.92111060516342,-22.7576142991986));
#393=CARTESIAN_POINT('Ctrl Pts',(-0.618628827071507,3.95289504667745,-22.9345825799529));
#394=CARTESIAN_POINT('Ctrl Pts',(-0.506537904602019,3.96972503780337,-23.0114591039586));
#395=CARTESIAN_POINT('Ctrl Pts',(-0.260310655816469,3.99343660097956,-23.1136812156814));
#396=CARTESIAN_POINT('Ctrl Pts',(-0.126131772743214,4.,-23.1389978446513));
#397=CARTESIAN_POINT('Ctrl Pts',(0.12613177274326,4.,-23.1389978446513));
#398=CARTESIAN_POINT('Ctrl Pts',(0.260310655816519,3.99343660097956,-23.1136812156814));
#399=CARTESIAN_POINT('Ctrl Pts',(0.506537904602068,3.96972503780337,-23.0114591039586));
#400=CARTESIAN_POINT('Ctrl Pts',(0.618628827071552,3.95289504667744,-22.9345825799529));
#401=CARTESIAN_POINT('Ctrl Pts',(0.795597107825842,3.92111060516341,-22.7576142991986));
#402=CARTESIAN_POINT('Ctrl Pts',(0.872463985116158,3.9040447777893,-22.6455285296817));
#403=CARTESIAN_POINT('Ctrl Pts',(0.974679054089977,3.87978863465684,-22.3993195526618));
#404=CARTESIAN_POINT('Ctrl Pts',(1.00000000000002,3.87298334620741,-22.2651472553297));
#405=CARTESIAN_POINT('Ctrl Pts',(1.00000000000002,3.87298334620741,-22.1389978446513));
#406=CARTESIAN_POINT('Origin',(2.24139651392907E-14,-4.24012736556294E-29,
-22.1389978446513));
#407=CARTESIAN_POINT('',(-0.999999999999979,-4.24012736556294E-29,-22.1389978446513));
#408=CARTESIAN_POINT('Origin',(-1.43508557088588E-18,-4.94908091547183E-31,
13.65));
#409=CARTESIAN_POINT('',(1.55,-1.8982025386784E-16,14.));
#410=CARTESIAN_POINT('Origin',(-1.43508557088588E-18,-4.94908091547183E-31,
14.));
#411=CARTESIAN_POINT('',(2.25,2.75545529808154E-16,13.3));
#412=CARTESIAN_POINT('',(1.9,2.32682891837997E-16,13.65));
#413=CARTESIAN_POINT('Origin',(-1.43508557088588E-18,-4.94908091547183E-31,
13.3));
#414=CARTESIAN_POINT('Origin',(-1.43508557088588E-18,-4.94908091547183E-31,
14.));
#415=CARTESIAN_POINT('',(2.25,2.75545529808154E-16,4.));
#416=CARTESIAN_POINT('',(2.25,-2.75545529808155E-16,14.));
#417=CARTESIAN_POINT('Origin',(-1.43508557088588E-18,-4.94908091547183E-31,
4.));
#418=CARTESIAN_POINT('Origin',(0.,0.,14.));
#419=CARTESIAN_POINT('Origin',(0.,0.,4.));
#420=CARTESIAN_POINT('',(-5.08249499076594E-16,-3.933,4.));
#421=CARTESIAN_POINT('Origin',(-2.44921270764477E-16,-4.83916831453859E-31,
4.));
#422=CARTESIAN_POINT('Origin',(1.69295323202909E-15,9.50189181443236E-17,
-28.8732233047034));
#423=CARTESIAN_POINT('',(-2.75,-4.89433535651482E-16,-28.8));
#424=CARTESIAN_POINT('',(2.75,4.8943353565148E-16,-28.8));
#425=CARTESIAN_POINT('Origin',(1.76343314950423E-15,-5.74576372467242E-31,
-28.8));
#426=CARTESIAN_POINT('Origin',(1.76343314950423E-15,-5.74576372467242E-31,
-28.8));
#427=CARTESIAN_POINT('',(-3.10355339059327,3.97831687246439E-16,-28.9464466094067));
#428=CARTESIAN_POINT('',(-2.92677669529664,-4.25876596779818E-16,-28.8732233047034));
#429=CARTESIAN_POINT('',(2.32475761611979E-15,-3.10355339059327,-28.9464466094067));
#430=CARTESIAN_POINT('Origin',(1.62247331455395E-15,1.90037836288648E-16,
-28.9464466094067));
#431=CARTESIAN_POINT('Origin',(1.62247331455395E-15,1.90037836288648E-16,
-28.9464466094067));
#432=CARTESIAN_POINT('Origin',(1.70220283181311E-15,-5.71812362070492E-31,
-27.8));
#433=CARTESIAN_POINT('',(2.75,4.8943353565148E-16,-26.3));
#434=CARTESIAN_POINT('',(2.75,4.8943353565148E-16,-27.8));
#435=CARTESIAN_POINT('',(-2.75,-1.52655665885959E-16,-26.3));
#436=CARTESIAN_POINT('Origin',(1.61035735527643E-15,-5.67666346475368E-31,
-26.3));
#437=CARTESIAN_POINT('Origin',(1.61035735527643E-15,-5.67666346475368E-31,
-26.3));
#438=CARTESIAN_POINT('Origin',(1.75577935979284E-15,-5.74230871167648E-31,
-28.675));
#439=CARTESIAN_POINT('',(2.35644778991056E-15,-3.375,-28.675));
#440=CARTESIAN_POINT('Origin',(1.55976988621361E-15,-5.65382767103133E-31,
-25.4738166488371));
#441=CARTESIAN_POINT('',(1.50918241715079E-15,-5.63099187730897E-31,-24.6476332976742));
#442=CARTESIAN_POINT('',(1.375,2.4471676782574E-16,-25.4738166488371));
#443=CARTESIAN_POINT('Origin',(8.58037662832498E-16,-5.33705728108432E-31,
-14.01328125));
#444=CARTESIAN_POINT('',(1.98581561541069E-15,-3.933,-21.));
#445=CARTESIAN_POINT('Origin',(1.2858366715135E-15,-5.53017091372596E-31,
-21.));
#446=CARTESIAN_POINT('',(5.94709434520381E-16,-3.933,-14.01328125));
#447=CARTESIAN_POINT('Origin',(1.06379206658847E-15,4.,-21.));
#448=UNCERTAINTY_MEASURE_WITH_UNIT(LENGTH_MEASURE(0.01),#452,
'DISTANCE_ACCURACY_VALUE',
'Maximum model space distance between geometric entities at asserted c
onnectivities');
#449=UNCERTAINTY_MEASURE_WITH_UNIT(LENGTH_MEASURE(0.01),#452,
'DISTANCE_ACCURACY_VALUE',
'Maximum model space distance between geometric entities at asserted c
onnectivities');
#450=(
GEOMETRIC_REPRESENTATION_CONTEXT(3)
GLOBAL_UNCERTAINTY_ASSIGNED_CONTEXT((#448))
GLOBAL_UNIT_ASSIGNED_CONTEXT((#452,#454,#455))
REPRESENTATION_CONTEXT('','3D')
);
#451=(
GEOMETRIC_REPRESENTATION_CONTEXT(3)
GLOBAL_UNCERTAINTY_ASSIGNED_CONTEXT((#449))
GLOBAL_UNIT_ASSIGNED_CONTEXT((#452,#454,#455))
REPRESENTATION_CONTEXT('','3D')
);
#452=(
LENGTH_UNIT()
NAMED_UNIT(*)
SI_UNIT(.MILLI.,.METRE.)
);
#453=(
LENGTH_UNIT()
NAMED_UNIT(*)
SI_UNIT($,.METRE.)
);
#454=(
NAMED_UNIT(*)
PLANE_ANGLE_UNIT()
SI_UNIT($,.RADIAN.)
);
#455=(
NAMED_UNIT(*)
SI_UNIT($,.STERADIAN.)
SOLID_ANGLE_UNIT()
);
#456=SHAPE_DEFINITION_REPRESENTATION(#457,#458);
#457=PRODUCT_DEFINITION_SHAPE('',$,#460);
#458=SHAPE_REPRESENTATION('',(#228),#450);
#459=PRODUCT_DEFINITION_CONTEXT('part definition',#464,'design');
#460=PRODUCT_DEFINITION('FusionComponent','FusionComponent',#461,#459);
#461=PRODUCT_DEFINITION_FORMATION('',$,#466);
#462=PRODUCT_RELATED_PRODUCT_CATEGORY('FusionComponent',
'FusionComponent',(#466));
#463=APPLICATION_PROTOCOL_DEFINITION('international standard',
'automotive_design',2009,#464);
#464=APPLICATION_CONTEXT(
'Core Data for Automotive Mechanical Design Process');
#465=PRODUCT_CONTEXT('part definition',#464,'mechanical');
#466=PRODUCT('FusionComponent','FusionComponent',$,(#465));
#467=PRESENTATION_STYLE_ASSIGNMENT((#468));
#468=SURFACE_STYLE_USAGE(.BOTH.,#469);
#469=SURFACE_SIDE_STYLE('',(#470));
#470=SURFACE_STYLE_FILL_AREA(#471);
#471=FILL_AREA_STYLE('Steel - Satin',(#472));
#472=FILL_AREA_STYLE_COLOUR('Steel - Satin',#473);
#473=COLOUR_RGB('Steel - Satin',0.627450980392157,0.627450980392157,0.627450980392157);
ENDSEC;
END-ISO-10303-21;
