ISO-10303-21;
HEADER;
/* Generated by software containing ST-Developer
 * from STEP Tools, Inc. (www.steptools.com) 
 */

FILE_DESCRIPTION(
/* description */ ('ROUE'),
/* implementation_level */ '2;1');

FILE_NAME(
/* name */ 'C:\\Users\\FERRARI\\Desktop\\Roue\\DR.stp',
/* time_stamp */ '2019-03-14T12:56:17+01:00',
/* author */ ('FERRARI'),
/* organization */ (''),
/* preprocessor_version */ 'ST-DEVELOPER v16.5',
/* originating_system */ 'Autodesk Inventor 2017',
/* authorisation */ '');

FILE_SCHEMA (('AUTOMOTIVE_DESIGN { 1 0 10303 214 3 1 1 }'));
ENDSEC;

DATA;
#10=MECHANICAL_DESIGN_GEOMETRIC_PRESENTATION_REPRESENTATION('',(#13),#369);
#11=SHAPE_REPRESENTATION_RELATIONSHIP('SRR','None',#378,#12);
#12=ADVANCED_BREP_SHAPE_REPRESENTATION('',(#14),#368);
#13=STYLED_ITEM('',(#387),#14);
#14=MANIFOLD_SOLID_BREP('Solide1',#202);
#15=CONICAL_SURFACE('',#217,56.,45.);
#16=CONICAL_SURFACE('',#221,15.5,45.0000000000001);
#17=CYLINDRICAL_SURFACE('',#215,58.5);
#18=CYLINDRICAL_SURFACE('',#223,13.);
#19=CYLINDRICAL_SURFACE('',#227,15.);
#20=CYLINDRICAL_SURFACE('',#231,22.);
#21=CYLINDRICAL_SURFACE('',#239,53.5);
#22=CYLINDRICAL_SURFACE('',#243,65.);
#23=PLANE('',#213);
#24=PLANE('',#219);
#25=PLANE('',#225);
#26=PLANE('',#229);
#27=PLANE('',#235);
#28=PLANE('',#241);
#29=FACE_BOUND('',#64,.T.);
#30=FACE_BOUND('',#66,.T.);
#31=FACE_BOUND('',#68,.T.);
#32=FACE_BOUND('',#70,.T.);
#33=FACE_BOUND('',#72,.T.);
#34=FACE_BOUND('',#74,.T.);
#35=FACE_BOUND('',#76,.T.);
#36=FACE_BOUND('',#78,.T.);
#37=FACE_BOUND('',#80,.T.);
#38=FACE_BOUND('',#82,.T.);
#39=FACE_BOUND('',#84,.T.);
#40=FACE_BOUND('',#86,.T.);
#41=FACE_BOUND('',#88,.T.);
#42=FACE_BOUND('',#90,.T.);
#43=FACE_BOUND('',#92,.T.);
#44=FACE_BOUND('',#94,.T.);
#45=FACE_BOUND('',#96,.T.);
#46=FACE_OUTER_BOUND('',#63,.T.);
#47=FACE_OUTER_BOUND('',#65,.T.);
#48=FACE_OUTER_BOUND('',#67,.T.);
#49=FACE_OUTER_BOUND('',#69,.T.);
#50=FACE_OUTER_BOUND('',#71,.T.);
#51=FACE_OUTER_BOUND('',#73,.T.);
#52=FACE_OUTER_BOUND('',#75,.T.);
#53=FACE_OUTER_BOUND('',#77,.T.);
#54=FACE_OUTER_BOUND('',#79,.T.);
#55=FACE_OUTER_BOUND('',#81,.T.);
#56=FACE_OUTER_BOUND('',#83,.T.);
#57=FACE_OUTER_BOUND('',#85,.T.);
#58=FACE_OUTER_BOUND('',#87,.T.);
#59=FACE_OUTER_BOUND('',#89,.T.);
#60=FACE_OUTER_BOUND('',#91,.T.);
#61=FACE_OUTER_BOUND('',#93,.T.);
#62=FACE_OUTER_BOUND('',#95,.T.);
#63=EDGE_LOOP('',(#148));
#64=EDGE_LOOP('',(#149));
#65=EDGE_LOOP('',(#150));
#66=EDGE_LOOP('',(#151));
#67=EDGE_LOOP('',(#152));
#68=EDGE_LOOP('',(#153));
#69=EDGE_LOOP('',(#154));
#70=EDGE_LOOP('',(#155));
#71=EDGE_LOOP('',(#156));
#72=EDGE_LOOP('',(#157));
#73=EDGE_LOOP('',(#158));
#74=EDGE_LOOP('',(#159));
#75=EDGE_LOOP('',(#160));
#76=EDGE_LOOP('',(#161));
#77=EDGE_LOOP('',(#162));
#78=EDGE_LOOP('',(#163));
#79=EDGE_LOOP('',(#164));
#80=EDGE_LOOP('',(#165));
#81=EDGE_LOOP('',(#166));
#82=EDGE_LOOP('',(#167));
#83=EDGE_LOOP('',(#168));
#84=EDGE_LOOP('',(#169));
#85=EDGE_LOOP('',(#170));
#86=EDGE_LOOP('',(#171));
#87=EDGE_LOOP('',(#172));
#88=EDGE_LOOP('',(#173));
#89=EDGE_LOOP('',(#174));
#90=EDGE_LOOP('',(#175));
#91=EDGE_LOOP('',(#176));
#92=EDGE_LOOP('',(#177));
#93=EDGE_LOOP('',(#178));
#94=EDGE_LOOP('',(#179));
#95=EDGE_LOOP('',(#180));
#96=EDGE_LOOP('',(#181));
#97=CIRCLE('',#211,63.);
#98=CIRCLE('',#212,65.);
#99=CIRCLE('',#214,58.5);
#100=CIRCLE('',#216,58.5);
#101=CIRCLE('',#218,53.5);
#102=CIRCLE('',#220,18.);
#103=CIRCLE('',#222,13.);
#104=CIRCLE('',#224,13.);
#105=CIRCLE('',#226,15.);
#106=CIRCLE('',#228,15.);
#107=CIRCLE('',#230,22.);
#108=CIRCLE('',#232,22.);
#109=CIRCLE('',#234,27.);
#110=CIRCLE('',#236,48.5);
#111=CIRCLE('',#238,53.5);
#112=CIRCLE('',#240,53.5);
#113=CIRCLE('',#242,65.);
#114=VERTEX_POINT('',#316);
#115=VERTEX_POINT('',#318);
#116=VERTEX_POINT('',#321);
#117=VERTEX_POINT('',#324);
#118=VERTEX_POINT('',#327);
#119=VERTEX_POINT('',#330);
#120=VERTEX_POINT('',#333);
#121=VERTEX_POINT('',#336);
#122=VERTEX_POINT('',#339);
#123=VERTEX_POINT('',#342);
#124=VERTEX_POINT('',#345);
#125=VERTEX_POINT('',#348);
#126=VERTEX_POINT('',#351);
#127=VERTEX_POINT('',#354);
#128=VERTEX_POINT('',#357);
#129=VERTEX_POINT('',#360);
#130=VERTEX_POINT('',#363);
#131=EDGE_CURVE('',#114,#114,#97,.T.);
#132=EDGE_CURVE('',#115,#115,#98,.T.);
#133=EDGE_CURVE('',#116,#116,#99,.T.);
#134=EDGE_CURVE('',#117,#117,#100,.T.);
#135=EDGE_CURVE('',#118,#118,#101,.T.);
#136=EDGE_CURVE('',#119,#119,#102,.T.);
#137=EDGE_CURVE('',#120,#120,#103,.T.);
#138=EDGE_CURVE('',#121,#121,#104,.T.);
#139=EDGE_CURVE('',#122,#122,#105,.T.);
#140=EDGE_CURVE('',#123,#123,#106,.T.);
#141=EDGE_CURVE('',#124,#124,#107,.T.);
#142=EDGE_CURVE('',#125,#125,#108,.T.);
#143=EDGE_CURVE('',#126,#126,#109,.T.);
#144=EDGE_CURVE('',#127,#127,#110,.T.);
#145=EDGE_CURVE('',#128,#128,#111,.T.);
#146=EDGE_CURVE('',#129,#129,#112,.T.);
#147=EDGE_CURVE('',#130,#130,#113,.T.);
#148=ORIENTED_EDGE('',*,*,#131,.F.);
#149=ORIENTED_EDGE('',*,*,#132,.T.);
#150=ORIENTED_EDGE('',*,*,#131,.T.);
#151=ORIENTED_EDGE('',*,*,#133,.F.);
#152=ORIENTED_EDGE('',*,*,#134,.F.);
#153=ORIENTED_EDGE('',*,*,#133,.T.);
#154=ORIENTED_EDGE('',*,*,#135,.F.);
#155=ORIENTED_EDGE('',*,*,#134,.T.);
#156=ORIENTED_EDGE('',*,*,#135,.T.);
#157=ORIENTED_EDGE('',*,*,#136,.F.);
#158=ORIENTED_EDGE('',*,*,#137,.F.);
#159=ORIENTED_EDGE('',*,*,#136,.T.);
#160=ORIENTED_EDGE('',*,*,#138,.F.);
#161=ORIENTED_EDGE('',*,*,#137,.T.);
#162=ORIENTED_EDGE('',*,*,#139,.F.);
#163=ORIENTED_EDGE('',*,*,#138,.T.);
#164=ORIENTED_EDGE('',*,*,#140,.F.);
#165=ORIENTED_EDGE('',*,*,#139,.T.);
#166=ORIENTED_EDGE('',*,*,#141,.F.);
#167=ORIENTED_EDGE('',*,*,#140,.T.);
#168=ORIENTED_EDGE('',*,*,#142,.F.);
#169=ORIENTED_EDGE('',*,*,#141,.T.);
#170=ORIENTED_EDGE('',*,*,#143,.F.);
#171=ORIENTED_EDGE('',*,*,#142,.T.);
#172=ORIENTED_EDGE('',*,*,#144,.F.);
#173=ORIENTED_EDGE('',*,*,#143,.T.);
#174=ORIENTED_EDGE('',*,*,#145,.F.);
#175=ORIENTED_EDGE('',*,*,#144,.T.);
#176=ORIENTED_EDGE('',*,*,#146,.F.);
#177=ORIENTED_EDGE('',*,*,#145,.T.);
#178=ORIENTED_EDGE('',*,*,#147,.F.);
#179=ORIENTED_EDGE('',*,*,#146,.T.);
#180=ORIENTED_EDGE('',*,*,#132,.F.);
#181=ORIENTED_EDGE('',*,*,#147,.T.);
#182=TOROIDAL_SURFACE('',#210,63.,2.);
#183=TOROIDAL_SURFACE('',#233,27.,5.);
#184=TOROIDAL_SURFACE('',#237,48.5,5.);
#185=ADVANCED_FACE('',(#46,#29),#182,.T.);
#186=ADVANCED_FACE('',(#47,#30),#23,.T.);
#187=ADVANCED_FACE('',(#48,#31),#17,.T.);
#188=ADVANCED_FACE('',(#49,#32),#15,.T.);
#189=ADVANCED_FACE('',(#50,#33),#24,.T.);
#190=ADVANCED_FACE('',(#51,#34),#16,.F.);
#191=ADVANCED_FACE('',(#52,#35),#18,.F.);
#192=ADVANCED_FACE('',(#53,#36),#25,.T.);
#193=ADVANCED_FACE('',(#54,#37),#19,.F.);
#194=ADVANCED_FACE('',(#55,#38),#26,.T.);
#195=ADVANCED_FACE('',(#56,#39),#20,.T.);
#196=ADVANCED_FACE('',(#57,#40),#183,.F.);
#197=ADVANCED_FACE('',(#58,#41),#27,.T.);
#198=ADVANCED_FACE('',(#59,#42),#184,.F.);
#199=ADVANCED_FACE('',(#60,#43),#21,.F.);
#200=ADVANCED_FACE('',(#61,#44),#28,.T.);
#201=ADVANCED_FACE('',(#62,#45),#22,.T.);
#202=CLOSED_SHELL('',(#185,#186,#187,#188,#189,#190,#191,#192,#193,#194,
#195,#196,#197,#198,#199,#200,#201));
#203=DATE_TIME_ROLE('creation_date');
#204=APPLIED_DATE_AND_TIME_ASSIGNMENT(#205,#203,(#380));
#205=DATE_AND_TIME(#206,#207);
#206=CALENDAR_DATE(2019,12,3);
#207=LOCAL_TIME(23,0,0.,#208);
#208=COORDINATED_UNIVERSAL_TIME_OFFSET(0,0,.BEHIND.);
#209=AXIS2_PLACEMENT_3D('placement',#314,#244,#245);
#210=AXIS2_PLACEMENT_3D('',#315,#246,#247);
#211=AXIS2_PLACEMENT_3D('',#317,#248,#249);
#212=AXIS2_PLACEMENT_3D('',#319,#250,#251);
#213=AXIS2_PLACEMENT_3D('',#320,#252,#253);
#214=AXIS2_PLACEMENT_3D('',#322,#254,#255);
#215=AXIS2_PLACEMENT_3D('',#323,#256,#257);
#216=AXIS2_PLACEMENT_3D('',#325,#258,#259);
#217=AXIS2_PLACEMENT_3D('',#326,#260,#261);
#218=AXIS2_PLACEMENT_3D('',#328,#262,#263);
#219=AXIS2_PLACEMENT_3D('',#329,#264,#265);
#220=AXIS2_PLACEMENT_3D('',#331,#266,#267);
#221=AXIS2_PLACEMENT_3D('',#332,#268,#269);
#222=AXIS2_PLACEMENT_3D('',#334,#270,#271);
#223=AXIS2_PLACEMENT_3D('',#335,#272,#273);
#224=AXIS2_PLACEMENT_3D('',#337,#274,#275);
#225=AXIS2_PLACEMENT_3D('',#338,#276,#277);
#226=AXIS2_PLACEMENT_3D('',#340,#278,#279);
#227=AXIS2_PLACEMENT_3D('',#341,#280,#281);
#228=AXIS2_PLACEMENT_3D('',#343,#282,#283);
#229=AXIS2_PLACEMENT_3D('',#344,#284,#285);
#230=AXIS2_PLACEMENT_3D('',#346,#286,#287);
#231=AXIS2_PLACEMENT_3D('',#347,#288,#289);
#232=AXIS2_PLACEMENT_3D('',#349,#290,#291);
#233=AXIS2_PLACEMENT_3D('',#350,#292,#293);
#234=AXIS2_PLACEMENT_3D('',#352,#294,#295);
#235=AXIS2_PLACEMENT_3D('',#353,#296,#297);
#236=AXIS2_PLACEMENT_3D('',#355,#298,#299);
#237=AXIS2_PLACEMENT_3D('',#356,#300,#301);
#238=AXIS2_PLACEMENT_3D('',#358,#302,#303);
#239=AXIS2_PLACEMENT_3D('',#359,#304,#305);
#240=AXIS2_PLACEMENT_3D('',#361,#306,#307);
#241=AXIS2_PLACEMENT_3D('',#362,#308,#309);
#242=AXIS2_PLACEMENT_3D('',#364,#310,#311);
#243=AXIS2_PLACEMENT_3D('',#365,#312,#313);
#244=DIRECTION('axis',(0.,0.,1.));
#245=DIRECTION('refdir',(1.,0.,0.));
#246=DIRECTION('center_axis',(0.,0.,-1.));
#247=DIRECTION('ref_axis',(-1.,0.,0.));
#248=DIRECTION('center_axis',(0.,0.,-1.));
#249=DIRECTION('ref_axis',(1.,0.,0.));
#250=DIRECTION('center_axis',(0.,0.,-1.));
#251=DIRECTION('ref_axis',(1.,0.,0.));
#252=DIRECTION('center_axis',(0.,0.,-1.));
#253=DIRECTION('ref_axis',(-1.,0.,0.));
#254=DIRECTION('center_axis',(0.,0.,-1.));
#255=DIRECTION('ref_axis',(1.,0.,0.));
#256=DIRECTION('center_axis',(0.,0.,-1.));
#257=DIRECTION('ref_axis',(0.,1.,0.));
#258=DIRECTION('center_axis',(0.,0.,-1.));
#259=DIRECTION('ref_axis',(1.,0.,0.));
#260=DIRECTION('center_axis',(0.,0.,1.));
#261=DIRECTION('ref_axis',(0.,1.,0.));
#262=DIRECTION('center_axis',(0.,0.,-1.));
#263=DIRECTION('ref_axis',(1.,0.,0.));
#264=DIRECTION('center_axis',(0.,0.,-1.));
#265=DIRECTION('ref_axis',(-1.,0.,0.));
#266=DIRECTION('center_axis',(0.,0.,-1.));
#267=DIRECTION('ref_axis',(1.,0.,0.));
#268=DIRECTION('center_axis',(0.,0.,-1.));
#269=DIRECTION('ref_axis',(0.,1.,0.));
#270=DIRECTION('center_axis',(0.,0.,-1.));
#271=DIRECTION('ref_axis',(1.,0.,0.));
#272=DIRECTION('center_axis',(0.,0.,-1.));
#273=DIRECTION('ref_axis',(0.,1.,0.));
#274=DIRECTION('center_axis',(0.,0.,-1.));
#275=DIRECTION('ref_axis',(1.,0.,0.));
#276=DIRECTION('center_axis',(0.,0.,1.));
#277=DIRECTION('ref_axis',(1.,0.,0.));
#278=DIRECTION('center_axis',(0.,0.,-1.));
#279=DIRECTION('ref_axis',(1.,0.,0.));
#280=DIRECTION('center_axis',(0.,0.,-1.));
#281=DIRECTION('ref_axis',(0.,1.,0.));
#282=DIRECTION('center_axis',(0.,0.,-1.));
#283=DIRECTION('ref_axis',(1.,0.,0.));
#284=DIRECTION('center_axis',(0.,0.,1.));
#285=DIRECTION('ref_axis',(1.,0.,0.));
#286=DIRECTION('center_axis',(0.,0.,-1.));
#287=DIRECTION('ref_axis',(1.,0.,0.));
#288=DIRECTION('center_axis',(0.,0.,-1.));
#289=DIRECTION('ref_axis',(0.,1.,0.));
#290=DIRECTION('center_axis',(0.,0.,-1.));
#291=DIRECTION('ref_axis',(1.,0.,0.));
#292=DIRECTION('center_axis',(0.,0.,-1.));
#293=DIRECTION('ref_axis',(-1.,0.,0.));
#294=DIRECTION('center_axis',(0.,0.,-1.));
#295=DIRECTION('ref_axis',(1.,0.,0.));
#296=DIRECTION('center_axis',(0.,0.,1.));
#297=DIRECTION('ref_axis',(1.,0.,0.));
#298=DIRECTION('center_axis',(0.,0.,-1.));
#299=DIRECTION('ref_axis',(1.,0.,0.));
#300=DIRECTION('center_axis',(0.,0.,-1.));
#301=DIRECTION('ref_axis',(-1.,0.,0.));
#302=DIRECTION('center_axis',(0.,0.,-1.));
#303=DIRECTION('ref_axis',(1.,0.,0.));
#304=DIRECTION('center_axis',(0.,0.,-1.));
#305=DIRECTION('ref_axis',(0.,1.,0.));
#306=DIRECTION('center_axis',(0.,0.,-1.));
#307=DIRECTION('ref_axis',(1.,0.,0.));
#308=DIRECTION('center_axis',(0.,0.,1.));
#309=DIRECTION('ref_axis',(1.,0.,0.));
#310=DIRECTION('center_axis',(0.,0.,-1.));
#311=DIRECTION('ref_axis',(1.,0.,0.));
#312=DIRECTION('center_axis',(0.,0.,-1.));
#313=DIRECTION('ref_axis',(0.,1.,0.));
#314=CARTESIAN_POINT('',(0.,0.,0.));
#315=CARTESIAN_POINT('Origin',(0.,0.,15.5));
#316=CARTESIAN_POINT('',(0.,63.,13.5));
#317=CARTESIAN_POINT('Origin',(0.,0.,13.5));
#318=CARTESIAN_POINT('',(0.,65.,15.5));
#319=CARTESIAN_POINT('Origin',(0.,0.,15.5));
#320=CARTESIAN_POINT('Origin',(0.,58.5,13.5));
#321=CARTESIAN_POINT('',(0.,58.5,13.5));
#322=CARTESIAN_POINT('Origin',(0.,0.,13.5));
#323=CARTESIAN_POINT('Origin',(0.,0.,9.25000000000002));
#324=CARTESIAN_POINT('',(0.,58.5,5.00000000000003));
#325=CARTESIAN_POINT('Origin',(0.,0.,5.00000000000003));
#326=CARTESIAN_POINT('Origin',(0.,0.,2.50000000000002));
#327=CARTESIAN_POINT('',(0.,53.5,2.29315113140342E-14));
#328=CARTESIAN_POINT('Origin',(0.,0.,2.22044604925031E-14));
#329=CARTESIAN_POINT('Origin',(0.,18.,5.0195962919882E-15));
#330=CARTESIAN_POINT('',(0.,18.,5.0195962919882E-15));
#331=CARTESIAN_POINT('Origin',(0.,0.,4.44089209850063E-15));
#332=CARTESIAN_POINT('Origin',(0.,0.,2.5));
#333=CARTESIAN_POINT('',(0.,13.,5.));
#334=CARTESIAN_POINT('Origin',(0.,0.,5.));
#335=CARTESIAN_POINT('Origin',(0.,0.,10.));
#336=CARTESIAN_POINT('',(0.,13.,15.));
#337=CARTESIAN_POINT('Origin',(0.,0.,15.));
#338=CARTESIAN_POINT('Origin',(0.,15.,15.));
#339=CARTESIAN_POINT('',(0.,15.,15.));
#340=CARTESIAN_POINT('Origin',(0.,0.,15.));
#341=CARTESIAN_POINT('Origin',(0.,0.,19.5));
#342=CARTESIAN_POINT('',(0.,15.,24.));
#343=CARTESIAN_POINT('Origin',(0.,0.,24.));
#344=CARTESIAN_POINT('Origin',(0.,22.,24.));
#345=CARTESIAN_POINT('',(0.,22.,24.));
#346=CARTESIAN_POINT('Origin',(0.,0.,24.));
#347=CARTESIAN_POINT('Origin',(0.,0.,16.75));
#348=CARTESIAN_POINT('',(0.,22.,9.5));
#349=CARTESIAN_POINT('Origin',(0.,0.,9.5));
#350=CARTESIAN_POINT('Origin',(0.,0.,9.50000000000001));
#351=CARTESIAN_POINT('',(0.,27.,4.50000000000001));
#352=CARTESIAN_POINT('Origin',(0.,0.,4.50000000000001));
#353=CARTESIAN_POINT('Origin',(0.,48.5,4.50000000000002));
#354=CARTESIAN_POINT('',(0.,48.5,4.50000000000002));
#355=CARTESIAN_POINT('Origin',(0.,0.,4.50000000000002));
#356=CARTESIAN_POINT('Origin',(0.,0.,9.50000000000002));
#357=CARTESIAN_POINT('',(0.,53.5,9.50000000000002));
#358=CARTESIAN_POINT('Origin',(0.,0.,9.50000000000002));
#359=CARTESIAN_POINT('Origin',(0.,0.,13.5));
#360=CARTESIAN_POINT('',(0.,53.5,17.5));
#361=CARTESIAN_POINT('Origin',(0.,0.,17.5));
#362=CARTESIAN_POINT('Origin',(0.,65.,17.5));
#363=CARTESIAN_POINT('',(0.,65.,17.5));
#364=CARTESIAN_POINT('Origin',(0.,0.,17.5));
#365=CARTESIAN_POINT('Origin',(0.,0.,16.5));
#366=UNCERTAINTY_MEASURE_WITH_UNIT(LENGTH_MEASURE(0.01),#370,
'DISTANCE_ACCURACY_VALUE',
'Maximum model space distance between geometric entities at asserted c
onnectivities');
#367=UNCERTAINTY_MEASURE_WITH_UNIT(LENGTH_MEASURE(1.E-6),#370,
'DISTANCE_ACCURACY_VALUE',
'Maximum model space distance between geometric entities at asserted c
onnectivities');
#368=(
GEOMETRIC_REPRESENTATION_CONTEXT(3)
GLOBAL_UNCERTAINTY_ASSIGNED_CONTEXT((#366))
GLOBAL_UNIT_ASSIGNED_CONTEXT((#370,#373,#371))
REPRESENTATION_CONTEXT('','3D')
);
#369=(
GEOMETRIC_REPRESENTATION_CONTEXT(3)
GLOBAL_UNCERTAINTY_ASSIGNED_CONTEXT((#367))
GLOBAL_UNIT_ASSIGNED_CONTEXT((#370,#373,#371))
REPRESENTATION_CONTEXT('','3D')
);
#370=(
LENGTH_UNIT()
NAMED_UNIT(*)
SI_UNIT(.MILLI.,.METRE.)
);
#371=(
NAMED_UNIT(*)
SI_UNIT($,.STERADIAN.)
SOLID_ANGLE_UNIT()
);
#372=DIMENSIONAL_EXPONENTS(0.,0.,0.,0.,0.,0.,0.);
#373=(
CONVERSION_BASED_UNIT('degree',#375)
NAMED_UNIT(#372)
PLANE_ANGLE_UNIT()
);
#374=(
NAMED_UNIT(*)
PLANE_ANGLE_UNIT()
SI_UNIT($,.RADIAN.)
);
#375=PLANE_ANGLE_MEASURE_WITH_UNIT(PLANE_ANGLE_MEASURE(0.01745329252),#374);
#376=SHAPE_DEFINITION_REPRESENTATION(#377,#378);
#377=PRODUCT_DEFINITION_SHAPE('',$,#380);
#378=SHAPE_REPRESENTATION('',(#209),#368);
#379=PRODUCT_DEFINITION_CONTEXT('part definition',#384,'design');
#380=PRODUCT_DEFINITION('DemiRoue','DR',#381,#379);
#381=PRODUCT_DEFINITION_FORMATION('A',$,#386);
#382=PRODUCT_RELATED_PRODUCT_CATEGORY('DR','DR',(#386));
#383=APPLICATION_PROTOCOL_DEFINITION('international standard',
'automotive_design',2009,#384);
#384=APPLICATION_CONTEXT(
'Core Data for Automotive Mechanical Design Process');
#385=PRODUCT_CONTEXT('part definition',#384,'mechanical');
#386=PRODUCT('DemiRoue','DR','ROUE',(#385));
#387=PRESENTATION_STYLE_ASSIGNMENT((#388));
#388=SURFACE_STYLE_USAGE(.BOTH.,#389);
#389=SURFACE_SIDE_STYLE('',(#390));
#390=SURFACE_STYLE_FILL_AREA(#391);
#391=FILL_AREA_STYLE('',(#392));
#392=FILL_AREA_STYLE_COLOUR('',#393);
#393=COLOUR_RGB('',0.745098039215686,0.737254901960784,0.729411764705882);
ENDSEC;
END-ISO-10303-21;
