  0
SECTION
  2
HEADER
  9
$ACADVER
  1
AC1015
  9
$ACADMAINTVER
 70
     6
  9
$DWGCODEPAGE
  3
ANSI_1252
  9
$INSBASE
 10
0.0
 20
0.0
 30
0.0
  9
$EXTMIN
 10
-26.6417946455
 20
-8.9459723768
 30
0.0
  9
$EXTMAX
 10
13.121106271
 20
19.3266959334
 30
0.0
  9
$LIMMIN
 10
0.0
 20
0.0
  9
$LIMMAX
 10
420.0
 20
297.0
  9
$ORTHOMODE
 70
     0
  9
$REGENMODE
 70
     1
  9
$FILLMODE
 70
     1
  9
$QTEXTMODE
 70
     0
  9
$MIRRTEXT
 70
     1
  9
$LTSCALE
 40
1.0
  9
$ATTMODE
 70
     1
  9
$TEXTSIZE
 40
3.5
  9
$TRACEWID
 40
1.0
  9
$TEXTSTYLE
  7
Standard
  9
$CLAYER
  8
0
  9
$CELTYPE
  6
ByLayer
  9
$CECOLOR
 62
   256
  9
$CELTSCALE
 40
1.0
  9
$DISPSILH
 70
     0
  9
$DIMSCALE
 40
1.0
  9
$DIMASZ
 40
3.302
  9
$DIMEXO
 40
1.0
  9
$DIMDLI
 40
3.75
  9
$DIMRND
 40
0.0
  9
$DIMDLE
 40
0.0
  9
$DIMEXE
 40
1.0
  9
$DIMTP
 40
0.0
  9
$DIMTM
 40
0.0
  9
$DIMTXT
 40
3.5
  9
$DIMCEN
 40
2.5
  9
$DIMTSZ
 40
0.0
  9
$DIMTOL
 70
     0
  9
$DIMLIM
 70
     0
  9
$DIMTIH
 70
     1
  9
$DIMTOH
 70
     1
  9
$DIMSE1
 70
     0
  9
$DIMSE2
 70
     0
  9
$DIMTAD
 70
     1
  9
$DIMZIN
 70
     0
  9
$DIMBLK
  1

  9
$DIMASO
 70
     1
  9
$DIMSHO
 70
     1
  9
$DIMPOST
  1

  9
$DIMAPOST
  1

  9
$DIMALT
 70
     0
  9
$DIMALTD
 70
     3
  9
$DIMALTF
 40
0.0393700787
  9
$DIMLFAC
 40
1.0
  9
$DIMTOFL
 70
     1
  9
$DIMTVP
 40
0.0
  9
$DIMTIX
 70
     0
  9
$DIMSOXD
 70
     0
  9
$DIMSAH
 70
     0
  9
$DIMBLK1
  1

  9
$DIMBLK2
  1

  9
$DIMSTYLE
  2
ISO-25
  9
$DIMCLRD
 70
     0
  9
$DIMCLRE
 70
     0
  9
$DIMCLRT
 70
     0
  9
$DIMTFAC
 40
1.0
  9
$DIMGAP
 40
1.524
  9
$DIMJUST
 70
     0
  9
$DIMSD1
 70
     0
  9
$DIMSD2
 70
     0
  9
$DIMTOLJ
 70
     0
  9
$DIMTZIN
 70
     0
  9
$DIMALTZ
 70
     0
  9
$DIMALTTZ
 70
     0
  9
$DIMUPT
 70
     0
  9
$DIMDEC
 70
     2
  9
$DIMTDEC
 70
     2
  9
$DIMALTU
 70
     2
  9
$DIMALTTD
 70
     3
  9
$DIMTXSTY
  7
Standard
  9
$DIMAUNIT
 70
     0
  9
$DIMADEC
 70
     2
  9
$DIMALTRND
 40
0.0
  9
$DIMAZIN
 70
     0
  9
$DIMDSEP
 70
    44
  9
$DIMATFIT
 70
     3
  9
$DIMFRAC
 70
     0
  9
$DIMLDRBLK
  1

  9
$DIMLUNIT
 70
     2
  9
$DIMLWD
 70
    -2
  9
$DIMLWE
 70
    -2
  9
$DIMTMOVE
 70
     0
  9
$LUNITS
 70
     2
  9
$LUPREC
 70
     2
  9
$SKETCHINC
 40
1.0
  9
$FILLETRAD
 40
10.0
  9
$AUNITS
 70
     0
  9
$AUPREC
 70
     2
  9
$MENU
  1
.
  9
$ELEVATION
 40
0.0
  9
$PELEVATION
 40
0.0
  9
$THICKNESS
 40
0.0
  9
$LIMCHECK
 70
     0
  9
$CHAMFERA
 40
10.0
  9
$CHAMFERB
 40
10.0
  9
$CHAMFERC
 40
20.0
  9
$CHAMFERD
 40
0.0
  9
$SKPOLY
 70
     0
  9
$TDCREATE
 40
2458540.784623576
  9
$TDUCREATE
 40
2458540.74295691
  9
$TDUPDATE
 40
2458540.784702662
  9
$TDUUPDATE
 40
2458540.743035995
  9
$TDINDWG
 40
0.0000000116
  9
$TDUSRTIMER
 40
0.0000000116
  9
$USRTIMER
 70
     1
  9
$ANGBASE
 50
0.0
  9
$ANGDIR
 70
     0
  9
$PDMODE
 70
     0
  9
$PDSIZE
 40
-1.0
  9
$PLINEWID
 40
0.0
  9
$SPLFRAME
 70
     0
  9
$SPLINETYPE
 70
     6
  9
$SPLINESEGS
 70
     8
  9
$HANDSEED
  5
92
  9
$SURFTAB1
 70
     6
  9
$SURFTAB2
 70
     6
  9
$SURFTYPE
 70
     6
  9
$SURFU
 70
     6
  9
$SURFV
 70
     6
  9
$UCSBASE
  2

  9
$UCSNAME
  2

  9
$UCSORG
 10
0.0
 20
0.0
 30
0.0
  9
$UCSXDIR
 10
1.0
 20
0.0
 30
0.0
  9
$UCSYDIR
 10
0.0
 20
1.0
 30
0.0
  9
$UCSORTHOREF
  2

  9
$UCSORTHOVIEW
 70
     0
  9
$UCSORGTOP
 10
0.0
 20
0.0
 30
0.0
  9
$UCSORGBOTTOM
 10
0.0
 20
0.0
 30
0.0
  9
$UCSORGLEFT
 10
0.0
 20
0.0
 30
0.0
  9
$UCSORGRIGHT
 10
0.0
 20
0.0
 30
0.0
  9
$UCSORGFRONT
 10
0.0
 20
0.0
 30
0.0
  9
$UCSORGBACK
 10
0.0
 20
0.0
 30
0.0
  9
$PUCSBASE
  2

  9
$PUCSNAME
  2

  9
$PUCSORG
 10
0.0
 20
0.0
 30
0.0
  9
$PUCSXDIR
 10
1.0
 20
0.0
 30
0.0
  9
$PUCSYDIR
 10
0.0
 20
1.0
 30
0.0
  9
$PUCSORTHOREF
  2

  9
$PUCSORTHOVIEW
 70
     0
  9
$PUCSORGTOP
 10
0.0
 20
0.0
 30
0.0
  9
$PUCSORGBOTTOM
 10
0.0
 20
0.0
 30
0.0
  9
$PUCSORGLEFT
 10
0.0
 20
0.0
 30
0.0
  9
$PUCSORGRIGHT
 10
0.0
 20
0.0
 30
0.0
  9
$PUCSORGFRONT
 10
0.0
 20
0.0
 30
0.0
  9
$PUCSORGBACK
 10
0.0
 20
0.0
 30
0.0
  9
$USERI1
 70
     0
  9
$USERI2
 70
     0
  9
$USERI3
 70
     0
  9
$USERI4
 70
     0
  9
$USERI5
 70
     0
  9
$USERR1
 40
0.0
  9
$USERR2
 40
0.0
  9
$USERR3
 40
0.0
  9
$USERR4
 40
0.0
  9
$USERR5
 40
0.0
  9
$WORLDVIEW
 70
     1
  9
$SHADEDGE
 70
     3
  9
$SHADEDIF
 70
    70
  9
$TILEMODE
 70
     1
  9
$MAXACTVP
 70
    64
  9
$PINSBASE
 10
0.0
 20
0.0
 30
0.0
  9
$PLIMCHECK
 70
     0
  9
$PEXTMIN
 10
1.0000000000E+20
 20
1.0000000000E+20
 30
1.0000000000E+20
  9
$PEXTMAX
 10
-1.0000000000E+20
 20
-1.0000000000E+20
 30
-1.0000000000E+20
  9
$PLIMMIN
 10
0.0
 20
0.0
  9
$PLIMMAX
 10
420.0
 20
297.0
  9
$UNITMODE
 70
     0
  9
$VISRETAIN
 70
     1
  9
$PLINEGEN
 70
     0
  9
$PSLTSCALE
 70
     1
  9
$TREEDEPTH
 70
  3020
  9
$CMLSTYLE
  2
Standard
  9
$CMLJUST
 70
     0
  9
$CMLSCALE
 40
20.0
  9
$PROXYGRAPHICS
 70
     1
  9
$MEASUREMENT
 70
     1
  9
$CELWEIGHT
370
    -1
  9
$ENDCAPS
280
     0
  9
$JOINSTYLE
280
     0
  9
$LWDISPLAY
290
     1
  9
$INSUNITS
 70
     4
  9
$HYPERLINKBASE
  1

  9
$STYLESHEET
  1

  9
$XEDIT
290
     1
  9
$CEPSNTYPE
380
     0
  9
$PSTYLEMODE
290
     1
  9
$FINGERPRINTGUID
  2
{17F82243-AD5A-4BAD-83BD-5C5604965689}
  9
$VERSIONGUID
  2
{FAEB1C32-E019-11D5-929B-00C0DF256EC4}
  9
$EXTNAMES
290
     1
  9
$PSVPSCALE
 40
0.0
  9
$OLESTARTUP
290
     0
  0
ENDSEC
  0
SECTION
  2
CLASSES
  0
CLASS
  1
ACDBDICTIONARYWDFLT
  2
AcDbDictionaryWithDefault
  3
ObjectDBX Classes
 90
        0
280
     0
281
     0
  0
CLASS
  1
VISUALSTYLE
  2
AcDbVisualStyle
  3
ObjectDBX Classes
 90
     4095
280
     0
281
     0
  0
CLASS
  1
MATERIAL
  2
AcDbMaterial
  3
ObjectDBX Classes
 90
     1153
280
     0
281
     0
  0
CLASS
  1
ACDBPLACEHOLDER
  2
AcDbPlaceHolder
  3
ObjectDBX Classes
 90
        0
280
     0
281
     0
  0
CLASS
  1
LAYOUT
  2
AcDbLayout
  3
ObjectDBX Classes
 90
        0
280
     0
281
     0
  0
ENDSEC
  0
SECTION
  2
TABLES
  0
TABLE
  2
VPORT
  5
8
330
0
100
AcDbSymbolTable
 70
     1
  0
VPORT
  5
29
330
8
100
AcDbSymbolTableRecord
100
AcDbViewportTableRecord
  2
*Active
 70
     0
 10
0.0
 20
0.0
 11
1.0
 21
1.0
 12
-6.7603441872
 22
5.1903617783
 13
0.0
 23
0.0
 14
10.0
 24
10.0
 15
10.0
 25
10.0
 16
0.0
 26
0.0
 36
1.0
 17
0.0
 27
0.0
 37
0.0
 40
28.8381216764
 41
1.4064077886
 42
50.0
 43
0.0
 44
0.0
 50
0.0
 51
0.0
 71
     0
 72
   100
 73
     1
 74
     3
 75
     0
 76
     0
 77
     0
 78
     0
281
     0
 65
     1
110
0.0
120
0.0
130
0.0
111
1.0
121
0.0
131
0.0
112
0.0
122
1.0
132
0.0
 79
     0
146
0.0
  0
ENDTAB
  0
TABLE
  2
LTYPE
  5
5
330
0
100
AcDbSymbolTable
 70
     6
  0
LTYPE
  5
14
330
5
100
AcDbSymbolTableRecord
100
AcDbLinetypeTableRecord
  2
ByBlock
 70
     0
  3

 72
    65
 73
     0
 40
0.0
  0
LTYPE
  5
15
330
5
100
AcDbSymbolTableRecord
100
AcDbLinetypeTableRecord
  2
ByLayer
 70
     0
  3

 72
    65
 73
     0
 40
0.0
  0
LTYPE
  5
16
330
5
100
AcDbSymbolTableRecord
100
AcDbLinetypeTableRecord
  2
Continuous
 70
     0
  3
Solid line
 72
    65
 73
     0
 40
0.0
  0
LTYPE
  5
3F
330
5
100
AcDbSymbolTableRecord
100
AcDbLinetypeTableRecord
  2
HIDDEN
 70
     0
  3
Hidden __ __ __ __ __ __ __ __ __ __ __ __ __ __
 72
    65
 73
     2
 40
1.905
 49
1.27
 74
     0
 49
-0.635
 74
     0
  0
LTYPE
  5
40
330
5
100
AcDbSymbolTableRecord
100
AcDbLinetypeTableRecord
  2
PHANTOM
 70
     0
  3
Phantom ______  __  __  ______  __  __  ______
 72
    65
 73
     6
 40
12.7
 49
6.35
 74
     0
 49
-1.27
 74
     0
 49
1.27
 74
     0
 49
-1.27
 74
     0
 49
1.27
 74
     0
 49
-1.27
 74
     0
  0
LTYPE
  5
41
330
5
100
AcDbSymbolTableRecord
100
AcDbLinetypeTableRecord
  2
CENTER
 70
     0
  3
Center ____ _ ____ _ ____ _ ____ _ ____ _ ____
 72
    65
 73
     4
 40
10.16
 49
6.35
 74
     0
 49
-1.27
 74
     0
 49
1.27
 74
     0
 49
-1.27
 74
     0
  0
LTYPE
  5
42
330
5
100
AcDbSymbolTableRecord
100
AcDbLinetypeTableRecord
  2
CENTERX2
 70
     0
  3
Center (2x) ________  __  ________  __  _____
 72
    65
 73
     4
 40
20.32
 49
12.7
 74
     0
 49
-2.54
 74
     0
 49
2.54
 74
     0
 49
-2.54
 74
     0
  0
LTYPE
  5
43
330
5
100
AcDbSymbolTableRecord
100
AcDbLinetypeTableRecord
  2
DOT2
 70
     0
  3
Dot (.5x) ........................................
 72
    65
 73
     2
 40
0.635
 49
0.0
 74
     0
 49
-0.635
 74
     0
  0
ENDTAB
  0
TABLE
  2
LAYER
  5
2
330
0
100
AcDbSymbolTable
 70
     1
  0
LAYER
  5
10
330
2
100
AcDbSymbolTableRecord
100
AcDbLayerTableRecord
  2
0
 70
     0
 62
     7
  6
Continuous
370
    -3
390
F
  0
ENDTAB
  0
TABLE
  2
STYLE
  5
3
330
0
100
AcDbSymbolTable
 70
     1
  0
STYLE
  5
11
330
3
100
AcDbSymbolTableRecord
100
AcDbTextStyleTableRecord
  2
Standard
 70
     0
 40
0.0
 41
1.0
 50
0.0
 71
     0
 42
3.5
  3
txt
  4

  0
ENDTAB
  0
TABLE
  2
VIEW
  5
6
330
0
100
AcDbSymbolTable
 70
     0
  0
ENDTAB
  0
TABLE
  2
UCS
  5
7
330
0
100
AcDbSymbolTable
 70
     0
  0
ENDTAB
  0
TABLE
  2
APPID
  5
9
330
0
100
AcDbSymbolTable
 70
     1
  0
APPID
  5
12
330
9
100
AcDbSymbolTableRecord
100
AcDbRegAppTableRecord
  2
ACAD
 70
     0
  0
ENDTAB
  0
TABLE
  2
DIMSTYLE
  5
A
330
0
100
AcDbSymbolTable
 70
     1
100
AcDbDimStyleTable
  0
DIMSTYLE
105
27
330
A
100
AcDbSymbolTableRecord
100
AcDbDimStyleTableRecord
  2
ISO-25
 70
     0
 41
2.5
 42
0.625
 43
3.75
 44
1.25
 73
     0
 74
     0
 77
     1
 78
     8
140
2.5
141
2.5
143
0.0393700787
147
0.625
171
     3
172
     1
178
     0
271
     2
272
     2
274
     3
278
    44
283
     0
284
     8
340
11
  0
ENDTAB
  0
TABLE
  2
BLOCK_RECORD
  5
1
330
0
100
AcDbSymbolTable
 70
     1
  0
BLOCK_RECORD
  5
1F
330
1
100
AcDbSymbolTableRecord
100
AcDbBlockTableRecord
  2
*Model_Space
340
22
  0
BLOCK_RECORD
  5
1B
330
1
100
AcDbSymbolTableRecord
100
AcDbBlockTableRecord
  2
*Paper_Space
340
1E
  0
BLOCK_RECORD
  5
23
330
1
100
AcDbSymbolTableRecord
100
AcDbBlockTableRecord
  2
*Paper_Space0
340
26
  0
ENDTAB
  0
ENDSEC
  0
SECTION
  2
BLOCKS
  0
BLOCK
  5
20
330
1F
100
AcDbEntity
  8
0
100
AcDbBlockBegin
  2
*Model_Space
 70
     0
 10
0.0
 20
0.0
 30
0.0
  3
*Model_Space
  1

  0
ENDBLK
  5
21
330
1F
100
AcDbEntity
  8
0
100
AcDbBlockEnd
  0
BLOCK
  5
1C
330
1B
100
AcDbEntity
 67
     1
  8
0
100
AcDbBlockBegin
  2
*Paper_Space
 70
     0
 10
0.0
 20
0.0
 30
0.0
  3
*Paper_Space
  1

  0
ENDBLK
  5
1D
330
1B
100
AcDbEntity
 67
     1
  8
0
100
AcDbBlockEnd
  0
BLOCK
  5
24
330
23
100
AcDbEntity
  8
0
100
AcDbBlockBegin
  2
*Paper_Space0
 70
     0
 10
0.0
 20
0.0
 30
0.0
  3
*Paper_Space0
  1

  0
ENDBLK
  5
25
330
23
100
AcDbEntity
  8
0
100
AcDbBlockEnd
  0
ENDSEC
  0
SECTION
  2
ENTITIES
  0
LWPOLYLINE
  5
57
330
1F
100
AcDbEntity
  8
0
  6
Continuous
 62
     7
370
    15
100
AcDbPolyline
 90
       53
 70
   128
 43
0.0
 10
-13.4892232006
 20
0.6549138604
 10
-13.7168556664
 20
0.7042933006
 10
-13.9411687382
 20
0.7275934478
 10
-14.1588914263
 20
0.7244745335
 10
-14.3668488438
 20
0.6949820384
 10
-14.5620085032
 20
0.6395460295
 10
-14.7415245371
 20
0.5589748887
 10
-14.9027791976
 20
0.4544435246
 10
-15.0434210287
 20
0.3274762399
 10
-15.1613991556
 20
0.1799245035
 10
-15.2549931917
 20
0.013939952
 10
-15.3228383252
 20
-0.1680569861
 10
-15.3639452212
 20
-0.3634123856
 10
-15.3777144487
 20
-0.5692775249
 10
-15.3639452212
 20
-0.7826504267
 10
-15.3228383252
 20
-1.0004196335
 10
-15.2549931917
 20
-1.2194095801
 10
-15.1613991556
 20
-1.4364268998
 10
-15.0434210287
 20
-1.6483069915
 10
-14.9027791976
 20
-1.8519601663
 10
-14.7415245371
 20
-2.0444167023
 10
-14.5620085032
 20
-2.2228701498
 10
-14.3668488438
 20
-2.3847182558
 10
-14.1588914263
 20
-2.5276009104
 10
-13.9411687382
 20
-2.6494345628
 10
-13.7168556664
 20
-2.7484426039
 10
-13.4892232006
 20
-2.8231812737
 10
-13.2615907349
 20
-2.8725607139
 10
-13.0372776631
 20
-2.8958608611
 10
-12.8195549749
 20
-2.8927419468
 10
-12.6115975574
 20
-2.8632494517
 10
-12.4164378981
 20
-2.8078134428
 10
-12.2369218641
 20
-2.727242302
 10
-12.0756672036
 20
-2.6227109379
 10
-11.9350253726
 20
-2.4957436532
 10
-11.8170472456
 20
-2.3481919168
 10
-11.7234532095
 20
-2.1822073653
 10
-11.655608076
 20
-2.0002104272
 10
-11.61450118
 20
-1.8048550277
 10
-11.6007319525
 20
-1.5989898884
 10
-11.61450118
 20
-1.3856169866
 10
-11.655608076
 20
-1.1678477797
 10
-11.7234532095
 20
-0.9488578332
 10
-11.8170472456
 20
-0.7318405134
 10
-11.9350253726
 20
-0.5199604218
 10
-12.0756672036
 20
-0.316307247
 10
-12.2369218641
 20
-0.123850711
 10
-12.4164378981
 20
0.0546027365
 10
-12.6115975574
 20
0.2164508425
 10
-12.8195549749
 20
0.3593334972
 10
-13.0372776631
 20
0.4811671495
 10
-13.2615907349
 20
0.5801751907
 10
-13.4892232006
 20
0.6549138604
  0
LWPOLYLINE
  5
5C
330
1F
100
AcDbEntity
  8
0
  6
Continuous
 62
     7
370
    15
100
AcDbPolyline
 90
       46
 70
   128
 43
0.0
 10
-4.0638951959
 20
14.5408096799
 10
-4.2644841963
 20
14.5860932225
 10
-4.474363976
 20
14.6152873115
 10
-4.689449464
 20
14.627823717
 10
-4.9055542658
 20
14.6234584322
 10
-5.1184721472
 20
14.6022764225
 10
-5.324058904
 20
14.5646899715
 10
-5.5183130238
 20
14.5114306567
 10
-5.697453571
 20
14.4435351102
 10
-5.8579937786
 20
14.3623248415
 10
-5.9968089143
 20
14.2693805161
 10
-6.1111970991
 20
14.1665111896
 10
-6.1989318973
 20
14.0557190964
 10
-6.2583056508
 20
13.9391606786
 10
-6.288162717
 20
13.8191046133
 10
-6.2879219621
 20
13.697887655
 10
-6.257588072
 20
13.5778691542
 10
-6.1977514615
 20
13.4613851343
 10
-6.1095767822
 20
13.3507028243
 10
-5.9947802538
 20
13.2479765296
 10
-5.8555962602
 20
13.1552057004
 10
-5.6947338595
 20
13.0741960156
 10
-5.5153240554
 20
13.0065242365
 10
-5.3208588557
 20
12.9535075173
 10
-5.1151233042
 20
12.9161777681
 10
-4.9021218094
 20
12.8952615701
 10
-4.6860002031
 20
12.8911660332
 10
-4.4709650467
 20
12.9039708724
 10
-4.2612017547
 20
12.933426856
 10
-4.0607931311
 20
12.978960657
 10
-3.8736399018
 20
13.0396860115
 10
-3.7033847915
 20
13.1144209697
 10
-3.5533416222
 20
13.2017109007
 10
-3.4264308136
 20
13.2998568051
 10
-3.3251225402
 20
13.4069483847
 10
-3.2513886523
 20
13.5209012235
 10
-3.2066642962
 20
13.6394973593
 10
-3.1918199806
 20
13.7604284532
 10
-3.2071446331
 20
13.8813407189
 10
-3.252339977
 20
13.9998807368
 10
-3.3265263361
 20
14.1137412603
 10
-3.4282597575
 20
14.2207061237
 10
-3.5555601158
 20
14.3186933777
 10
-3.7059496543
 20
14.4057958118
 10
-3.8765012117
 20
14.4803180762
 10
-4.0638951959
 20
14.5408096799
  0
LWPOLYLINE
  5
5D
330
1F
100
AcDbEntity
  8
0
  6
Continuous
 62
     7
370
    15
100
AcDbPolyline
 90
       46
 70
   128
 43
0.0
 10
-0.7937041393
 20
7.4159095118
 10
-0.9942931396
 20
7.4611930544
 10
-1.2041729194
 20
7.4903871434
 10
-1.4192584073
 20
7.5029235489
 10
-1.6353632091
 20
7.4985582641
 10
-1.8482810906
 20
7.4773762544
 10
-2.0538678474
 20
7.4397898034
 10
-2.2481219671
 20
7.3865304886
 10
-2.4272625143
 20
7.3186349421
 10
-2.587802722
 20
7.2374246734
 10
-2.7266178576
 20
7.144480348
 10
-2.8410060425
 20
7.0416110215
 10
-2.9287408407
 20
6.9308189283
 10
-2.9881145941
 20
6.8142605105
 10
-3.0179716603
 20
6.6942044452
 10
-3.0177309054
 20
6.5729874869
 10
-2.9873970154
 20
6.4529689861
 10
-2.9275604049
 20
6.3364849662
 10
-2.8393857255
 20
6.2258026562
 10
-2.7245891971
 20
6.1230763614
 10
-2.5854052035
 20
6.0303055323
 10
-2.4245428029
 20
5.9492958475
 10
-2.2451329988
 20
5.8816240684
 10
-2.050667799
 20
5.8286073492
 10
-1.8449322475
 20
5.7912776
 10
-1.6319307527
 20
5.770361402
 10
-1.4158091465
 20
5.7662658651
 10
-1.20077399
 20
5.7790707043
 10
-0.991010698
 20
5.8085266879
 10
-0.7906020744
 20
5.8540604889
 10
-0.6034488451
 20
5.9147858434
 10
-0.4331937348
 20
5.9895208016
 10
-0.2831505655
 20
6.0768107326
 10
-0.1562397569
 20
6.174956637
 10
-0.0549314835
 20
6.2820482165
 10
0.0188024044
 20
6.3960010554
 10
0.0635267605
 20
6.5145971912
 10
0.0783710761
 20
6.6355282851
 10
0.0630464235
 20
6.7564405508
 10
0.0178510797
 20
6.8749805687
 10
-0.0563352795
 20
6.9888410922
 10
-0.1580687008
 20
7.0958059556
 10
-0.2853690591
 20
7.1937932096
 10
-0.4357585976
 20
7.2808956437
 10
-0.606310155
 20
7.3554179081
 10
-0.7937041393
 20
7.4159095118
  0
LWPOLYLINE
  5
5E
330
1F
100
AcDbEntity
  8
0
  6
Continuous
 62
     7
370
    15
100
AcDbPolyline
 90
       46
 70
   128
 43
0.0
 10
-16.0814904333
 20
11.583792888
 10
-16.2820794336
 20
11.6290764306
 10
-16.4919592134
 20
11.6582705195
 10
-16.7070447013
 20
11.6708069251
 10
-16.9231495031
 20
11.6664416403
 10
-17.1360673846
 20
11.6452596306
 10
-17.3416541414
 20
11.6076731796
 10
-17.5359082611
 20
11.5544138648
 10
-17.7150488083
 20
11.4865183183
 10
-17.875589016
 20
11.4053080496
 10
-18.0144041516
 20
11.3123637242
 10
-18.1287923365
 20
11.2094943977
 10
-18.2165271347
 20
11.0987023045
 10
-18.2759008882
 20
10.9821438867
 10
-18.3057579544
 20
10.8620878213
 10
-18.3055171994
 20
10.7408708631
 10
-18.2751833094
 20
10.6208523623
 10
-18.2153466989
 20
10.5043683424
 10
-18.1271720196
 20
10.3936860324
 10
-18.0123754912
 20
10.2909597376
 10
-17.8731914976
 20
10.1981889085
 10
-17.7123290969
 20
10.1171792237
 10
-17.5329192928
 20
10.0495074446
 10
-17.338454093
 20
9.9964907254
 10
-17.1327185415
 20
9.9591609762
 10
-16.9197170467
 20
9.9382447782
 10
-16.7035954405
 20
9.9341492412
 10
-16.488560284
 20
9.9469540804
 10
-16.2787969921
 20
9.9764100641
 10
-16.0783883685
 20
10.0219438651
 10
-15.8912351392
 20
10.0826692196
 10
-15.7209800288
 20
10.1574041778
 10
-15.5709368596
 20
10.2446941088
 10
-15.444026051
 20
10.3428400132
 10
-15.3427177776
 20
10.4499315927
 10
-15.2689838897
 20
10.5638844316
 10
-15.2242595336
 20
10.6824805674
 10
-15.2094152179
 20
10.8034116613
 10
-15.2247398705
 20
10.924323927
 10
-15.2699352143
 20
11.0428639449
 10
-15.3441215735
 20
11.1567244683
 10
-15.4458549949
 20
11.2636893318
 10
-15.5731553531
 20
11.3616765857
 10
-15.7235448916
 20
11.4487790198
 10
-15.894096449
 20
11.5233012843
 10
-16.0814904333
 20
11.583792888
  0
LWPOLYLINE
  5
69
330
1F
100
AcDbEntity
  8
0
  6
Continuous
 62
     8
370
    15
100
AcDbPolyline
 90
        7
 70
   128
 43
0.0
 10
-0.7249398764
 20
-8.9107604301
 10
-0.7430474889
 20
-8.9043740491
 10
-0.7969563559
 20
-8.8644361184
 10
-0.8406850496
 20
-8.7965911316
 10
-0.8729048957
 20
-8.7029005244
 10
-0.8926369105
 20
-8.5862110385
 10
-0.8992815467
 20
-8.4500682248
  0
LWPOLYLINE
  5
6B
330
1F
100
AcDbEntity
  8
0
  6
Continuous
 62
     8
370
    15
100
AcDbPolyline
 90
        7
 70
   128
 43
0.0
 10
-26.0791648545
 20
-1.5853191346
 10
-26.0725202183
 20
-1.7214619483
 10
-26.0527882035
 20
-1.8381514342
 10
-26.0205683574
 20
-1.9318420414
 10
-25.9768396637
 20
-1.9996870282
 10
-25.9229307967
 20
-2.0396249589
 10
-25.9048231842
 20
-2.0460113399
  0
LWPOLYLINE
  5
6C
330
1F
100
AcDbEntity
  8
0
  6
Continuous
 62
     8
370
    15
100
AcDbPolyline
 90
        8
 70
   128
 43
0.0
 10
-26.0791648545
 20
6.2818008115
 10
-26.2286788201
 20
6.3320324162
 10
-26.360360607
 20
6.3960544562
 10
-26.4702091307
 20
6.4719216544
 10
-26.5548866996
 20
6.5573288241
 10
-26.6118204284
 20
6.6496809119
 10
-26.6392804146
 20
6.7461718463
 10
-26.6417946455
 20
6.7858966595
  0
LWPOLYLINE
  5
6E
330
1F
100
AcDbEntity
  8
0
  6
Continuous
 62
     8
370
    15
100
AcDbPolyline
 90
        8
 70
   128
 43
0.0
 10
-26.0791648545
 20
-1.5853191346
 10
-26.2286788201
 20
-1.5350875299
 10
-26.360360607
 20
-1.4710654898
 10
-26.4702091307
 20
-1.3951982917
 10
-26.5548866996
 20
-1.3097911219
 10
-26.6118204284
 20
-1.2174390341
 10
-26.6392804146
 20
-1.1209480998
 10
-26.6417946455
 20
-1.0812232866
  0
LINE
  5
6F
330
1F
100
AcDbEntity
  8
0
  6
Continuous
 62
     7
370
    15
100
AcDbLine
 10
-25.9048231842
 20
-2.0460113399
 30
0.0
 11
-0.7249398764
 21
-8.9107604301
 31
0.0
  0
LINE
  5
70
330
1F
100
AcDbEntity
  8
0
  6
Continuous
 62
     7
370
    15
100
AcDbLine
 10
0.2934163741
 20
-8.6013196495
 30
0.0
 11
0.7307865831
 21
-8.0972238015
 31
0.0
  0
LINE
  5
71
330
1F
100
AcDbEntity
  8
0
  6
Continuous
 62
     7
370
    15
100
AcDbLine
 10
-26.6417946455
 20
6.7858966595
 30
0.0
 11
-26.6417946455
 21
-1.0812232866
 31
0.0
  0
LINE
  5
72
330
1F
100
AcDbEntity
  8
0
  6
Continuous
 62
     7
370
    15
100
AcDbLine
 10
-16.3236050117
 20
19.0515872152
 30
0.0
 11
-26.3971223572
 21
7.4412439322
 31
0.0
  0
LINE
  5
73
330
1F
100
AcDbEntity
  8
0
  6
Continuous
 62
     7
370
    15
100
AcDbLine
 10
-0.8992815467
 20
-0.5829482787
 30
0.0
 11
-26.0791648545
 21
6.2818008115
 31
0.0
  0
LINE
  5
74
330
1F
100
AcDbEntity
  8
0
  6
Continuous
 62
     7
370
    15
100
AcDbLine
 10
-25.6417946455
 20
7.6140145486
 30
0.0
 11
-0.4619113377
 21
0.7492654584
 31
0.0
  0
LINE
  5
75
330
1F
100
AcDbEntity
  8
0
  6
Continuous
 62
     7
370
    15
100
AcDbLine
 10
0.437370209
 20
-0.3240220411
 30
0.0
 11
0.437370209
 21
-8.1911419871
 31
0.0
  0
LINE
  5
76
330
1F
100
AcDbEntity
  8
0
  6
Continuous
 62
     7
370
    15
100
AcDbLine
 10
-0.8992815467
 20
-8.4500682248
 30
0.0
 11
-0.8992815467
 21
-0.5829482787
 31
0.0
  0
LINE
  5
77
330
1F
100
AcDbEntity
  8
0
  6
Continuous
 62
     7
370
    15
100
AcDbLine
 10
13.121106271
 20
14.294757551
 30
0.0
 11
0.437370209
 21
-0.3240220411
 31
0.0
  0
LINE
  5
78
330
1F
100
AcDbEntity
  8
0
  6
Continuous
 62
     7
370
    15
100
AcDbLine
 10
-0.4619113377
 20
0.7492654584
 30
0.0
 11
12.1343506825
 21
15.2672258808
 31
0.0
  0
LINE
  5
79
330
1F
100
AcDbEntity
  8
0
  6
Continuous
 62
     7
370
    15
100
AcDbLine
 10
-26.0791648545
 20
-1.5853191346
 30
0.0
 11
-0.8992815467
 21
-8.4500682248
 31
0.0
  0
LINE
  5
7A
330
1F
100
AcDbEntity
  8
0
  6
Continuous
 62
     7
370
    15
100
AcDbLine
 10
-26.0791648545
 20
6.2818008115
 30
0.0
 11
-26.0791648545
 21
-1.5853191346
 31
0.0
  0
LINE
  5
7B
330
1F
100
AcDbEntity
  8
0
  6
Continuous
 62
     7
370
    15
100
AcDbLine
 10
-15.4948057959
 20
19.3090382222
 30
0.0
 11
-25.6417946455
 21
7.6140145486
 31
0.0
  0
LINE
  5
7C
330
1F
100
AcDbEntity
  8
0
  6
Continuous
 62
     7
370
    15
100
AcDbLine
 10
-15.4948057959
 20
19.3090382222
 30
0.0
 11
12.1343506825
 21
15.2672258808
 31
0.0
  0
LINE
  5
7D
330
1F
100
AcDbEntity
  8
0
  6
Continuous
 62
     7
370
    15
100
AcDbLine
 10
13.121106271
 20
13.4666396619
 30
0.0
 11
0.8747404181
 21
-0.6480440821
 31
0.0
  0
LINE
  5
7E
330
1F
100
AcDbEntity
  8
0
  6
Continuous
 62
     7
370
    15
100
AcDbLine
 10
0.8747404181
 20
-0.6480440821
 30
0.0
 11
0.8747404181
 21
-7.6870461391
 31
0.0
  0
LINE
  5
7F
330
1F
100
AcDbEntity
  8
0
  6
Continuous
 62
     7
370
    15
100
AcDbLine
 10
0.437370209
 20
-8.1911419871
 30
0.0
 11
0.8747404181
 21
-7.6870461391
 31
0.0
  0
LINE
  5
80
330
1F
100
AcDbEntity
  8
0
  6
Continuous
 62
     7
370
    15
100
AcDbLine
 10
13.121106271
 20
14.294757551
 30
0.0
 11
13.121106271
 21
13.4666396619
 31
0.0
  0
ARC
  5
81
330
1F
100
AcDbEntity
  8
0
  6
Continuous
 62
     7
370
    15
100
AcDbCircle
 10
-0.4619113377
 20
-7.9459723768
 30
0.0
 40
1.000000000000004
100
AcDbArc
 50
254.7501589047
 51
319.0540127419
  0
ARC
  5
82
330
1F
100
AcDbEntity
  8
0
  6
Continuous
 62
     7
370
    15
100
AcDbCircle
 10
-25.6417946455
 20
6.7858966595
 30
0.0
 40
0.9999999999999858
100
AcDbArc
 50
139.0540127419
 51
180.0
  0
ARC
  5
83
330
1F
100
AcDbEntity
  8
0
  6
Continuous
 62
     7
370
    15
100
AcDbCircle
 10
-25.6417946455
 20
-1.0812232866
 30
0.0
 40
1.000000000000014
100
AcDbArc
 50
180.0
 51
254.7501589047
  0
ARC
  5
84
330
1F
100
AcDbEntity
  8
0
  6
Continuous
 62
     7
370
    15
100
AcDbCircle
 10
-0.4672127078
 20
0.766141668
 30
0.0
 40
1.416589978075159
100
AcDbArc
 50
252.2414582964
 51
309.6848003114
  0
ARC
  5
85
330
1F
100
AcDbEntity
  8
0
  6
Continuous
 62
     7
370
    15
100
AcDbCircle
 10
1.3851978078
 20
-0.595048546
 30
0.0
 40
2.284511400184048
100
AcDbArc
 50
143.9531162489
 51
179.6965226397
  0
ARC
  5
86
330
1F
100
AcDbEntity
  8
0
  6
Continuous
 62
     7
370
    15
100
AcDbCircle
 10
-0.7688251103
 20
-0.4212769836
 30
0.0
 40
1.210109776940579
100
AcDbArc
 50
4.6097585935
 51
75.3078904268
  0
ARC
  5
87
330
1F
100
AcDbEntity
  8
0
  6
Continuous
 62
     7
370
    15
100
AcDbCircle
 10
-23.8128481676
 20
6.2756634085
 30
0.0
 40
2.266324997225019
100
AcDbArc
 50
143.8048009771
 51
179.8448379115
  0
ARC
  5
88
330
1F
100
AcDbEntity
  8
0
  6
Continuous
 62
     7
370
    15
100
AcDbCircle
 10
-0.4672127078
 20
-7.100978278
 30
0.0
 40
1.41658997807515
100
AcDbArc
 50
252.2414582964
 51
309.6848003114
  0
ARC
  5
89
330
1F
100
AcDbEntity
  8
0
  6
Continuous
 62
     7
370
    15
100
AcDbCircle
 10
12.0373991079
 20
14.1819893772
 30
0.0
 40
1.089558569575272
100
AcDbArc
 50
5.9406918438
 51
84.8949299615
  0
ARC
  5
8A
330
1F
100
AcDbEntity
  8
0
  6
Continuous
 62
     7
370
    15
100
AcDbCircle
 10
0.2641634547
 20
-7.7031106786
 30
0.0
 40
0.6107882592502195
100
AcDbArc
 50
319.8153323931
 51
1.5071286129
  0
ARC
  5
8B
330
1F
100
AcDbEntity
  8
0
  6
Continuous
 62
     7
370
    15
100
AcDbCircle
 10
-12.0760340266
 20
0.544653029
 30
0.0
 40
2.413303462553456
100
AcDbArc
 50
177.151468811
 51
280.9565566729
  0
ARC
  5
8C
330
1F
100
AcDbEntity
  8
0
  6
Continuous
 62
     7
370
    15
100
AcDbCircle
 10
-1.4716279633
 20
3.1425019289
 30
0.0
 40
2.704922632233027
100
AcDbArc
 50
80.0137140244
 51
99.9862859756
  0
ARC
  5
8D
330
1F
100
AcDbEntity
  8
0
  6
Continuous
 62
     7
370
    15
100
AcDbCircle
 10
-15.6729119452
 20
18.4196249456
 30
0.0
 40
0.9070709878217507
100
AcDbArc
 50
78.6762245132
 51
135.8366388875
  0
ARC
  5
8E
330
1F
100
AcDbEntity
  8
0
  6
Continuous
 62
     7
370
    15
100
AcDbCircle
 10
-16.7594142573
 20
7.3103853051
 30
0.0
 40
2.704922632232684
100
AcDbArc
 50
80.0137140244
 51
99.9862859756
  0
ARC
  5
8F
330
1F
100
AcDbEntity
  8
0
  6
Continuous
 62
     7
370
    15
100
AcDbCircle
 10
-4.7418190199
 20
10.267402097
 30
0.0
 40
2.704922632233289
100
AcDbArc
 50
80.0137140244
 51
99.9862859756
  0
ARC
  5
90
330
1F
100
AcDbEntity
  8
0
  6
Continuous
 62
     8
370
    15
100
AcDbCircle
 10
-0.1732067543
 20
-8.2072065266
 30
0.0
 40
0.6107882592501902
100
AcDbArc
 50
319.8153323931
 51
1.5071286129
  0
ARC
  5
91
330
1F
100
AcDbEntity
  8
0
  6
Continuous
 62
     8
370
    15
100
AcDbCircle
 10
-25.883071999
 20
6.9313675209
 30
0.0
 40
0.7240315778452984
100
AcDbArc
 50
70.5343614136
 51
135.2335598849
  0
ENDSEC
  0
SECTION
  2
OBJECTS
  0
DICTIONARY
  5
C
330
0
100
AcDbDictionary
281
     1
  3
ACAD_GROUP
350
D
  3
ACAD_LAYOUT
350
1A
  3
ACAD_MLINESTYLE
350
17
  3
ACAD_PLOTSETTINGS
350
19
  3
ACAD_PLOTSTYLENAME
350
E
  0
DICTIONARY
  5
D
102
{ACAD_REACTORS
330
C
102
}
330
C
100
AcDbDictionary
281
     1
  0
DICTIONARY
  5
1A
102
{ACAD_REACTORS
330
C
102
}
330
C
100
AcDbDictionary
281
     1
  3
Layout1
350
1E
  3
Layout2
350
26
  3
Model
350
22
  0
DICTIONARY
  5
17
102
{ACAD_REACTORS
330
C
102
}
330
C
100
AcDbDictionary
281
     1
  3
Standard
350
18
  0
DICTIONARY
  5
19
102
{ACAD_REACTORS
330
C
102
}
330
C
100
AcDbDictionary
281
     1
  0
ACDBDICTIONARYWDFLT
  5
E
102
{ACAD_REACTORS
330
C
102
}
330
C
100
AcDbDictionary
281
     1
  3
Normal
350
F
100
AcDbDictionaryWithDefault
340
F
  0
LAYOUT
  5
1E
102
{ACAD_REACTORS
330
1A
102
}
330
1A
100
AcDbPlotSettings
  1

  2
none_device
  4

  6

 40
0.0
 41
0.0
 42
0.0
 43
0.0
 44
0.0
 45
0.0
 46
0.0
 47
0.0
 48
0.0
 49
0.0
140
0.0
141
0.0
142
1.0
143
1.0
 70
   688
 72
     0
 73
     0
 74
     5
  7

 75
    16
147
1.0
148
0.0
149
0.0
100
AcDbLayout
  1
Layout1
 70
     1
 71
     1
 10
0.0
 20
0.0
 11
420.0
 21
297.0
 12
0.0
 22
0.0
 32
0.0
 14
1.0000000000E+20
 24
1.0000000000E+20
 34
1.0000000000E+20
 15
-1.0000000000E+20
 25
-1.0000000000E+20
 35
-1.0000000000E+20
146
0.0
 13
0.0
 23
0.0
 33
0.0
 16
1.0
 26
0.0
 36
0.0
 17
0.0
 27
1.0
 37
0.0
 76
     0
330
1B
  0
LAYOUT
  5
26
102
{ACAD_REACTORS
330
1A
102
}
330
1A
100
AcDbPlotSettings
  1

  2
none_device
  4

  6

 40
0.0
 41
0.0
 42
0.0
 43
0.0
 44
0.0
 45
0.0
 46
0.0
 47
0.0
 48
0.0
 49
0.0
140
0.0
141
0.0
142
1.0
143
1.0
 70
   688
 72
     0
 73
     0
 74
     5
  7

 75
    16
147
1.0
148
0.0
149
0.0
100
AcDbLayout
  1
Layout2
 70
     1
 71
     2
 10
0.0
 20
0.0
 11
0.0
 21
0.0
 12
0.0
 22
0.0
 32
0.0
 14
0.0
 24
0.0
 34
0.0
 15
0.0
 25
0.0
 35
0.0
146
0.0
 13
0.0
 23
0.0
 33
0.0
 16
1.0
 26
0.0
 36
0.0
 17
0.0
 27
1.0
 37
0.0
 76
     0
330
23
  0
LAYOUT
  5
22
102
{ACAD_REACTORS
330
1A
102
}
330
1A
100
AcDbPlotSettings
  1

  2
none_device
  4
ANSI_A_(11.00_x_8.50_Inches)
  6

 40
6.35
 41
19.05
 42
6.35000508
 43
19.05000254
 44
279.4
 45
215.9
 46
180.3775462844
 47
52.7938501099
 48
0.0
 49
0.0
140
0.0
141
0.0
142
0.2738733782
143
1.0
 70
  1696
 72
     0
 73
     0
 74
     0
  7

 75
     0
147
0.0179189148
148
0.0
149
0.0
100
AcDbLayout
  1
Model
 70
     1
 71
     0
 10
0.0
 20
0.0
 11
420.0
 21
297.0
 12
0.0
 22
0.0
 32
0.0
 14
-26.6417946455
 24
-8.9459723768
 34
0.0
 15
13.121106271
 25
19.3266959334
 35
0.0
146
0.0
 13
0.0
 23
0.0
 33
0.0
 16
1.0
 26
0.0
 36
0.0
 17
0.0
 27
1.0
 37
0.0
 76
     0
330
1F
331
29
  0
MLINESTYLE
  5
18
102
{ACAD_REACTORS
330
17
102
}
330
17
100
AcDbMlineStyle
  2
Standard
 70
     0
  3

 62
   256
 51
90.0
 52
90.0
 71
     2
 49
0.5
 62
   256
  6
BYLAYER
 49
-0.5
 62
   256
  6
BYLAYER
  0
ACDBPLACEHOLDER
  5
F
102
{ACAD_REACTORS
330
E
102
}
330
E
  0
ENDSEC
  0
EOF
