ISO-10303-21;
HEADER;
FILE_DESCRIPTION(('CATIA V5 STEP Exchange'),'2;1');

FILE_NAME('O:\\Benji\\autre format\\Spacer de Moyeux.stp','2019-01-15T18:24:38+00:00',('none'),('none'),'CATIA Version 5 Release 21 GA (IN-10)','CATIA V5 STEP AP203','none');

FILE_SCHEMA(('CONFIG_CONTROL_DESIGN'));

ENDSEC;
/* file written by CATIA V5R21 */
DATA;
#5=PRODUCT('Spacer de Moyeux','','',(#2)) ;
#1=APPLICATION_CONTEXT('configuration controlled 3D design of mechanical parts and assemblies') ;
#14=PRODUCT_DEFINITION('',' ',#6,#3) ;
#16=SECURITY_CLASSIFICATION(' ',' ',#15) ;
#15=SECURITY_CLASSIFICATION_LEVEL('unclassified') ;
#47=CARTESIAN_POINT(' ',(0.,0.,0.)) ;
#52=CARTESIAN_POINT('Axis2P3D Location',(11.9,0.,0.)) ;
#57=CARTESIAN_POINT('Line Origine',(6.00000000006,-4.38791280945,2.39712769302)) ;
#61=CARTESIAN_POINT('Vertex',(0.,-4.38791280945,2.39712769302)) ;
#63=CARTESIAN_POINT('Vertex',(12.,-4.38791280945,2.39712769302)) ;
#66=CARTESIAN_POINT('Axis2P3D Location',(0.,0.,0.)) ;
#70=CARTESIAN_POINT('Vertex',(0.,4.38791280945,-2.39712769302)) ;
#73=CARTESIAN_POINT('Line Origine',(6.00000000006,4.38791280945,-2.39712769302)) ;
#77=CARTESIAN_POINT('Vertex',(12.,4.38791280945,-2.39712769302)) ;
#80=CARTESIAN_POINT('Axis2P3D Location',(12.,0.,0.)) ;
#92=CARTESIAN_POINT('Axis2P3D Location',(12.,9.5,0.)) ;
#97=CARTESIAN_POINT('Axis2P3D Location',(12.,0.,0.)) ;
#101=CARTESIAN_POINT('Vertex',(12.,8.33703433796,4.55454261674)) ;
#103=CARTESIAN_POINT('Vertex',(12.,-8.33703433796,-4.55454261674)) ;
#106=CARTESIAN_POINT('Axis2P3D Location',(12.,0.,0.)) ;
#115=CARTESIAN_POINT('Axis2P3D Location',(12.,0.,4.4408920985E-016)) ;
#125=CARTESIAN_POINT('Axis2P3D Location',(0.,0.,0.)) ;
#137=CARTESIAN_POINT('Axis2P3D Location',(6.,0.,0.)) ;
#142=CARTESIAN_POINT('Line Origine',(9.5,8.33703433796,4.55454261674)) ;
#146=CARTESIAN_POINT('Vertex',(7.,8.33703433796,4.55454261674)) ;
#149=CARTESIAN_POINT('Axis2P3D Location',(7.,0.,0.)) ;
#153=CARTESIAN_POINT('Vertex',(7.,-8.33703433796,-4.55454261674)) ;
#156=CARTESIAN_POINT('Line Origine',(9.5,-8.33703433796,-4.55454261674)) ;
#168=CARTESIAN_POINT('Axis2P3D Location',(7.,0.,0.)) ;
#180=CARTESIAN_POINT('Axis2P3D Location',(7.,0.,0.)) ;
#185=CARTESIAN_POINT('Line Origine',(4.5,9.76310600103,5.33360911697)) ;
#189=CARTESIAN_POINT('Vertex',(2.,11.1891776641,6.1126756172)) ;
#192=CARTESIAN_POINT('Axis2P3D Location',(2.,0.,0.)) ;
#196=CARTESIAN_POINT('Vertex',(2.,-11.1891776641,-6.1126756172)) ;
#199=CARTESIAN_POINT('Line Origine',(4.5,-9.76310600103,-5.33360911697)) ;
#211=CARTESIAN_POINT('Axis2P3D Location',(2.,0.,0.)) ;
#223=CARTESIAN_POINT('Axis2P3D Location',(6.,0.,0.)) ;
#228=CARTESIAN_POINT('Line Origine',(1.5,11.1891776641,6.1126756172)) ;
#232=CARTESIAN_POINT('Vertex',(1.,11.1891776641,6.1126756172)) ;
#235=CARTESIAN_POINT('Axis2P3D Location',(1.,0.,0.)) ;
#239=CARTESIAN_POINT('Vertex',(1.,-11.1891776641,-6.1126756172)) ;
#242=CARTESIAN_POINT('Line Origine',(1.5,-11.1891776641,-6.1126756172)) ;
#254=CARTESIAN_POINT('Axis2P3D Location',(1.,0.,0.)) ;
#266=CARTESIAN_POINT('Axis2P3D Location',(1.,8.,0.)) ;
#275=CARTESIAN_POINT('Axis2P3D Location',(1.,0.,0.)) ;
#279=CARTESIAN_POINT('Vertex',(1.,-7.02066049512,-3.83540430883)) ;
#281=CARTESIAN_POINT('Vertex',(1.,7.02066049512,3.83540430883)) ;
#284=CARTESIAN_POINT('Axis2P3D Location',(1.,0.,0.)) ;
#294=CARTESIAN_POINT('Axis2P3D Location',(6.,0.,0.)) ;
#299=CARTESIAN_POINT('Line Origine',(0.5,7.02066049512,3.83540430883)) ;
#303=CARTESIAN_POINT('Vertex',(1.7763568394E-015,7.02066049512,3.83540430883)) ;
#306=CARTESIAN_POINT('Axis2P3D Location',(2.6645352591E-015,0.,0.)) ;
#310=CARTESIAN_POINT('Vertex',(1.7763568394E-015,-7.02066049512,-3.83540430883)) ;
#313=CARTESIAN_POINT('Line Origine',(0.5,-7.02066049512,-3.83540430883)) ;
#325=CARTESIAN_POINT('Axis2P3D Location',(2.6645352591E-015,0.,0.)) ;
#337=CARTESIAN_POINT('Axis2P3D Location',(0.,0.,0.)) ;
#53=DIRECTION('Axis2P3D Direction',(-1.,0.,-0.)) ;
#54=DIRECTION('Axis2P3D XDirection',(0.,0.87758256189,-0.479425538604)) ;
#58=DIRECTION('Vector Direction',(-1.,0.,0.)) ;
#67=DIRECTION('Axis2P3D Direction',(-1.,0.,-0.)) ;
#74=DIRECTION('Vector Direction',(-1.,0.,0.)) ;
#81=DIRECTION('Axis2P3D Direction',(-1.,0.,-0.)) ;
#93=DIRECTION('Axis2P3D Direction',(1.,0.,0.)) ;
#94=DIRECTION('Axis2P3D XDirection',(0.,1.,0.)) ;
#98=DIRECTION('Axis2P3D Direction',(1.,0.,0.)) ;
#107=DIRECTION('Axis2P3D Direction',(1.,0.,0.)) ;
#116=DIRECTION('Axis2P3D Direction',(1.,0.,0.)) ;
#126=DIRECTION('Axis2P3D Direction',(-1.,0.,-0.)) ;
#138=DIRECTION('Axis2P3D Direction',(1.,0.,0.)) ;
#139=DIRECTION('Axis2P3D XDirection',(0.,0.87758256189,0.479425538604)) ;
#143=DIRECTION('Vector Direction',(1.,0.,0.)) ;
#150=DIRECTION('Axis2P3D Direction',(1.,0.,0.)) ;
#157=DIRECTION('Vector Direction',(1.,0.,0.)) ;
#169=DIRECTION('Axis2P3D Direction',(1.,0.,0.)) ;
#181=DIRECTION('Axis2P3D Direction',(-1.,-0.,-0.)) ;
#182=DIRECTION('Axis2P3D XDirection',(0.,0.87758256189,0.479425538604)) ;
#186=DIRECTION('Vector Direction',(-0.838443616301,0.478272272916,0.261281333517)) ;
#193=DIRECTION('Axis2P3D Direction',(-1.,0.,0.)) ;
#200=DIRECTION('Vector Direction',(-0.838443616301,-0.478272272916,-0.261281333517)) ;
#212=DIRECTION('Axis2P3D Direction',(-1.,0.,0.)) ;
#224=DIRECTION('Axis2P3D Direction',(1.,0.,0.)) ;
#225=DIRECTION('Axis2P3D XDirection',(0.,0.87758256189,0.479425538604)) ;
#229=DIRECTION('Vector Direction',(1.,0.,0.)) ;
#236=DIRECTION('Axis2P3D Direction',(1.,0.,0.)) ;
#243=DIRECTION('Vector Direction',(1.,0.,0.)) ;
#255=DIRECTION('Axis2P3D Direction',(1.,0.,0.)) ;
#267=DIRECTION('Axis2P3D Direction',(1.,0.,0.)) ;
#268=DIRECTION('Axis2P3D XDirection',(0.,1.,0.)) ;
#276=DIRECTION('Axis2P3D Direction',(1.,0.,0.)) ;
#285=DIRECTION('Axis2P3D Direction',(1.,0.,0.)) ;
#295=DIRECTION('Axis2P3D Direction',(1.,0.,0.)) ;
#296=DIRECTION('Axis2P3D XDirection',(0.,0.87758256189,0.479425538604)) ;
#300=DIRECTION('Vector Direction',(1.,0.,0.)) ;
#307=DIRECTION('Axis2P3D Direction',(1.,0.,0.)) ;
#314=DIRECTION('Vector Direction',(1.,0.,0.)) ;
#326=DIRECTION('Axis2P3D Direction',(1.,0.,0.)) ;
#338=DIRECTION('Axis2P3D Direction',(1.,0.,0.)) ;
#339=DIRECTION('Axis2P3D XDirection',(0.,1.,0.)) ;
#48=AXIS2_PLACEMENT_3D(' ',#47,$,$) ;
#55=AXIS2_PLACEMENT_3D('Cylinder Axis2P3D',#52,#53,#54) ;
#68=AXIS2_PLACEMENT_3D('Circle Axis2P3D',#66,#67,$) ;
#82=AXIS2_PLACEMENT_3D('Circle Axis2P3D',#80,#81,$) ;
#95=AXIS2_PLACEMENT_3D('Plane Axis2P3D',#92,#93,#94) ;
#99=AXIS2_PLACEMENT_3D('Circle Axis2P3D',#97,#98,$) ;
#108=AXIS2_PLACEMENT_3D('Circle Axis2P3D',#106,#107,$) ;
#117=AXIS2_PLACEMENT_3D('Circle Axis2P3D',#115,#116,$) ;
#127=AXIS2_PLACEMENT_3D('Circle Axis2P3D',#125,#126,$) ;
#140=AXIS2_PLACEMENT_3D('Cylinder Axis2P3D',#137,#138,#139) ;
#151=AXIS2_PLACEMENT_3D('Circle Axis2P3D',#149,#150,$) ;
#170=AXIS2_PLACEMENT_3D('Circle Axis2P3D',#168,#169,$) ;
#183=AXIS2_PLACEMENT_3D('Cone Axis2P3D',#180,#181,#182) ;
#194=AXIS2_PLACEMENT_3D('Circle Axis2P3D',#192,#193,$) ;
#213=AXIS2_PLACEMENT_3D('Circle Axis2P3D',#211,#212,$) ;
#226=AXIS2_PLACEMENT_3D('Cylinder Axis2P3D',#223,#224,#225) ;
#237=AXIS2_PLACEMENT_3D('Circle Axis2P3D',#235,#236,$) ;
#256=AXIS2_PLACEMENT_3D('Circle Axis2P3D',#254,#255,$) ;
#269=AXIS2_PLACEMENT_3D('Plane Axis2P3D',#266,#267,#268) ;
#277=AXIS2_PLACEMENT_3D('Circle Axis2P3D',#275,#276,$) ;
#286=AXIS2_PLACEMENT_3D('Circle Axis2P3D',#284,#285,$) ;
#297=AXIS2_PLACEMENT_3D('Cylinder Axis2P3D',#294,#295,#296) ;
#308=AXIS2_PLACEMENT_3D('Circle Axis2P3D',#306,#307,$) ;
#327=AXIS2_PLACEMENT_3D('Circle Axis2P3D',#325,#326,$) ;
#340=AXIS2_PLACEMENT_3D('Plane Axis2P3D',#337,#338,#339) ;
#40=PRODUCT_DEFINITION_SHAPE(' ',' ',#14) ;
#31=APPROVAL_PERSON_ORGANIZATION(#25,#21,#19) ;
#25=PERSON_AND_ORGANIZATION(#22,#23) ;
#22=PERSON(' ',' ',' ',$,$,$) ;
#23=ORGANIZATION(' ',' ',' ') ;
#21=APPROVAL(#20,' ') ;
#20=APPROVAL_STATUS('not_yet_approved') ;
#19=APPROVAL_ROLE('APPROVER') ;
#13=DATE_AND_TIME(#11,#12) ;
#12=LOCAL_TIME(19,24,38.,#10) ;
#10=COORDINATED_UNIVERSAL_TIME_OFFSET(0,0,.AHEAD.) ;
#86=ORIENTED_EDGE('',*,*,#65,.F.) ;
#87=ORIENTED_EDGE('',*,*,#72,.F.) ;
#88=ORIENTED_EDGE('',*,*,#79,.T.) ;
#89=ORIENTED_EDGE('',*,*,#84,.T.) ;
#112=ORIENTED_EDGE('',*,*,#105,.T.) ;
#113=ORIENTED_EDGE('',*,*,#110,.T.) ;
#121=ORIENTED_EDGE('',*,*,#119,.F.) ;
#122=ORIENTED_EDGE('',*,*,#84,.F.) ;
#131=ORIENTED_EDGE('',*,*,#79,.F.) ;
#132=ORIENTED_EDGE('',*,*,#129,.F.) ;
#133=ORIENTED_EDGE('',*,*,#65,.T.) ;
#134=ORIENTED_EDGE('',*,*,#119,.T.) ;
#162=ORIENTED_EDGE('',*,*,#105,.F.) ;
#163=ORIENTED_EDGE('',*,*,#148,.T.) ;
#164=ORIENTED_EDGE('',*,*,#155,.T.) ;
#165=ORIENTED_EDGE('',*,*,#160,.F.) ;
#174=ORIENTED_EDGE('',*,*,#110,.F.) ;
#175=ORIENTED_EDGE('',*,*,#160,.T.) ;
#176=ORIENTED_EDGE('',*,*,#172,.T.) ;
#177=ORIENTED_EDGE('',*,*,#148,.F.) ;
#205=ORIENTED_EDGE('',*,*,#155,.F.) ;
#206=ORIENTED_EDGE('',*,*,#191,.T.) ;
#207=ORIENTED_EDGE('',*,*,#198,.T.) ;
#208=ORIENTED_EDGE('',*,*,#203,.F.) ;
#217=ORIENTED_EDGE('',*,*,#172,.F.) ;
#218=ORIENTED_EDGE('',*,*,#203,.T.) ;
#219=ORIENTED_EDGE('',*,*,#215,.T.) ;
#220=ORIENTED_EDGE('',*,*,#191,.F.) ;
#248=ORIENTED_EDGE('',*,*,#198,.F.) ;
#249=ORIENTED_EDGE('',*,*,#234,.T.) ;
#250=ORIENTED_EDGE('',*,*,#241,.T.) ;
#251=ORIENTED_EDGE('',*,*,#246,.F.) ;
#260=ORIENTED_EDGE('',*,*,#215,.F.) ;
#261=ORIENTED_EDGE('',*,*,#246,.T.) ;
#262=ORIENTED_EDGE('',*,*,#258,.T.) ;
#263=ORIENTED_EDGE('',*,*,#234,.F.) ;
#272=ORIENTED_EDGE('',*,*,#241,.F.) ;
#273=ORIENTED_EDGE('',*,*,#258,.F.) ;
#290=ORIENTED_EDGE('',*,*,#283,.T.) ;
#291=ORIENTED_EDGE('',*,*,#288,.T.) ;
#319=ORIENTED_EDGE('',*,*,#288,.F.) ;
#320=ORIENTED_EDGE('',*,*,#305,.T.) ;
#321=ORIENTED_EDGE('',*,*,#312,.T.) ;
#322=ORIENTED_EDGE('',*,*,#317,.F.) ;
#331=ORIENTED_EDGE('',*,*,#283,.F.) ;
#332=ORIENTED_EDGE('',*,*,#317,.T.) ;
#333=ORIENTED_EDGE('',*,*,#329,.T.) ;
#334=ORIENTED_EDGE('',*,*,#305,.F.) ;
#343=ORIENTED_EDGE('',*,*,#312,.F.) ;
#344=ORIENTED_EDGE('',*,*,#329,.F.) ;
#347=ORIENTED_EDGE('',*,*,#72,.T.) ;
#348=ORIENTED_EDGE('',*,*,#129,.T.) ;
#123=FACE_BOUND('',#120,.T.) ;
#292=FACE_BOUND('',#289,.T.) ;
#349=FACE_BOUND('',#346,.T.) ;
#51=CLOSED_SHELL('Closed Shell',(#91,#124,#136,#167,#179,#210,#222,#253,#265,#293,#324,#336,#350)) ;
#59=VECTOR('Line Direction',#58,1.) ;
#75=VECTOR('Line Direction',#74,1.) ;
#144=VECTOR('Line Direction',#143,1.) ;
#158=VECTOR('Line Direction',#157,1.) ;
#187=VECTOR('Line Direction',#186,1.) ;
#201=VECTOR('Line Direction',#200,1.) ;
#230=VECTOR('Line Direction',#229,1.) ;
#244=VECTOR('Line Direction',#243,1.) ;
#301=VECTOR('Line Direction',#300,1.) ;
#315=VECTOR('Line Direction',#314,1.) ;
#352=ADVANCED_BREP_SHAPE_REPRESENTATION('NONE',(#351),#46) ;
#49=SHAPE_REPRESENTATION(' ',(#48),#46) ;
#91=ADVANCED_FACE('PartBody',(#90),#56,.F.) ;
#124=ADVANCED_FACE('PartBody',(#114,#123),#96,.T.) ;
#136=ADVANCED_FACE('PartBody',(#135),#56,.F.) ;
#167=ADVANCED_FACE('PartBody',(#166),#141,.T.) ;
#179=ADVANCED_FACE('PartBody',(#178),#141,.T.) ;
#210=ADVANCED_FACE('PartBody',(#209),#184,.T.) ;
#222=ADVANCED_FACE('PartBody',(#221),#184,.T.) ;
#253=ADVANCED_FACE('PartBody',(#252),#227,.T.) ;
#265=ADVANCED_FACE('PartBody',(#264),#227,.T.) ;
#293=ADVANCED_FACE('PartBody',(#274,#292),#270,.F.) ;
#324=ADVANCED_FACE('PartBody',(#323),#298,.T.) ;
#336=ADVANCED_FACE('PartBody',(#335),#298,.T.) ;
#350=ADVANCED_FACE('PartBody',(#345,#349),#341,.F.) ;
#4=APPLICATION_PROTOCOL_DEFINITION('international standard','config_control_design',1994,#1) ;
#32=APPROVAL_DATE_TIME(#13,#21) ;
#351=MANIFOLD_SOLID_BREP('PartBody',#51) ;
#11=CALENDAR_DATE(2019,15,1) ;
#30=CC_DESIGN_APPROVAL(#21,(#16,#6,#14)) ;
#18=CC_DESIGN_DATE_AND_TIME_ASSIGNMENT(#13,#17,(#16)) ;
#29=CC_DESIGN_DATE_AND_TIME_ASSIGNMENT(#13,#28,(#14)) ;
#17=DATE_TIME_ROLE('classification_date') ;
#28=DATE_TIME_ROLE('creation_date') ;
#27=CC_DESIGN_PERSON_AND_ORGANIZATION_ASSIGNMENT(#25,#26,(#16)) ;
#33=CC_DESIGN_PERSON_AND_ORGANIZATION_ASSIGNMENT(#25,#34,(#6)) ;
#35=CC_DESIGN_PERSON_AND_ORGANIZATION_ASSIGNMENT(#25,#36,(#6,#14)) ;
#37=CC_DESIGN_PERSON_AND_ORGANIZATION_ASSIGNMENT(#25,#38,(#5)) ;
#26=PERSON_AND_ORGANIZATION_ROLE('classification_officer') ;
#34=PERSON_AND_ORGANIZATION_ROLE('design_supplier') ;
#36=PERSON_AND_ORGANIZATION_ROLE('creator') ;
#38=PERSON_AND_ORGANIZATION_ROLE('design_owner') ;
#39=CC_DESIGN_SECURITY_CLASSIFICATION(#16,(#6)) ;
#69=CIRCLE('generated circle',#68,5.) ;
#83=CIRCLE('generated circle',#82,5.) ;
#100=CIRCLE('generated circle',#99,9.5) ;
#109=CIRCLE('generated circle',#108,9.5) ;
#118=CIRCLE('generated circle',#117,5.) ;
#128=CIRCLE('generated circle',#127,5.) ;
#152=CIRCLE('generated circle',#151,9.5) ;
#171=CIRCLE('generated circle',#170,9.5) ;
#195=CIRCLE('generated circle',#194,12.75) ;
#214=CIRCLE('generated circle',#213,12.75) ;
#238=CIRCLE('generated circle',#237,12.75) ;
#257=CIRCLE('generated circle',#256,12.75) ;
#278=CIRCLE('generated circle',#277,8.) ;
#287=CIRCLE('generated circle',#286,8.) ;
#309=CIRCLE('generated circle',#308,8.) ;
#328=CIRCLE('generated circle',#327,8.) ;
#184=CONICAL_SURFACE('Cone',#183,9.5,0.576375220591) ;
#353=SHAPE_REPRESENTATION_RELATIONSHIP(' ',' ',#49,#352) ;
#56=CYLINDRICAL_SURFACE('generated cylinder',#55,5.) ;
#141=CYLINDRICAL_SURFACE('generated cylinder',#140,9.5) ;
#227=CYLINDRICAL_SURFACE('generated cylinder',#226,12.75) ;
#298=CYLINDRICAL_SURFACE('generated cylinder',#297,8.) ;
#3=DESIGN_CONTEXT(' ',#1,'design') ;
#65=EDGE_CURVE('',#62,#64,#60,.F.) ;
#72=EDGE_CURVE('',#71,#62,#69,.F.) ;
#79=EDGE_CURVE('',#71,#78,#76,.F.) ;
#84=EDGE_CURVE('',#78,#64,#83,.F.) ;
#105=EDGE_CURVE('',#102,#104,#100,.T.) ;
#110=EDGE_CURVE('',#104,#102,#109,.T.) ;
#119=EDGE_CURVE('',#64,#78,#118,.T.) ;
#129=EDGE_CURVE('',#62,#71,#128,.F.) ;
#148=EDGE_CURVE('',#102,#147,#145,.F.) ;
#155=EDGE_CURVE('',#147,#154,#152,.T.) ;
#160=EDGE_CURVE('',#104,#154,#159,.F.) ;
#172=EDGE_CURVE('',#154,#147,#171,.T.) ;
#191=EDGE_CURVE('',#147,#190,#188,.T.) ;
#198=EDGE_CURVE('',#190,#197,#195,.F.) ;
#203=EDGE_CURVE('',#154,#197,#202,.T.) ;
#215=EDGE_CURVE('',#197,#190,#214,.F.) ;
#234=EDGE_CURVE('',#190,#233,#231,.F.) ;
#241=EDGE_CURVE('',#233,#240,#238,.T.) ;
#246=EDGE_CURVE('',#197,#240,#245,.F.) ;
#258=EDGE_CURVE('',#240,#233,#257,.T.) ;
#283=EDGE_CURVE('',#280,#282,#278,.T.) ;
#288=EDGE_CURVE('',#282,#280,#287,.T.) ;
#305=EDGE_CURVE('',#282,#304,#302,.F.) ;
#312=EDGE_CURVE('',#304,#311,#309,.T.) ;
#317=EDGE_CURVE('',#280,#311,#316,.F.) ;
#329=EDGE_CURVE('',#311,#304,#328,.T.) ;
#85=EDGE_LOOP('',(#86,#87,#88,#89)) ;
#111=EDGE_LOOP('',(#112,#113)) ;
#120=EDGE_LOOP('',(#121,#122)) ;
#130=EDGE_LOOP('',(#131,#132,#133,#134)) ;
#161=EDGE_LOOP('',(#162,#163,#164,#165)) ;
#173=EDGE_LOOP('',(#174,#175,#176,#177)) ;
#204=EDGE_LOOP('',(#205,#206,#207,#208)) ;
#216=EDGE_LOOP('',(#217,#218,#219,#220)) ;
#247=EDGE_LOOP('',(#248,#249,#250,#251)) ;
#259=EDGE_LOOP('',(#260,#261,#262,#263)) ;
#271=EDGE_LOOP('',(#272,#273)) ;
#289=EDGE_LOOP('',(#290,#291)) ;
#318=EDGE_LOOP('',(#319,#320,#321,#322)) ;
#330=EDGE_LOOP('',(#331,#332,#333,#334)) ;
#342=EDGE_LOOP('',(#343,#344)) ;
#346=EDGE_LOOP('',(#347,#348)) ;
#90=FACE_OUTER_BOUND('',#85,.T.) ;
#114=FACE_OUTER_BOUND('',#111,.T.) ;
#135=FACE_OUTER_BOUND('',#130,.T.) ;
#166=FACE_OUTER_BOUND('',#161,.T.) ;
#178=FACE_OUTER_BOUND('',#173,.T.) ;
#209=FACE_OUTER_BOUND('',#204,.T.) ;
#221=FACE_OUTER_BOUND('',#216,.T.) ;
#252=FACE_OUTER_BOUND('',#247,.T.) ;
#264=FACE_OUTER_BOUND('',#259,.T.) ;
#274=FACE_OUTER_BOUND('',#271,.T.) ;
#323=FACE_OUTER_BOUND('',#318,.T.) ;
#335=FACE_OUTER_BOUND('',#330,.T.) ;
#345=FACE_OUTER_BOUND('',#342,.T.) ;
#45=UNCERTAINTY_MEASURE_WITH_UNIT(LENGTH_MEASURE(0.005),#41,'distance_accuracy_value','CONFUSED CURVE UNCERTAINTY') ;
#60=LINE('Line',#57,#59) ;
#76=LINE('Line',#73,#75) ;
#145=LINE('Line',#142,#144) ;
#159=LINE('Line',#156,#158) ;
#188=LINE('Line',#185,#187) ;
#202=LINE('Line',#199,#201) ;
#231=LINE('Line',#228,#230) ;
#245=LINE('Line',#242,#244) ;
#302=LINE('Line',#299,#301) ;
#316=LINE('Line',#313,#315) ;
#2=MECHANICAL_CONTEXT(' ',#1,'mechanical') ;
#24=PERSONAL_ADDRESS(' ',' ',' ',' ',' ',' ',' ',' ',' ',' ',' ',' ',(#22),' ') ;
#96=PLANE('',#95) ;
#270=PLANE('',#269) ;
#341=PLANE('',#340) ;
#43=PLANE_ANGLE_MEASURE_WITH_UNIT(PLANE_ANGLE_MEASURE(0.0174532925199),#42) ;
#7=PRODUCT_CATEGORY('part',$) ;
#9=PRODUCT_CATEGORY_RELATIONSHIP(' ',' ',#7,#8) ;
#6=PRODUCT_DEFINITION_FORMATION_WITH_SPECIFIED_SOURCE('',' ',#5,.NOT_KNOWN.) ;
#8=PRODUCT_RELATED_PRODUCT_CATEGORY('detail',$,(#5)) ;
#50=SHAPE_DEFINITION_REPRESENTATION(#40,#49) ;
#62=VERTEX_POINT('',#61) ;
#64=VERTEX_POINT('',#63) ;
#71=VERTEX_POINT('',#70) ;
#78=VERTEX_POINT('',#77) ;
#102=VERTEX_POINT('',#101) ;
#104=VERTEX_POINT('',#103) ;
#147=VERTEX_POINT('',#146) ;
#154=VERTEX_POINT('',#153) ;
#190=VERTEX_POINT('',#189) ;
#197=VERTEX_POINT('',#196) ;
#233=VERTEX_POINT('',#232) ;
#240=VERTEX_POINT('',#239) ;
#280=VERTEX_POINT('',#279) ;
#282=VERTEX_POINT('',#281) ;
#304=VERTEX_POINT('',#303) ;
#311=VERTEX_POINT('',#310) ;
#41=(LENGTH_UNIT()NAMED_UNIT(*)SI_UNIT(.MILLI.,.METRE.)) ;
#42=(NAMED_UNIT(*)PLANE_ANGLE_UNIT()SI_UNIT($,.RADIAN.)) ;
#44=(NAMED_UNIT(*)SI_UNIT($,.STERADIAN.)SOLID_ANGLE_UNIT()) ;
#46=(GEOMETRIC_REPRESENTATION_CONTEXT(3)GLOBAL_UNCERTAINTY_ASSIGNED_CONTEXT((#45))GLOBAL_UNIT_ASSIGNED_CONTEXT((#41,#42,#44))REPRESENTATION_CONTEXT(' ',' ')) ;
ENDSEC;
END-ISO-10303-21;
