ISO-10303-21;
HEADER;
FILE_DESCRIPTION(('CATIA V5 STEP Exchange'),'2;1');

FILE_NAME('C:\\Users\\antoi\\Desktop\\EFT\\ASSEMBLY_2018_2019\\INSERTS_2.stp','2019-01-29T19:01:05+00:00',('none'),('none'),'CATIA Version 5 Release 20 GA (IN-10)','CATIA V5 STEP AP203','none');

FILE_SCHEMA(('CONFIG_CONTROL_DESIGN'));

ENDSEC;
/* file written by CATIA V5R20 */
DATA;
#5=PRODUCT('INSERTS','','',(#2)) ;
#1=APPLICATION_CONTEXT('configuration controlled 3D design of mechanical parts and assemblies') ;
#14=PRODUCT_DEFINITION('',' ',#6,#3) ;
#16=SECURITY_CLASSIFICATION(' ',' ',#15) ;
#15=SECURITY_CLASSIFICATION_LEVEL('unclassified') ;
#47=CARTESIAN_POINT(' ',(0.,0.,0.)) ;
#52=CARTESIAN_POINT('Axis2P3D Location',(0.,0.,0.)) ;
#57=CARTESIAN_POINT('Axis2P3D Location',(0.,43.0235595703,27.3217372894)) ;
#61=CARTESIAN_POINT('Vertex',(0.,47.4235595703,27.3217372894)) ;
#63=CARTESIAN_POINT('Vertex',(0.,38.6235595703,27.3217380866)) ;
#66=CARTESIAN_POINT('Axis2P3D Location',(0.,43.0235595703,27.3217372894)) ;
#75=CARTESIAN_POINT('Axis2P3D Location',(0.,43.0235595703,27.3217372894)) ;
#79=CARTESIAN_POINT('Vertex',(0.,44.8375227257,26.3307647011)) ;
#81=CARTESIAN_POINT('Vertex',(0.,41.2095964149,28.3127098777)) ;
#84=CARTESIAN_POINT('Axis2P3D Location',(0.,43.0235595703,27.3217372894)) ;
#94=CARTESIAN_POINT('Axis2P3D Location',(9.,43.0235595703,27.3217372894)) ;
#99=CARTESIAN_POINT('Line Origine',(9.,50.9235595703,27.3217372894)) ;
#103=CARTESIAN_POINT('Vertex',(8.,50.9235595703,27.3217372894)) ;
#105=CARTESIAN_POINT('Vertex',(10.,50.9235595703,27.3217372894)) ;
#108=CARTESIAN_POINT('Axis2P3D Location',(8.,43.0235595703,27.3217372894)) ;
#112=CARTESIAN_POINT('Vertex',(8.,35.1235595703,27.3217372894)) ;
#115=CARTESIAN_POINT('Line Origine',(9.,35.1235595703,27.3217372894)) ;
#119=CARTESIAN_POINT('Vertex',(10.,35.1235595703,27.3217372894)) ;
#122=CARTESIAN_POINT('Axis2P3D Location',(10.,43.0235595703,27.3217372894)) ;
#134=CARTESIAN_POINT('Axis2P3D Location',(8.,43.0235595703,27.3217372894)) ;
#139=CARTESIAN_POINT('Axis2P3D Location',(10.,43.0235595703,27.3217372894)) ;
#151=CARTESIAN_POINT('Axis2P3D Location',(8.,0.,0.)) ;
#160=CARTESIAN_POINT('Axis2P3D Location',(8.,43.0235595703,27.3217372894)) ;
#164=CARTESIAN_POINT('Vertex',(8.,48.1735595703,27.3217372894)) ;
#166=CARTESIAN_POINT('Vertex',(8.,37.8735595703,27.3217369858)) ;
#169=CARTESIAN_POINT('Axis2P3D Location',(8.,43.0235595703,27.3217372894)) ;
#179=CARTESIAN_POINT('Axis2P3D Location',(4.,43.0235595703,27.3217372894)) ;
#184=CARTESIAN_POINT('Line Origine',(4.,38.1235595703,27.3217372894)) ;
#188=CARTESIAN_POINT('Vertex',(0.5,38.1235595703,27.3217372894)) ;
#190=CARTESIAN_POINT('Vertex',(7.75,38.1235595703,27.3217372894)) ;
#193=CARTESIAN_POINT('Axis2P3D Location',(7.75,43.0235595703,27.3217372894)) ;
#197=CARTESIAN_POINT('Vertex',(7.75,47.9235595703,27.3217372894)) ;
#200=CARTESIAN_POINT('Line Origine',(4.,47.9235595703,27.3217372894)) ;
#204=CARTESIAN_POINT('Vertex',(0.5,47.9235595703,27.3217372894)) ;
#207=CARTESIAN_POINT('Axis2P3D Location',(0.5,43.0235595703,27.3217372894)) ;
#219=CARTESIAN_POINT('Axis2P3D Location',(7.75,43.0235595703,27.3217372894)) ;
#224=CARTESIAN_POINT('Axis2P3D Location',(0.5,43.0235595703,27.3217372894)) ;
#236=CARTESIAN_POINT('Axis2P3D Location',(7.75,43.0235595703,27.3217372894)) ;
#241=CARTESIAN_POINT('Axis2P3D Location',(7.75,37.8735595703,27.3217372894)) ;
#246=CARTESIAN_POINT('Axis2P3D Location',(7.75,48.1735595703,27.3217372894)) ;
#258=CARTESIAN_POINT('Axis2P3D Location',(7.75,43.0235595703,27.3217372894)) ;
#270=CARTESIAN_POINT('Axis2P3D Location',(-4.4,43.0235595703,27.3217372894)) ;
#275=CARTESIAN_POINT('Line Origine',(0.25,47.6735595703,27.3217372894)) ;
#280=CARTESIAN_POINT('Line Origine',(0.25,38.3735595703,27.3217381319)) ;
#292=CARTESIAN_POINT('Axis2P3D Location',(-4.4,43.0235595703,27.3217372894)) ;
#304=CARTESIAN_POINT('Axis2P3D Location',(9.9,43.0235595703,27.3217372894)) ;
#309=CARTESIAN_POINT('Axis2P3D Location',(9.5,43.0235595703,27.3217372894)) ;
#313=CARTESIAN_POINT('Vertex',(9.5,44.8375227257,26.3307647011)) ;
#315=CARTESIAN_POINT('Vertex',(9.5,41.2095964149,28.3127098777)) ;
#318=CARTESIAN_POINT('Line Origine',(5.15500000005,41.2095964149,28.3127098777)) ;
#323=CARTESIAN_POINT('Line Origine',(5.15500000005,44.8375227257,26.3307647011)) ;
#335=CARTESIAN_POINT('Axis2P3D Location',(9.5,43.0235595703,27.3217372894)) ;
#347=CARTESIAN_POINT('Axis2P3D Location',(10.,0.,0.)) ;
#356=CARTESIAN_POINT('Axis2P3D Location',(10.,43.0235595703,27.3217372894)) ;
#360=CARTESIAN_POINT('Vertex',(10.,45.2763140067,26.0910519318)) ;
#362=CARTESIAN_POINT('Vertex',(10.,40.7708051378,28.5524226541)) ;
#365=CARTESIAN_POINT('Axis2P3D Location',(10.,43.0235595703,27.3217372894)) ;
#375=CARTESIAN_POINT('Axis2P3D Location',(7.433,43.0235595703,27.3217372894)) ;
#380=CARTESIAN_POINT('Line Origine',(9.75,40.9902007734,28.4325662605)) ;
#385=CARTESIAN_POINT('Line Origine',(9.75,45.0569183662,26.2109083165)) ;
#397=CARTESIAN_POINT('Axis2P3D Location',(7.433,43.0235595703,27.3217372894)) ;
#53=DIRECTION('Axis2P3D Direction',(1.,0.,0.)) ;
#54=DIRECTION('Axis2P3D XDirection',(0.,1.,0.)) ;
#58=DIRECTION('Axis2P3D Direction',(1.,0.,0.)) ;
#67=DIRECTION('Axis2P3D Direction',(1.,0.,0.)) ;
#76=DIRECTION('Axis2P3D Direction',(1.,0.,0.)) ;
#85=DIRECTION('Axis2P3D Direction',(1.,0.,0.)) ;
#95=DIRECTION('Axis2P3D Direction',(1.,0.,0.)) ;
#96=DIRECTION('Axis2P3D XDirection',(0.,1.,0.)) ;
#100=DIRECTION('Vector Direction',(1.,0.,0.)) ;
#109=DIRECTION('Axis2P3D Direction',(1.,0.,0.)) ;
#116=DIRECTION('Vector Direction',(1.,0.,0.)) ;
#123=DIRECTION('Axis2P3D Direction',(1.,0.,0.)) ;
#135=DIRECTION('Axis2P3D Direction',(1.,0.,0.)) ;
#140=DIRECTION('Axis2P3D Direction',(1.,0.,0.)) ;
#152=DIRECTION('Axis2P3D Direction',(1.,0.,0.)) ;
#153=DIRECTION('Axis2P3D XDirection',(0.,1.,0.)) ;
#161=DIRECTION('Axis2P3D Direction',(1.,0.,0.)) ;
#170=DIRECTION('Axis2P3D Direction',(1.,0.,0.)) ;
#180=DIRECTION('Axis2P3D Direction',(1.,0.,0.)) ;
#181=DIRECTION('Axis2P3D XDirection',(0.,1.,0.)) ;
#185=DIRECTION('Vector Direction',(1.,0.,0.)) ;
#194=DIRECTION('Axis2P3D Direction',(1.,0.,0.)) ;
#201=DIRECTION('Vector Direction',(1.,0.,0.)) ;
#208=DIRECTION('Axis2P3D Direction',(1.,0.,0.)) ;
#220=DIRECTION('Axis2P3D Direction',(1.,0.,0.)) ;
#225=DIRECTION('Axis2P3D Direction',(1.,0.,0.)) ;
#237=DIRECTION('Axis2P3D Direction',(1.,0.,-0.)) ;
#238=DIRECTION('Axis2P3D XDirection',(0.,-0.884273875388,0.466968642744)) ;
#242=DIRECTION('Axis2P3D Direction',(0.,-6.10622663544E-016,1.)) ;
#247=DIRECTION('Axis2P3D Direction',(0.,-9.99200722163E-016,-1.)) ;
#259=DIRECTION('Axis2P3D Direction',(1.,-0.,0.)) ;
#260=DIRECTION('Axis2P3D XDirection',(0.,1.,0.)) ;
#271=DIRECTION('Axis2P3D Direction',(1.,1.42108547152E-014,-1.20792265079E-013)) ;
#272=DIRECTION('Axis2P3D XDirection',(-1.42245613724E-014,1.,-7.25043575941E-016)) ;
#276=DIRECTION('Vector Direction',(0.707106781187,0.707106781187,-9.04373256202E-014)) ;
#281=DIRECTION('Vector Direction',(0.707106781187,-0.707106781187,1.28115495046E-007)) ;
#293=DIRECTION('Axis2P3D Direction',(1.,-1.42108547152E-014,8.52651282912E-014)) ;
#294=DIRECTION('Axis2P3D XDirection',(-6.16397659472E-014,-0.809016994375,0.587785252292)) ;
#305=DIRECTION('Axis2P3D Direction',(-1.,0.,-0.)) ;
#306=DIRECTION('Axis2P3D XDirection',(0.,0.87758256189,-0.479425538604)) ;
#310=DIRECTION('Axis2P3D Direction',(-1.,0.,-0.)) ;
#319=DIRECTION('Vector Direction',(-1.,0.,0.)) ;
#324=DIRECTION('Vector Direction',(-1.,0.,0.)) ;
#336=DIRECTION('Axis2P3D Direction',(-1.,0.,-0.)) ;
#348=DIRECTION('Axis2P3D Direction',(1.,0.,0.)) ;
#349=DIRECTION('Axis2P3D XDirection',(0.,1.,0.)) ;
#357=DIRECTION('Axis2P3D Direction',(1.,0.,0.)) ;
#366=DIRECTION('Axis2P3D Direction',(1.,0.,0.)) ;
#376=DIRECTION('Axis2P3D Direction',(1.,-1.70530256582E-013,-1.91846538655E-013)) ;
#377=DIRECTION('Axis2P3D XDirection',(6.83569199286E-014,-0.543535540832,0.839386154194)) ;
#381=DIRECTION('Vector Direction',(0.707106781186,-0.620544580882,0.339005048838)) ;
#386=DIRECTION('Vector Direction',(0.707106781187,0.620544580564,-0.339005049421)) ;
#398=DIRECTION('Axis2P3D Direction',(1.,-0.,-7.1054273576E-015)) ;
#399=DIRECTION('Axis2P3D XDirection',(-3.42443144151E-015,0.87758256189,-0.479425538604)) ;
#48=AXIS2_PLACEMENT_3D(' ',#47,$,$) ;
#55=AXIS2_PLACEMENT_3D('Plane Axis2P3D',#52,#53,#54) ;
#59=AXIS2_PLACEMENT_3D('Circle Axis2P3D',#57,#58,$) ;
#68=AXIS2_PLACEMENT_3D('Circle Axis2P3D',#66,#67,$) ;
#77=AXIS2_PLACEMENT_3D('Circle Axis2P3D',#75,#76,$) ;
#86=AXIS2_PLACEMENT_3D('Circle Axis2P3D',#84,#85,$) ;
#97=AXIS2_PLACEMENT_3D('Cylinder Axis2P3D',#94,#95,#96) ;
#110=AXIS2_PLACEMENT_3D('Circle Axis2P3D',#108,#109,$) ;
#124=AXIS2_PLACEMENT_3D('Circle Axis2P3D',#122,#123,$) ;
#136=AXIS2_PLACEMENT_3D('Circle Axis2P3D',#134,#135,$) ;
#141=AXIS2_PLACEMENT_3D('Circle Axis2P3D',#139,#140,$) ;
#154=AXIS2_PLACEMENT_3D('Plane Axis2P3D',#151,#152,#153) ;
#162=AXIS2_PLACEMENT_3D('Circle Axis2P3D',#160,#161,$) ;
#171=AXIS2_PLACEMENT_3D('Circle Axis2P3D',#169,#170,$) ;
#182=AXIS2_PLACEMENT_3D('Cylinder Axis2P3D',#179,#180,#181) ;
#195=AXIS2_PLACEMENT_3D('Circle Axis2P3D',#193,#194,$) ;
#209=AXIS2_PLACEMENT_3D('Circle Axis2P3D',#207,#208,$) ;
#221=AXIS2_PLACEMENT_3D('Circle Axis2P3D',#219,#220,$) ;
#226=AXIS2_PLACEMENT_3D('Circle Axis2P3D',#224,#225,$) ;
#239=AXIS2_PLACEMENT_3D('Torus Axis2P3D',#236,#237,#238) ;
#243=AXIS2_PLACEMENT_3D('Circle Axis2P3D',#241,#242,$) ;
#248=AXIS2_PLACEMENT_3D('Circle Axis2P3D',#246,#247,$) ;
#261=AXIS2_PLACEMENT_3D('Torus Axis2P3D',#258,#259,#260) ;
#273=AXIS2_PLACEMENT_3D('Cone Axis2P3D',#270,#271,#272) ;
#295=AXIS2_PLACEMENT_3D('Cone Axis2P3D',#292,#293,#294) ;
#307=AXIS2_PLACEMENT_3D('Cylinder Axis2P3D',#304,#305,#306) ;
#311=AXIS2_PLACEMENT_3D('Circle Axis2P3D',#309,#310,$) ;
#337=AXIS2_PLACEMENT_3D('Circle Axis2P3D',#335,#336,$) ;
#350=AXIS2_PLACEMENT_3D('Plane Axis2P3D',#347,#348,#349) ;
#358=AXIS2_PLACEMENT_3D('Circle Axis2P3D',#356,#357,$) ;
#367=AXIS2_PLACEMENT_3D('Circle Axis2P3D',#365,#366,$) ;
#378=AXIS2_PLACEMENT_3D('Cone Axis2P3D',#375,#376,#377) ;
#400=AXIS2_PLACEMENT_3D('Cone Axis2P3D',#397,#398,#399) ;
#40=PRODUCT_DEFINITION_SHAPE(' ',' ',#14) ;
#31=APPROVAL_PERSON_ORGANIZATION(#25,#21,#19) ;
#25=PERSON_AND_ORGANIZATION(#22,#23) ;
#22=PERSON(' ',' ',' ',$,$,$) ;
#23=ORGANIZATION(' ',' ',' ') ;
#21=APPROVAL(#20,' ') ;
#20=APPROVAL_STATUS('not_yet_approved') ;
#19=APPROVAL_ROLE('APPROVER') ;
#13=DATE_AND_TIME(#11,#12) ;
#12=LOCAL_TIME(20,1,5.,#10) ;
#10=COORDINATED_UNIVERSAL_TIME_OFFSET(0,0,.AHEAD.) ;
#72=ORIENTED_EDGE('',*,*,#65,.F.) ;
#73=ORIENTED_EDGE('',*,*,#70,.F.) ;
#90=ORIENTED_EDGE('',*,*,#83,.F.) ;
#91=ORIENTED_EDGE('',*,*,#88,.F.) ;
#128=ORIENTED_EDGE('',*,*,#107,.F.) ;
#129=ORIENTED_EDGE('',*,*,#114,.T.) ;
#130=ORIENTED_EDGE('',*,*,#121,.T.) ;
#131=ORIENTED_EDGE('',*,*,#126,.F.) ;
#145=ORIENTED_EDGE('',*,*,#121,.F.) ;
#146=ORIENTED_EDGE('',*,*,#138,.T.) ;
#147=ORIENTED_EDGE('',*,*,#107,.T.) ;
#148=ORIENTED_EDGE('',*,*,#143,.F.) ;
#157=ORIENTED_EDGE('',*,*,#138,.F.) ;
#158=ORIENTED_EDGE('',*,*,#114,.F.) ;
#175=ORIENTED_EDGE('',*,*,#168,.F.) ;
#176=ORIENTED_EDGE('',*,*,#173,.F.) ;
#213=ORIENTED_EDGE('',*,*,#192,.T.) ;
#214=ORIENTED_EDGE('',*,*,#199,.T.) ;
#215=ORIENTED_EDGE('',*,*,#206,.F.) ;
#216=ORIENTED_EDGE('',*,*,#211,.T.) ;
#230=ORIENTED_EDGE('',*,*,#206,.T.) ;
#231=ORIENTED_EDGE('',*,*,#223,.T.) ;
#232=ORIENTED_EDGE('',*,*,#192,.F.) ;
#233=ORIENTED_EDGE('',*,*,#228,.T.) ;
#252=ORIENTED_EDGE('',*,*,#168,.T.) ;
#253=ORIENTED_EDGE('',*,*,#245,.T.) ;
#254=ORIENTED_EDGE('',*,*,#223,.F.) ;
#255=ORIENTED_EDGE('',*,*,#250,.F.) ;
#264=ORIENTED_EDGE('',*,*,#173,.T.) ;
#265=ORIENTED_EDGE('',*,*,#250,.T.) ;
#266=ORIENTED_EDGE('',*,*,#199,.F.) ;
#267=ORIENTED_EDGE('',*,*,#245,.F.) ;
#286=ORIENTED_EDGE('',*,*,#279,.T.) ;
#287=ORIENTED_EDGE('',*,*,#65,.T.) ;
#288=ORIENTED_EDGE('',*,*,#284,.F.) ;
#289=ORIENTED_EDGE('',*,*,#211,.F.) ;
#298=ORIENTED_EDGE('',*,*,#284,.T.) ;
#299=ORIENTED_EDGE('',*,*,#70,.T.) ;
#300=ORIENTED_EDGE('',*,*,#279,.F.) ;
#301=ORIENTED_EDGE('',*,*,#228,.F.) ;
#329=ORIENTED_EDGE('',*,*,#317,.T.) ;
#330=ORIENTED_EDGE('',*,*,#322,.F.) ;
#331=ORIENTED_EDGE('',*,*,#88,.T.) ;
#332=ORIENTED_EDGE('',*,*,#327,.T.) ;
#341=ORIENTED_EDGE('',*,*,#339,.T.) ;
#342=ORIENTED_EDGE('',*,*,#327,.F.) ;
#343=ORIENTED_EDGE('',*,*,#83,.T.) ;
#344=ORIENTED_EDGE('',*,*,#322,.T.) ;
#353=ORIENTED_EDGE('',*,*,#126,.T.) ;
#354=ORIENTED_EDGE('',*,*,#143,.T.) ;
#371=ORIENTED_EDGE('',*,*,#364,.F.) ;
#372=ORIENTED_EDGE('',*,*,#369,.F.) ;
#391=ORIENTED_EDGE('',*,*,#384,.T.) ;
#392=ORIENTED_EDGE('',*,*,#369,.T.) ;
#393=ORIENTED_EDGE('',*,*,#389,.F.) ;
#394=ORIENTED_EDGE('',*,*,#339,.F.) ;
#403=ORIENTED_EDGE('',*,*,#389,.T.) ;
#404=ORIENTED_EDGE('',*,*,#364,.T.) ;
#405=ORIENTED_EDGE('',*,*,#384,.F.) ;
#406=ORIENTED_EDGE('',*,*,#317,.F.) ;
#92=FACE_BOUND('',#89,.T.) ;
#177=FACE_BOUND('',#174,.T.) ;
#373=FACE_BOUND('',#370,.T.) ;
#51=CLOSED_SHELL('Closed Shell',(#93,#133,#150,#178,#218,#235,#257,#269,#291,#303,#334,#346,#374,#396,#408)) ;
#101=VECTOR('Line Direction',#100,1.) ;
#117=VECTOR('Line Direction',#116,1.) ;
#186=VECTOR('Line Direction',#185,1.) ;
#202=VECTOR('Line Direction',#201,1.) ;
#277=VECTOR('Line Direction',#276,1.) ;
#282=VECTOR('Line Direction',#281,1.) ;
#320=VECTOR('Line Direction',#319,1.) ;
#325=VECTOR('Line Direction',#324,1.) ;
#382=VECTOR('Line Direction',#381,1.) ;
#387=VECTOR('Line Direction',#386,1.) ;
#410=ADVANCED_BREP_SHAPE_REPRESENTATION('NONE',(#409),#46) ;
#49=SHAPE_REPRESENTATION(' ',(#48),#46) ;
#93=ADVANCED_FACE('PartBody',(#74,#92),#56,.F.) ;
#133=ADVANCED_FACE('PartBody',(#132),#98,.T.) ;
#150=ADVANCED_FACE('PartBody',(#149),#98,.T.) ;
#178=ADVANCED_FACE('PartBody',(#159,#177),#155,.F.) ;
#218=ADVANCED_FACE('PartBody',(#217),#183,.T.) ;
#235=ADVANCED_FACE('PartBody',(#234),#183,.T.) ;
#257=ADVANCED_FACE('PartBody',(#256),#240,.F.) ;
#269=ADVANCED_FACE('PartBody',(#268),#262,.F.) ;
#291=ADVANCED_FACE('PartBody',(#290),#274,.T.) ;
#303=ADVANCED_FACE('PartBody',(#302),#296,.T.) ;
#334=ADVANCED_FACE('PartBody',(#333),#308,.F.) ;
#346=ADVANCED_FACE('PartBody',(#345),#308,.F.) ;
#374=ADVANCED_FACE('PartBody',(#355,#373),#351,.T.) ;
#396=ADVANCED_FACE('PartBody',(#395),#379,.F.) ;
#408=ADVANCED_FACE('PartBody',(#407),#401,.F.) ;
#4=APPLICATION_PROTOCOL_DEFINITION('international standard','config_control_design',1994,#1) ;
#32=APPROVAL_DATE_TIME(#13,#21) ;
#409=MANIFOLD_SOLID_BREP('PartBody',#51) ;
#11=CALENDAR_DATE(2019,29,1) ;
#30=CC_DESIGN_APPROVAL(#21,(#16,#6,#14)) ;
#18=CC_DESIGN_DATE_AND_TIME_ASSIGNMENT(#13,#17,(#16)) ;
#29=CC_DESIGN_DATE_AND_TIME_ASSIGNMENT(#13,#28,(#14)) ;
#17=DATE_TIME_ROLE('classification_date') ;
#28=DATE_TIME_ROLE('creation_date') ;
#27=CC_DESIGN_PERSON_AND_ORGANIZATION_ASSIGNMENT(#25,#26,(#16)) ;
#33=CC_DESIGN_PERSON_AND_ORGANIZATION_ASSIGNMENT(#25,#34,(#6)) ;
#35=CC_DESIGN_PERSON_AND_ORGANIZATION_ASSIGNMENT(#25,#36,(#6,#14)) ;
#37=CC_DESIGN_PERSON_AND_ORGANIZATION_ASSIGNMENT(#25,#38,(#5)) ;
#26=PERSON_AND_ORGANIZATION_ROLE('classification_officer') ;
#34=PERSON_AND_ORGANIZATION_ROLE('design_supplier') ;
#36=PERSON_AND_ORGANIZATION_ROLE('creator') ;
#38=PERSON_AND_ORGANIZATION_ROLE('design_owner') ;
#39=CC_DESIGN_SECURITY_CLASSIFICATION(#16,(#6)) ;
#60=CIRCLE('generated circle',#59,4.4) ;
#69=CIRCLE('generated circle',#68,4.4) ;
#78=CIRCLE('generated circle',#77,2.067) ;
#87=CIRCLE('generated circle',#86,2.067) ;
#111=CIRCLE('generated circle',#110,7.9) ;
#125=CIRCLE('generated circle',#124,7.9) ;
#137=CIRCLE('generated circle',#136,7.9) ;
#142=CIRCLE('generated circle',#141,7.9) ;
#163=CIRCLE('generated circle',#162,5.15) ;
#172=CIRCLE('generated circle',#171,5.15) ;
#196=CIRCLE('generated circle',#195,4.9) ;
#210=CIRCLE('generated circle',#209,4.9) ;
#222=CIRCLE('generated circle',#221,4.9) ;
#227=CIRCLE('generated circle',#226,4.9) ;
#244=CIRCLE('generated circle',#243,0.25) ;
#249=CIRCLE('generated circle',#248,0.25) ;
#312=CIRCLE('generated circle',#311,2.067) ;
#338=CIRCLE('generated circle',#337,2.067) ;
#359=CIRCLE('generated circle',#358,2.567) ;
#368=CIRCLE('generated circle',#367,2.567) ;
#274=CONICAL_SURFACE('Cone',#273,0.,0.785398163397) ;
#296=CONICAL_SURFACE('Cone',#295,0.,0.785398163397) ;
#379=CONICAL_SURFACE('Cone',#378,0.,0.785398163397) ;
#401=CONICAL_SURFACE('Cone',#400,0.,0.785398163397) ;
#411=SHAPE_REPRESENTATION_RELATIONSHIP(' ',' ',#49,#410) ;
#98=CYLINDRICAL_SURFACE('generated cylinder',#97,7.9) ;
#183=CYLINDRICAL_SURFACE('generated cylinder',#182,4.9) ;
#308=CYLINDRICAL_SURFACE('generated cylinder',#307,2.067) ;
#240=TOROIDAL_SURFACE('homeo Torus',#239,5.15,0.25) ;
#262=TOROIDAL_SURFACE('homeo Torus',#261,5.15,0.25) ;
#3=DESIGN_CONTEXT(' ',#1,'design') ;
#65=EDGE_CURVE('',#62,#64,#60,.T.) ;
#70=EDGE_CURVE('',#64,#62,#69,.T.) ;
#83=EDGE_CURVE('',#80,#82,#78,.F.) ;
#88=EDGE_CURVE('',#82,#80,#87,.F.) ;
#107=EDGE_CURVE('',#104,#106,#102,.T.) ;
#114=EDGE_CURVE('',#104,#113,#111,.T.) ;
#121=EDGE_CURVE('',#113,#120,#118,.T.) ;
#126=EDGE_CURVE('',#106,#120,#125,.T.) ;
#138=EDGE_CURVE('',#113,#104,#137,.T.) ;
#143=EDGE_CURVE('',#120,#106,#142,.T.) ;
#168=EDGE_CURVE('',#165,#167,#163,.F.) ;
#173=EDGE_CURVE('',#167,#165,#172,.F.) ;
#192=EDGE_CURVE('',#189,#191,#187,.T.) ;
#199=EDGE_CURVE('',#191,#198,#196,.F.) ;
#206=EDGE_CURVE('',#205,#198,#203,.T.) ;
#211=EDGE_CURVE('',#205,#189,#210,.T.) ;
#223=EDGE_CURVE('',#198,#191,#222,.F.) ;
#228=EDGE_CURVE('',#189,#205,#227,.T.) ;
#245=EDGE_CURVE('',#167,#191,#244,.T.) ;
#250=EDGE_CURVE('',#165,#198,#249,.T.) ;
#279=EDGE_CURVE('',#205,#62,#278,.F.) ;
#284=EDGE_CURVE('',#189,#64,#283,.F.) ;
#317=EDGE_CURVE('',#314,#316,#312,.F.) ;
#322=EDGE_CURVE('',#82,#316,#321,.F.) ;
#327=EDGE_CURVE('',#80,#314,#326,.F.) ;
#339=EDGE_CURVE('',#316,#314,#338,.F.) ;
#364=EDGE_CURVE('',#361,#363,#359,.T.) ;
#369=EDGE_CURVE('',#363,#361,#368,.T.) ;
#384=EDGE_CURVE('',#316,#363,#383,.T.) ;
#389=EDGE_CURVE('',#314,#361,#388,.T.) ;
#71=EDGE_LOOP('',(#72,#73)) ;
#89=EDGE_LOOP('',(#90,#91)) ;
#127=EDGE_LOOP('',(#128,#129,#130,#131)) ;
#144=EDGE_LOOP('',(#145,#146,#147,#148)) ;
#156=EDGE_LOOP('',(#157,#158)) ;
#174=EDGE_LOOP('',(#175,#176)) ;
#212=EDGE_LOOP('',(#213,#214,#215,#216)) ;
#229=EDGE_LOOP('',(#230,#231,#232,#233)) ;
#251=EDGE_LOOP('',(#252,#253,#254,#255)) ;
#263=EDGE_LOOP('',(#264,#265,#266,#267)) ;
#285=EDGE_LOOP('',(#286,#287,#288,#289)) ;
#297=EDGE_LOOP('',(#298,#299,#300,#301)) ;
#328=EDGE_LOOP('',(#329,#330,#331,#332)) ;
#340=EDGE_LOOP('',(#341,#342,#343,#344)) ;
#352=EDGE_LOOP('',(#353,#354)) ;
#370=EDGE_LOOP('',(#371,#372)) ;
#390=EDGE_LOOP('',(#391,#392,#393,#394)) ;
#402=EDGE_LOOP('',(#403,#404,#405,#406)) ;
#74=FACE_OUTER_BOUND('',#71,.T.) ;
#132=FACE_OUTER_BOUND('',#127,.T.) ;
#149=FACE_OUTER_BOUND('',#144,.T.) ;
#159=FACE_OUTER_BOUND('',#156,.T.) ;
#217=FACE_OUTER_BOUND('',#212,.T.) ;
#234=FACE_OUTER_BOUND('',#229,.T.) ;
#256=FACE_OUTER_BOUND('',#251,.T.) ;
#268=FACE_OUTER_BOUND('',#263,.T.) ;
#290=FACE_OUTER_BOUND('',#285,.T.) ;
#302=FACE_OUTER_BOUND('',#297,.T.) ;
#333=FACE_OUTER_BOUND('',#328,.T.) ;
#345=FACE_OUTER_BOUND('',#340,.T.) ;
#355=FACE_OUTER_BOUND('',#352,.T.) ;
#395=FACE_OUTER_BOUND('',#390,.T.) ;
#407=FACE_OUTER_BOUND('',#402,.T.) ;
#45=UNCERTAINTY_MEASURE_WITH_UNIT(LENGTH_MEASURE(0.005),#41,'distance_accuracy_value','CONFUSED CURVE UNCERTAINTY') ;
#102=LINE('Line',#99,#101) ;
#118=LINE('Line',#115,#117) ;
#187=LINE('Line',#184,#186) ;
#203=LINE('Line',#200,#202) ;
#278=LINE('Line',#275,#277) ;
#283=LINE('Line',#280,#282) ;
#321=LINE('Line',#318,#320) ;
#326=LINE('Line',#323,#325) ;
#383=LINE('Line',#380,#382) ;
#388=LINE('Line',#385,#387) ;
#2=MECHANICAL_CONTEXT(' ',#1,'mechanical') ;
#24=PERSONAL_ADDRESS(' ',' ',' ',' ',' ',' ',' ',' ',' ',' ',' ',' ',(#22),' ') ;
#56=PLANE('Plane',#55) ;
#155=PLANE('Plane',#154) ;
#351=PLANE('Plane',#350) ;
#43=PLANE_ANGLE_MEASURE_WITH_UNIT(PLANE_ANGLE_MEASURE(0.0174532925199),#42) ;
#7=PRODUCT_CATEGORY('part',$) ;
#9=PRODUCT_CATEGORY_RELATIONSHIP(' ',' ',#7,#8) ;
#6=PRODUCT_DEFINITION_FORMATION_WITH_SPECIFIED_SOURCE('',' ',#5,.NOT_KNOWN.) ;
#8=PRODUCT_RELATED_PRODUCT_CATEGORY('detail',$,(#5)) ;
#50=SHAPE_DEFINITION_REPRESENTATION(#40,#49) ;
#62=VERTEX_POINT('',#61) ;
#64=VERTEX_POINT('',#63) ;
#80=VERTEX_POINT('',#79) ;
#82=VERTEX_POINT('',#81) ;
#104=VERTEX_POINT('',#103) ;
#106=VERTEX_POINT('',#105) ;
#113=VERTEX_POINT('',#112) ;
#120=VERTEX_POINT('',#119) ;
#165=VERTEX_POINT('',#164) ;
#167=VERTEX_POINT('',#166) ;
#189=VERTEX_POINT('',#188) ;
#191=VERTEX_POINT('',#190) ;
#198=VERTEX_POINT('',#197) ;
#205=VERTEX_POINT('',#204) ;
#314=VERTEX_POINT('',#313) ;
#316=VERTEX_POINT('',#315) ;
#361=VERTEX_POINT('',#360) ;
#363=VERTEX_POINT('',#362) ;
#41=(LENGTH_UNIT()NAMED_UNIT(*)SI_UNIT(.MILLI.,.METRE.)) ;
#42=(NAMED_UNIT(*)PLANE_ANGLE_UNIT()SI_UNIT($,.RADIAN.)) ;
#44=(NAMED_UNIT(*)SI_UNIT($,.STERADIAN.)SOLID_ANGLE_UNIT()) ;
#46=(GEOMETRIC_REPRESENTATION_CONTEXT(3)GLOBAL_UNCERTAINTY_ASSIGNED_CONTEXT((#45))GLOBAL_UNIT_ASSIGNED_CONTEXT((#41,#42,#44))REPRESENTATION_CONTEXT(' ',' ')) ;
ENDSEC;
END-ISO-10303-21;
