ISO-10303-21;
HEADER;
FILE_DESCRIPTION(('CATIA V5 STEP Exchange'),'2;1');

FILE_NAME('D:\\Projet Splitboard\\Chaussure Splitboard\\Consultation 19-01\\Rondelle speciale D14-6-2.5.stp','2019-01-26T11:24:06+00:00',('none'),('none'),'CATIA Version 5 Release 21 GA (IN-10)','CATIA V5 STEP AP203','none');

FILE_SCHEMA(('CONFIG_CONTROL_DESIGN'));

ENDSEC;
/* file written by CATIA V5R21 */
DATA;
#5=PRODUCT('Rondelle speciale D14-6-2.5','','',(#2)) ;
#1=APPLICATION_CONTEXT('configuration controlled 3D design of mechanical parts and assemblies') ;
#14=PRODUCT_DEFINITION('',' ',#6,#3) ;
#16=SECURITY_CLASSIFICATION(' ',' ',#15) ;
#15=SECURITY_CLASSIFICATION_LEVEL('unclassified') ;
#47=CARTESIAN_POINT(' ',(0.,0.,0.)) ;
#52=CARTESIAN_POINT('Axis2P3D Location',(5.5,7.5,2.5)) ;
#57=CARTESIAN_POINT('Line Origine',(5.5,-1.7763568394E-015,1.25)) ;
#61=CARTESIAN_POINT('Vertex',(5.5,-2.69229083472E-015,2.5)) ;
#63=CARTESIAN_POINT('Vertex',(5.5,-1.7763568394E-015,0.)) ;
#66=CARTESIAN_POINT('Line Origine',(5.5,-2.16506350946,2.5)) ;
#70=CARTESIAN_POINT('Vertex',(5.5,-4.33012701892,2.5)) ;
#73=CARTESIAN_POINT('Line Origine',(5.5,-4.33012701892,1.25)) ;
#77=CARTESIAN_POINT('Vertex',(5.5,-4.33012701892,0.)) ;
#80=CARTESIAN_POINT('Line Origine',(5.5,-2.16506350946,0.)) ;
#92=CARTESIAN_POINT('Axis2P3D Location',(0.,0.,2.5)) ;
#97=CARTESIAN_POINT('Axis2P3D Location',(0.,0.,2.5)) ;
#101=CARTESIAN_POINT('Vertex',(5.5,4.33012701892,2.5)) ;
#103=CARTESIAN_POINT('Vertex',(-7.,8.57224447676E-016,2.5)) ;
#106=CARTESIAN_POINT('Axis2P3D Location',(0.,0.,2.5)) ;
#111=CARTESIAN_POINT('Line Origine',(5.5,2.16506350946,2.5)) ;
#122=CARTESIAN_POINT('Axis2P3D Location',(0.,0.,2.5)) ;
#126=CARTESIAN_POINT('Vertex',(-3.1,3.79627969685E-016,2.5)) ;
#128=CARTESIAN_POINT('Vertex',(3.1,0.,2.5)) ;
#131=CARTESIAN_POINT('Axis2P3D Location',(0.,0.,2.5)) ;
#141=CARTESIAN_POINT('Axis2P3D Location',(0.,0.,1.25)) ;
#146=CARTESIAN_POINT('Line Origine',(-7.,8.57224447676E-016,1.25)) ;
#150=CARTESIAN_POINT('Vertex',(-7.,8.57224447676E-016,0.)) ;
#153=CARTESIAN_POINT('Axis2P3D Location',(0.,0.,0.)) ;
#165=CARTESIAN_POINT('Line Origine',(5.5,4.33012701892,1.25)) ;
#169=CARTESIAN_POINT('Vertex',(5.5,4.33012701892,0.)) ;
#172=CARTESIAN_POINT('Axis2P3D Location',(0.,0.,0.)) ;
#184=CARTESIAN_POINT('Axis2P3D Location',(0.,0.,1.25)) ;
#189=CARTESIAN_POINT('Line Origine',(-3.1,3.79627969685E-016,1.25)) ;
#193=CARTESIAN_POINT('Vertex',(-3.1,3.79627969685E-016,0.)) ;
#196=CARTESIAN_POINT('Axis2P3D Location',(0.,0.,0.)) ;
#200=CARTESIAN_POINT('Vertex',(3.1,0.,0.)) ;
#203=CARTESIAN_POINT('Line Origine',(3.1,0.,1.25)) ;
#215=CARTESIAN_POINT('Axis2P3D Location',(0.,0.,0.)) ;
#227=CARTESIAN_POINT('Axis2P3D Location',(0.,0.,0.)) ;
#232=CARTESIAN_POINT('Line Origine',(5.5,2.16506350946,0.)) ;
#53=DIRECTION('Axis2P3D Direction',(1.,0.,0.)) ;
#54=DIRECTION('Axis2P3D XDirection',(0.,-1.,0.)) ;
#58=DIRECTION('Vector Direction',(0.,0.,-1.)) ;
#67=DIRECTION('Vector Direction',(0.,1.,0.)) ;
#74=DIRECTION('Vector Direction',(0.,0.,-1.)) ;
#81=DIRECTION('Vector Direction',(0.,-1.,0.)) ;
#93=DIRECTION('Axis2P3D Direction',(0.,0.,1.)) ;
#94=DIRECTION('Axis2P3D XDirection',(1.,0.,0.)) ;
#98=DIRECTION('Axis2P3D Direction',(0.,0.,1.)) ;
#107=DIRECTION('Axis2P3D Direction',(0.,0.,1.)) ;
#112=DIRECTION('Vector Direction',(0.,-1.,0.)) ;
#123=DIRECTION('Axis2P3D Direction',(0.,0.,1.)) ;
#132=DIRECTION('Axis2P3D Direction',(0.,0.,1.)) ;
#142=DIRECTION('Axis2P3D Direction',(0.,0.,1.)) ;
#143=DIRECTION('Axis2P3D XDirection',(1.,0.,0.)) ;
#147=DIRECTION('Vector Direction',(0.,0.,1.)) ;
#154=DIRECTION('Axis2P3D Direction',(0.,0.,1.)) ;
#166=DIRECTION('Vector Direction',(0.,0.,1.)) ;
#173=DIRECTION('Axis2P3D Direction',(0.,0.,1.)) ;
#185=DIRECTION('Axis2P3D Direction',(0.,0.,1.)) ;
#186=DIRECTION('Axis2P3D XDirection',(1.,0.,0.)) ;
#190=DIRECTION('Vector Direction',(0.,0.,1.)) ;
#197=DIRECTION('Axis2P3D Direction',(0.,0.,1.)) ;
#204=DIRECTION('Vector Direction',(0.,0.,1.)) ;
#216=DIRECTION('Axis2P3D Direction',(0.,0.,1.)) ;
#228=DIRECTION('Axis2P3D Direction',(0.,0.,1.)) ;
#229=DIRECTION('Axis2P3D XDirection',(1.,0.,0.)) ;
#233=DIRECTION('Vector Direction',(0.,1.,0.)) ;
#48=AXIS2_PLACEMENT_3D(' ',#47,$,$) ;
#55=AXIS2_PLACEMENT_3D('Plane Axis2P3D',#52,#53,#54) ;
#95=AXIS2_PLACEMENT_3D('Plane Axis2P3D',#92,#93,#94) ;
#99=AXIS2_PLACEMENT_3D('Circle Axis2P3D',#97,#98,$) ;
#108=AXIS2_PLACEMENT_3D('Circle Axis2P3D',#106,#107,$) ;
#124=AXIS2_PLACEMENT_3D('Circle Axis2P3D',#122,#123,$) ;
#133=AXIS2_PLACEMENT_3D('Circle Axis2P3D',#131,#132,$) ;
#144=AXIS2_PLACEMENT_3D('Cylinder Axis2P3D',#141,#142,#143) ;
#155=AXIS2_PLACEMENT_3D('Circle Axis2P3D',#153,#154,$) ;
#174=AXIS2_PLACEMENT_3D('Circle Axis2P3D',#172,#173,$) ;
#187=AXIS2_PLACEMENT_3D('Cylinder Axis2P3D',#184,#185,#186) ;
#198=AXIS2_PLACEMENT_3D('Circle Axis2P3D',#196,#197,$) ;
#217=AXIS2_PLACEMENT_3D('Circle Axis2P3D',#215,#216,$) ;
#230=AXIS2_PLACEMENT_3D('Plane Axis2P3D',#227,#228,#229) ;
#40=PRODUCT_DEFINITION_SHAPE(' ',' ',#14) ;
#31=APPROVAL_PERSON_ORGANIZATION(#25,#21,#19) ;
#25=PERSON_AND_ORGANIZATION(#22,#23) ;
#22=PERSON(' ',' ',' ',$,$,$) ;
#23=ORGANIZATION(' ',' ',' ') ;
#21=APPROVAL(#20,' ') ;
#20=APPROVAL_STATUS('not_yet_approved') ;
#19=APPROVAL_ROLE('APPROVER') ;
#13=DATE_AND_TIME(#11,#12) ;
#12=LOCAL_TIME(12,24,6.,#10) ;
#10=COORDINATED_UNIVERSAL_TIME_OFFSET(0,0,.AHEAD.) ;
#86=ORIENTED_EDGE('',*,*,#65,.F.) ;
#87=ORIENTED_EDGE('',*,*,#72,.T.) ;
#88=ORIENTED_EDGE('',*,*,#79,.T.) ;
#89=ORIENTED_EDGE('',*,*,#84,.F.) ;
#117=ORIENTED_EDGE('',*,*,#105,.T.) ;
#118=ORIENTED_EDGE('',*,*,#110,.T.) ;
#119=ORIENTED_EDGE('',*,*,#72,.F.) ;
#120=ORIENTED_EDGE('',*,*,#115,.F.) ;
#137=ORIENTED_EDGE('',*,*,#130,.F.) ;
#138=ORIENTED_EDGE('',*,*,#135,.F.) ;
#159=ORIENTED_EDGE('',*,*,#110,.F.) ;
#160=ORIENTED_EDGE('',*,*,#152,.F.) ;
#161=ORIENTED_EDGE('',*,*,#157,.T.) ;
#162=ORIENTED_EDGE('',*,*,#79,.F.) ;
#178=ORIENTED_EDGE('',*,*,#171,.T.) ;
#179=ORIENTED_EDGE('',*,*,#176,.T.) ;
#180=ORIENTED_EDGE('',*,*,#152,.T.) ;
#181=ORIENTED_EDGE('',*,*,#105,.F.) ;
#209=ORIENTED_EDGE('',*,*,#135,.T.) ;
#210=ORIENTED_EDGE('',*,*,#195,.F.) ;
#211=ORIENTED_EDGE('',*,*,#202,.F.) ;
#212=ORIENTED_EDGE('',*,*,#207,.T.) ;
#221=ORIENTED_EDGE('',*,*,#130,.T.) ;
#222=ORIENTED_EDGE('',*,*,#207,.F.) ;
#223=ORIENTED_EDGE('',*,*,#219,.F.) ;
#224=ORIENTED_EDGE('',*,*,#195,.T.) ;
#238=ORIENTED_EDGE('',*,*,#157,.F.) ;
#239=ORIENTED_EDGE('',*,*,#176,.F.) ;
#240=ORIENTED_EDGE('',*,*,#236,.F.) ;
#241=ORIENTED_EDGE('',*,*,#84,.T.) ;
#244=ORIENTED_EDGE('',*,*,#202,.T.) ;
#245=ORIENTED_EDGE('',*,*,#219,.T.) ;
#249=ORIENTED_EDGE('',*,*,#115,.T.) ;
#250=ORIENTED_EDGE('',*,*,#65,.T.) ;
#251=ORIENTED_EDGE('',*,*,#236,.T.) ;
#252=ORIENTED_EDGE('',*,*,#171,.F.) ;
#139=FACE_BOUND('',#136,.T.) ;
#246=FACE_BOUND('',#243,.T.) ;
#51=CLOSED_SHELL('Closed Shell',(#91,#140,#164,#183,#214,#226,#247,#254)) ;
#59=VECTOR('Line Direction',#58,1.) ;
#68=VECTOR('Line Direction',#67,1.) ;
#75=VECTOR('Line Direction',#74,1.) ;
#82=VECTOR('Line Direction',#81,1.) ;
#113=VECTOR('Line Direction',#112,1.) ;
#148=VECTOR('Line Direction',#147,1.) ;
#167=VECTOR('Line Direction',#166,1.) ;
#191=VECTOR('Line Direction',#190,1.) ;
#205=VECTOR('Line Direction',#204,1.) ;
#234=VECTOR('Line Direction',#233,1.) ;
#256=ADVANCED_BREP_SHAPE_REPRESENTATION('NONE',(#255),#46) ;
#49=SHAPE_REPRESENTATION(' ',(#48),#46) ;
#91=ADVANCED_FACE('Corps principal',(#90),#56,.T.) ;
#140=ADVANCED_FACE('Corps principal',(#121,#139),#96,.T.) ;
#164=ADVANCED_FACE('Corps principal',(#163),#145,.T.) ;
#183=ADVANCED_FACE('Corps principal',(#182),#145,.T.) ;
#214=ADVANCED_FACE('Corps principal',(#213),#188,.F.) ;
#226=ADVANCED_FACE('Corps principal',(#225),#188,.F.) ;
#247=ADVANCED_FACE('Corps principal',(#242,#246),#231,.F.) ;
#254=ADVANCED_FACE('Corps principal',(#253),#56,.T.) ;
#4=APPLICATION_PROTOCOL_DEFINITION('international standard','config_control_design',1994,#1) ;
#32=APPROVAL_DATE_TIME(#13,#21) ;
#255=MANIFOLD_SOLID_BREP('Corps principal',#51) ;
#11=CALENDAR_DATE(2019,26,1) ;
#30=CC_DESIGN_APPROVAL(#21,(#16,#6,#14)) ;
#18=CC_DESIGN_DATE_AND_TIME_ASSIGNMENT(#13,#17,(#16)) ;
#29=CC_DESIGN_DATE_AND_TIME_ASSIGNMENT(#13,#28,(#14)) ;
#17=DATE_TIME_ROLE('classification_date') ;
#28=DATE_TIME_ROLE('creation_date') ;
#27=CC_DESIGN_PERSON_AND_ORGANIZATION_ASSIGNMENT(#25,#26,(#16)) ;
#33=CC_DESIGN_PERSON_AND_ORGANIZATION_ASSIGNMENT(#25,#34,(#6)) ;
#35=CC_DESIGN_PERSON_AND_ORGANIZATION_ASSIGNMENT(#25,#36,(#6,#14)) ;
#37=CC_DESIGN_PERSON_AND_ORGANIZATION_ASSIGNMENT(#25,#38,(#5)) ;
#26=PERSON_AND_ORGANIZATION_ROLE('classification_officer') ;
#34=PERSON_AND_ORGANIZATION_ROLE('design_supplier') ;
#36=PERSON_AND_ORGANIZATION_ROLE('creator') ;
#38=PERSON_AND_ORGANIZATION_ROLE('design_owner') ;
#39=CC_DESIGN_SECURITY_CLASSIFICATION(#16,(#6)) ;
#100=CIRCLE('generated circle',#99,7.) ;
#109=CIRCLE('generated circle',#108,7.) ;
#125=CIRCLE('generated circle',#124,3.1) ;
#134=CIRCLE('generated circle',#133,3.1) ;
#156=CIRCLE('generated circle',#155,7.) ;
#175=CIRCLE('generated circle',#174,7.) ;
#199=CIRCLE('generated circle',#198,3.1) ;
#218=CIRCLE('generated circle',#217,3.1) ;
#257=SHAPE_REPRESENTATION_RELATIONSHIP(' ',' ',#49,#256) ;
#145=CYLINDRICAL_SURFACE('generated cylinder',#144,7.) ;
#188=CYLINDRICAL_SURFACE('generated cylinder',#187,3.1) ;
#3=DESIGN_CONTEXT(' ',#1,'design') ;
#65=EDGE_CURVE('',#62,#64,#60,.T.) ;
#72=EDGE_CURVE('',#62,#71,#69,.F.) ;
#79=EDGE_CURVE('',#71,#78,#76,.T.) ;
#84=EDGE_CURVE('',#64,#78,#83,.T.) ;
#105=EDGE_CURVE('',#102,#104,#100,.T.) ;
#110=EDGE_CURVE('',#104,#71,#109,.T.) ;
#115=EDGE_CURVE('',#102,#62,#114,.T.) ;
#130=EDGE_CURVE('',#127,#129,#125,.T.) ;
#135=EDGE_CURVE('',#129,#127,#134,.T.) ;
#152=EDGE_CURVE('',#151,#104,#149,.T.) ;
#157=EDGE_CURVE('',#151,#78,#156,.T.) ;
#171=EDGE_CURVE('',#102,#170,#168,.F.) ;
#176=EDGE_CURVE('',#170,#151,#175,.T.) ;
#195=EDGE_CURVE('',#194,#127,#192,.T.) ;
#202=EDGE_CURVE('',#201,#194,#199,.T.) ;
#207=EDGE_CURVE('',#201,#129,#206,.T.) ;
#219=EDGE_CURVE('',#194,#201,#218,.T.) ;
#236=EDGE_CURVE('',#64,#170,#235,.T.) ;
#85=EDGE_LOOP('',(#86,#87,#88,#89)) ;
#116=EDGE_LOOP('',(#117,#118,#119,#120)) ;
#136=EDGE_LOOP('',(#137,#138)) ;
#158=EDGE_LOOP('',(#159,#160,#161,#162)) ;
#177=EDGE_LOOP('',(#178,#179,#180,#181)) ;
#208=EDGE_LOOP('',(#209,#210,#211,#212)) ;
#220=EDGE_LOOP('',(#221,#222,#223,#224)) ;
#237=EDGE_LOOP('',(#238,#239,#240,#241)) ;
#243=EDGE_LOOP('',(#244,#245)) ;
#248=EDGE_LOOP('',(#249,#250,#251,#252)) ;
#90=FACE_OUTER_BOUND('',#85,.T.) ;
#121=FACE_OUTER_BOUND('',#116,.T.) ;
#163=FACE_OUTER_BOUND('',#158,.T.) ;
#182=FACE_OUTER_BOUND('',#177,.T.) ;
#213=FACE_OUTER_BOUND('',#208,.T.) ;
#225=FACE_OUTER_BOUND('',#220,.T.) ;
#242=FACE_OUTER_BOUND('',#237,.T.) ;
#253=FACE_OUTER_BOUND('',#248,.T.) ;
#45=UNCERTAINTY_MEASURE_WITH_UNIT(LENGTH_MEASURE(0.005),#41,'distance_accuracy_value','CONFUSED CURVE UNCERTAINTY') ;
#60=LINE('Line',#57,#59) ;
#69=LINE('Line',#66,#68) ;
#76=LINE('Line',#73,#75) ;
#83=LINE('Line',#80,#82) ;
#114=LINE('Line',#111,#113) ;
#149=LINE('Line',#146,#148) ;
#168=LINE('Line',#165,#167) ;
#192=LINE('Line',#189,#191) ;
#206=LINE('Line',#203,#205) ;
#235=LINE('Line',#232,#234) ;
#2=MECHANICAL_CONTEXT(' ',#1,'mechanical') ;
#24=PERSONAL_ADDRESS(' ',' ',' ',' ',' ',' ',' ',' ',' ',' ',' ',' ',(#22),' ') ;
#56=PLANE('',#55) ;
#96=PLANE('',#95) ;
#231=PLANE('',#230) ;
#43=PLANE_ANGLE_MEASURE_WITH_UNIT(PLANE_ANGLE_MEASURE(0.0174532925199),#42) ;
#7=PRODUCT_CATEGORY('part',$) ;
#9=PRODUCT_CATEGORY_RELATIONSHIP(' ',' ',#7,#8) ;
#6=PRODUCT_DEFINITION_FORMATION_WITH_SPECIFIED_SOURCE('',' ',#5,.NOT_KNOWN.) ;
#8=PRODUCT_RELATED_PRODUCT_CATEGORY('detail',$,(#5)) ;
#50=SHAPE_DEFINITION_REPRESENTATION(#40,#49) ;
#62=VERTEX_POINT('',#61) ;
#64=VERTEX_POINT('',#63) ;
#71=VERTEX_POINT('',#70) ;
#78=VERTEX_POINT('',#77) ;
#102=VERTEX_POINT('',#101) ;
#104=VERTEX_POINT('',#103) ;
#127=VERTEX_POINT('',#126) ;
#129=VERTEX_POINT('',#128) ;
#151=VERTEX_POINT('',#150) ;
#170=VERTEX_POINT('',#169) ;
#194=VERTEX_POINT('',#193) ;
#201=VERTEX_POINT('',#200) ;
#41=(LENGTH_UNIT()NAMED_UNIT(*)SI_UNIT(.MILLI.,.METRE.)) ;
#42=(NAMED_UNIT(*)PLANE_ANGLE_UNIT()SI_UNIT($,.RADIAN.)) ;
#44=(NAMED_UNIT(*)SI_UNIT($,.STERADIAN.)SOLID_ANGLE_UNIT()) ;
#46=(GEOMETRIC_REPRESENTATION_CONTEXT(3)GLOBAL_UNCERTAINTY_ASSIGNED_CONTEXT((#45))GLOBAL_UNIT_ASSIGNED_CONTEXT((#41,#42,#44))REPRESENTATION_CONTEXT(' ',' ')) ;
ENDSEC;
END-ISO-10303-21;
