ISO-10303-21;
HEADER;
FILE_DESCRIPTION(('CATIA V5 STEP Exchange'),'2;1');

FILE_NAME('D:\\Projet Splitboard\\Chaussure Splitboard\\Consultation 19-01\\Axe D8-32.stp','2019-01-25T18:46:53+00:00',('none'),('none'),'CATIA Version 5 Release 21 GA (IN-10)','CATIA V5 STEP AP203','none');

FILE_SCHEMA(('CONFIG_CONTROL_DESIGN'));

ENDSEC;
/* file written by CATIA V5R21 */
DATA;
#5=PRODUCT('Goupille allegee - D8-32','','',(#2)) ;
#1=APPLICATION_CONTEXT('configuration controlled 3D design of mechanical parts and assemblies') ;
#14=PRODUCT_DEFINITION('',' ',#6,#3) ;
#16=SECURITY_CLASSIFICATION(' ',' ',#15) ;
#15=SECURITY_CLASSIFICATION_LEVEL('unclassified') ;
#47=CARTESIAN_POINT(' ',(0.,0.,0.)) ;
#52=CARTESIAN_POINT('Axis2P3D Location',(-15.9,0.,0.)) ;
#57=CARTESIAN_POINT('Line Origine',(-3.5527136788E-015,-1.75516512378,-0.958851077208)) ;
#61=CARTESIAN_POINT('Vertex',(16.,-1.75516512378,-0.958851077208)) ;
#63=CARTESIAN_POINT('Vertex',(-16.,-1.75516512378,-0.958851077208)) ;
#66=CARTESIAN_POINT('Axis2P3D Location',(16.,0.,0.)) ;
#70=CARTESIAN_POINT('Vertex',(16.,1.75516512378,0.958851077208)) ;
#73=CARTESIAN_POINT('Line Origine',(-3.5527136788E-015,1.75516512378,0.958851077208)) ;
#77=CARTESIAN_POINT('Vertex',(-16.,1.75516512378,0.958851077208)) ;
#80=CARTESIAN_POINT('Axis2P3D Location',(-16.,0.,0.)) ;
#92=CARTESIAN_POINT('Axis2P3D Location',(16.,0.,0.)) ;
#97=CARTESIAN_POINT('Axis2P3D Location',(-16.,0.,0.)) ;
#109=CARTESIAN_POINT('Axis2P3D Location',(16.,0.,0.)) ;
#114=CARTESIAN_POINT('Axis2P3D Location',(16.,-3.60822483003E-016,-1.99840144433E-013)) ;
#118=CARTESIAN_POINT('Vertex',(16.,-3.,1.42733830553E-007)) ;
#120=CARTESIAN_POINT('Vertex',(16.,3.,-3.39929907139E-015)) ;
#123=CARTESIAN_POINT('Axis2P3D Location',(16.,6.41414005242E-015,-3.18772785945E-014)) ;
#137=CARTESIAN_POINT('Axis2P3D Location',(19.,-1.72750702632E-013,-2.28905783217E-012)) ;
#142=CARTESIAN_POINT('Line Origine',(15.5,-3.5,-1.0641487691E-013)) ;
#146=CARTESIAN_POINT('Vertex',(15.,-4.,4.89842541529E-016)) ;
#149=CARTESIAN_POINT('Axis2P3D Location',(15.,4.44089209876E-016,1.55431223482E-015)) ;
#153=CARTESIAN_POINT('Vertex',(15.,4.,-9.79685083058E-016)) ;
#156=CARTESIAN_POINT('Line Origine',(15.5,3.5,-1.06969988422E-013)) ;
#168=CARTESIAN_POINT('Axis2P3D Location',(19.,1.33226762955E-015,-1.33226762955E-015)) ;
#173=CARTESIAN_POINT('Axis2P3D Location',(15.,-4.4408920985E-016,4.4408920985E-016)) ;
#185=CARTESIAN_POINT('Axis2P3D Location',(0.,0.,0.)) ;
#190=CARTESIAN_POINT('Line Origine',(0.,4.,-9.79685083058E-016)) ;
#194=CARTESIAN_POINT('Vertex',(-15.,4.,-9.79685083058E-016)) ;
#197=CARTESIAN_POINT('Line Origine',(0.,-4.,4.89842541529E-016)) ;
#201=CARTESIAN_POINT('Vertex',(-15.,-4.,4.89842541529E-016)) ;
#204=CARTESIAN_POINT('Axis2P3D Location',(-15.,0.,0.)) ;
#216=CARTESIAN_POINT('Axis2P3D Location',(-15.,0.,0.)) ;
#228=CARTESIAN_POINT('Axis2P3D Location',(-19.,-3.43725048424E-013,-5.78204151225E-013)) ;
#233=CARTESIAN_POINT('Line Origine',(-15.5,-3.5,6.57615188249E-007)) ;
#237=CARTESIAN_POINT('Vertex',(-16.,-3.,1.42733825182E-007)) ;
#240=CARTESIAN_POINT('Axis2P3D Location',(-16.,-8.5931262106E-014,-1.44551037806E-013)) ;
#244=CARTESIAN_POINT('Vertex',(-16.,3.,-1.79652299981E-016)) ;
#247=CARTESIAN_POINT('Line Origine',(-15.5,3.5,5.45674616603E-014)) ;
#259=CARTESIAN_POINT('Axis2P3D Location',(-19.,0.,-6.66133814775E-016)) ;
#264=CARTESIAN_POINT('Axis2P3D Location',(-16.,0.,0.)) ;
#276=CARTESIAN_POINT('Axis2P3D Location',(-16.,0.,0.)) ;
#53=DIRECTION('Axis2P3D Direction',(1.,0.,-0.)) ;
#54=DIRECTION('Axis2P3D XDirection',(0.,0.87758256189,0.479425538604)) ;
#58=DIRECTION('Vector Direction',(1.,0.,0.)) ;
#67=DIRECTION('Axis2P3D Direction',(1.,0.,-0.)) ;
#74=DIRECTION('Vector Direction',(1.,0.,0.)) ;
#81=DIRECTION('Axis2P3D Direction',(1.,0.,-0.)) ;
#93=DIRECTION('Axis2P3D Direction',(1.,0.,-0.)) ;
#98=DIRECTION('Axis2P3D Direction',(1.,0.,-0.)) ;
#110=DIRECTION('Axis2P3D Direction',(1.,0.,0.)) ;
#111=DIRECTION('Axis2P3D XDirection',(0.,1.,0.)) ;
#115=DIRECTION('Axis2P3D Direction',(1.,0.,0.)) ;
#124=DIRECTION('Axis2P3D Direction',(1.,0.,0.)) ;
#138=DIRECTION('Axis2P3D Direction',(-1.,4.32986979604E-014,5.72653036102E-013)) ;
#139=DIRECTION('Axis2P3D XDirection',(1.51992072442E-013,-0.94158563333,0.336773655601)) ;
#143=DIRECTION('Vector Direction',(-0.707106781187,-0.707106781186,4.40960467021E-013)) ;
#150=DIRECTION('Axis2P3D Direction',(1.,-1.86499771997E-013,-5.21434806466E-013)) ;
#157=DIRECTION('Vector Direction',(-0.707106781187,0.707106781187,4.40803457776E-013)) ;
#169=DIRECTION('Axis2P3D Direction',(-1.,-4.4408920985E-016,4.4408920985E-016)) ;
#170=DIRECTION('Axis2P3D XDirection',(-3.9512670479E-016,1.,-4.97919847714E-017)) ;
#174=DIRECTION('Axis2P3D Direction',(1.,-2.2112083174E-032,-4.4408920985E-016)) ;
#186=DIRECTION('Axis2P3D Direction',(1.,0.,0.)) ;
#187=DIRECTION('Axis2P3D XDirection',(0.,1.,0.)) ;
#191=DIRECTION('Vector Direction',(1.,0.,0.)) ;
#198=DIRECTION('Vector Direction',(1.,0.,0.)) ;
#205=DIRECTION('Axis2P3D Direction',(1.,0.,0.)) ;
#217=DIRECTION('Axis2P3D Direction',(1.,0.,0.)) ;
#229=DIRECTION('Axis2P3D Direction',(1.,8.5931262106E-014,1.44551037806E-013)) ;
#230=DIRECTION('Axis2P3D XDirection',(4.4385899838E-014,-0.964041296752,0.265752475355)) ;
#234=DIRECTION('Vector Direction',(0.707106781187,-0.707106781187,1.32858448009E-007)) ;
#241=DIRECTION('Axis2P3D Direction',(1.,4.31022918089E-014,1.56357487293E-013)) ;
#248=DIRECTION('Vector Direction',(0.707106781186,0.707106781187,1.2788403076E-013)) ;
#260=DIRECTION('Axis2P3D Direction',(1.,0.,2.22044604925E-016)) ;
#261=DIRECTION('Axis2P3D XDirection',(0.,1.,5.71916645986E-018)) ;
#265=DIRECTION('Axis2P3D Direction',(1.,-1.26991005708E-033,2.22044604925E-016)) ;
#277=DIRECTION('Axis2P3D Direction',(1.,0.,0.)) ;
#278=DIRECTION('Axis2P3D XDirection',(0.,1.,0.)) ;
#48=AXIS2_PLACEMENT_3D(' ',#47,$,$) ;
#55=AXIS2_PLACEMENT_3D('Cylinder Axis2P3D',#52,#53,#54) ;
#68=AXIS2_PLACEMENT_3D('Circle Axis2P3D',#66,#67,$) ;
#82=AXIS2_PLACEMENT_3D('Circle Axis2P3D',#80,#81,$) ;
#94=AXIS2_PLACEMENT_3D('Circle Axis2P3D',#92,#93,$) ;
#99=AXIS2_PLACEMENT_3D('Circle Axis2P3D',#97,#98,$) ;
#112=AXIS2_PLACEMENT_3D('Plane Axis2P3D',#109,#110,#111) ;
#116=AXIS2_PLACEMENT_3D('Circle Axis2P3D',#114,#115,$) ;
#125=AXIS2_PLACEMENT_3D('Circle Axis2P3D',#123,#124,$) ;
#140=AXIS2_PLACEMENT_3D('Cone Axis2P3D',#137,#138,#139) ;
#151=AXIS2_PLACEMENT_3D('Circle Axis2P3D',#149,#150,$) ;
#171=AXIS2_PLACEMENT_3D('Cone Axis2P3D',#168,#169,#170) ;
#175=AXIS2_PLACEMENT_3D('Circle Axis2P3D',#173,#174,$) ;
#188=AXIS2_PLACEMENT_3D('Cylinder Axis2P3D',#185,#186,#187) ;
#206=AXIS2_PLACEMENT_3D('Circle Axis2P3D',#204,#205,$) ;
#218=AXIS2_PLACEMENT_3D('Circle Axis2P3D',#216,#217,$) ;
#231=AXIS2_PLACEMENT_3D('Cone Axis2P3D',#228,#229,#230) ;
#242=AXIS2_PLACEMENT_3D('Circle Axis2P3D',#240,#241,$) ;
#262=AXIS2_PLACEMENT_3D('Cone Axis2P3D',#259,#260,#261) ;
#266=AXIS2_PLACEMENT_3D('Circle Axis2P3D',#264,#265,$) ;
#279=AXIS2_PLACEMENT_3D('Plane Axis2P3D',#276,#277,#278) ;
#40=PRODUCT_DEFINITION_SHAPE(' ',' ',#14) ;
#31=APPROVAL_PERSON_ORGANIZATION(#25,#21,#19) ;
#25=PERSON_AND_ORGANIZATION(#22,#23) ;
#22=PERSON(' ',' ',' ',$,$,$) ;
#23=ORGANIZATION(' ',' ',' ') ;
#21=APPROVAL(#20,' ') ;
#20=APPROVAL_STATUS('not_yet_approved') ;
#19=APPROVAL_ROLE('APPROVER') ;
#13=DATE_AND_TIME(#11,#12) ;
#12=LOCAL_TIME(19,46,53.,#10) ;
#10=COORDINATED_UNIVERSAL_TIME_OFFSET(0,0,.AHEAD.) ;
#86=ORIENTED_EDGE('',*,*,#65,.F.) ;
#87=ORIENTED_EDGE('',*,*,#72,.T.) ;
#88=ORIENTED_EDGE('',*,*,#79,.T.) ;
#89=ORIENTED_EDGE('',*,*,#84,.F.) ;
#103=ORIENTED_EDGE('',*,*,#79,.F.) ;
#104=ORIENTED_EDGE('',*,*,#96,.T.) ;
#105=ORIENTED_EDGE('',*,*,#65,.T.) ;
#106=ORIENTED_EDGE('',*,*,#101,.F.) ;
#129=ORIENTED_EDGE('',*,*,#122,.T.) ;
#130=ORIENTED_EDGE('',*,*,#127,.T.) ;
#133=ORIENTED_EDGE('',*,*,#96,.F.) ;
#134=ORIENTED_EDGE('',*,*,#72,.F.) ;
#162=ORIENTED_EDGE('',*,*,#148,.T.) ;
#163=ORIENTED_EDGE('',*,*,#155,.T.) ;
#164=ORIENTED_EDGE('',*,*,#160,.F.) ;
#165=ORIENTED_EDGE('',*,*,#122,.F.) ;
#179=ORIENTED_EDGE('',*,*,#160,.T.) ;
#180=ORIENTED_EDGE('',*,*,#177,.T.) ;
#181=ORIENTED_EDGE('',*,*,#148,.F.) ;
#182=ORIENTED_EDGE('',*,*,#127,.F.) ;
#210=ORIENTED_EDGE('',*,*,#196,.F.) ;
#211=ORIENTED_EDGE('',*,*,#155,.F.) ;
#212=ORIENTED_EDGE('',*,*,#203,.T.) ;
#213=ORIENTED_EDGE('',*,*,#208,.T.) ;
#222=ORIENTED_EDGE('',*,*,#203,.F.) ;
#223=ORIENTED_EDGE('',*,*,#177,.F.) ;
#224=ORIENTED_EDGE('',*,*,#196,.T.) ;
#225=ORIENTED_EDGE('',*,*,#220,.T.) ;
#253=ORIENTED_EDGE('',*,*,#239,.T.) ;
#254=ORIENTED_EDGE('',*,*,#246,.T.) ;
#255=ORIENTED_EDGE('',*,*,#251,.F.) ;
#256=ORIENTED_EDGE('',*,*,#208,.F.) ;
#270=ORIENTED_EDGE('',*,*,#251,.T.) ;
#271=ORIENTED_EDGE('',*,*,#268,.T.) ;
#272=ORIENTED_EDGE('',*,*,#239,.F.) ;
#273=ORIENTED_EDGE('',*,*,#220,.F.) ;
#282=ORIENTED_EDGE('',*,*,#268,.F.) ;
#283=ORIENTED_EDGE('',*,*,#246,.F.) ;
#286=ORIENTED_EDGE('',*,*,#84,.T.) ;
#287=ORIENTED_EDGE('',*,*,#101,.T.) ;
#135=FACE_BOUND('',#132,.T.) ;
#288=FACE_BOUND('',#285,.T.) ;
#51=CLOSED_SHELL('Closed Shell',(#91,#108,#136,#167,#184,#215,#227,#258,#275,#289)) ;
#59=VECTOR('Line Direction',#58,1.) ;
#75=VECTOR('Line Direction',#74,1.) ;
#144=VECTOR('Line Direction',#143,1.) ;
#158=VECTOR('Line Direction',#157,1.) ;
#192=VECTOR('Line Direction',#191,1.) ;
#199=VECTOR('Line Direction',#198,1.) ;
#235=VECTOR('Line Direction',#234,1.) ;
#249=VECTOR('Line Direction',#248,1.) ;
#291=ADVANCED_BREP_SHAPE_REPRESENTATION('NONE',(#290),#46) ;
#49=SHAPE_REPRESENTATION(' ',(#48),#46) ;
#91=ADVANCED_FACE('Corps principal',(#90),#56,.F.) ;
#108=ADVANCED_FACE('Corps principal',(#107),#56,.F.) ;
#136=ADVANCED_FACE('Corps principal',(#131,#135),#113,.T.) ;
#167=ADVANCED_FACE('Corps principal',(#166),#141,.T.) ;
#184=ADVANCED_FACE('Corps principal',(#183),#172,.T.) ;
#215=ADVANCED_FACE('Corps principal',(#214),#189,.T.) ;
#227=ADVANCED_FACE('Corps principal',(#226),#189,.T.) ;
#258=ADVANCED_FACE('Corps principal',(#257),#232,.T.) ;
#275=ADVANCED_FACE('Corps principal',(#274),#263,.T.) ;
#289=ADVANCED_FACE('Corps principal',(#284,#288),#280,.F.) ;
#4=APPLICATION_PROTOCOL_DEFINITION('international standard','config_control_design',1994,#1) ;
#32=APPROVAL_DATE_TIME(#13,#21) ;
#290=MANIFOLD_SOLID_BREP('Corps principal',#51) ;
#11=CALENDAR_DATE(2019,25,1) ;
#30=CC_DESIGN_APPROVAL(#21,(#16,#6,#14)) ;
#18=CC_DESIGN_DATE_AND_TIME_ASSIGNMENT(#13,#17,(#16)) ;
#29=CC_DESIGN_DATE_AND_TIME_ASSIGNMENT(#13,#28,(#14)) ;
#17=DATE_TIME_ROLE('classification_date') ;
#28=DATE_TIME_ROLE('creation_date') ;
#27=CC_DESIGN_PERSON_AND_ORGANIZATION_ASSIGNMENT(#25,#26,(#16)) ;
#33=CC_DESIGN_PERSON_AND_ORGANIZATION_ASSIGNMENT(#25,#34,(#6)) ;
#35=CC_DESIGN_PERSON_AND_ORGANIZATION_ASSIGNMENT(#25,#36,(#6,#14)) ;
#37=CC_DESIGN_PERSON_AND_ORGANIZATION_ASSIGNMENT(#25,#38,(#5)) ;
#26=PERSON_AND_ORGANIZATION_ROLE('classification_officer') ;
#34=PERSON_AND_ORGANIZATION_ROLE('design_supplier') ;
#36=PERSON_AND_ORGANIZATION_ROLE('creator') ;
#38=PERSON_AND_ORGANIZATION_ROLE('design_owner') ;
#39=CC_DESIGN_SECURITY_CLASSIFICATION(#16,(#6)) ;
#69=CIRCLE('generated circle',#68,2.) ;
#83=CIRCLE('generated circle',#82,2.) ;
#95=CIRCLE('generated circle',#94,2.) ;
#100=CIRCLE('generated circle',#99,2.) ;
#117=CIRCLE('generated circle',#116,3.) ;
#126=CIRCLE('generated circle',#125,3.) ;
#152=CIRCLE('generated circle',#151,4.) ;
#176=CIRCLE('generated circle',#175,4.) ;
#207=CIRCLE('generated circle',#206,4.) ;
#219=CIRCLE('generated circle',#218,4.) ;
#243=CIRCLE('generated circle',#242,3.) ;
#267=CIRCLE('generated circle',#266,3.) ;
#141=CONICAL_SURFACE('Cone',#140,0.,0.785398163397) ;
#172=CONICAL_SURFACE('Cone',#171,0.,0.785398163397) ;
#232=CONICAL_SURFACE('Cone',#231,0.,0.785398163397) ;
#263=CONICAL_SURFACE('Cone',#262,0.,0.785398163397) ;
#292=SHAPE_REPRESENTATION_RELATIONSHIP(' ',' ',#49,#291) ;
#56=CYLINDRICAL_SURFACE('generated cylinder',#55,2.) ;
#189=CYLINDRICAL_SURFACE('generated cylinder',#188,4.) ;
#3=DESIGN_CONTEXT(' ',#1,'design') ;
#65=EDGE_CURVE('',#62,#64,#60,.F.) ;
#72=EDGE_CURVE('',#62,#71,#69,.T.) ;
#79=EDGE_CURVE('',#71,#78,#76,.F.) ;
#84=EDGE_CURVE('',#64,#78,#83,.T.) ;
#96=EDGE_CURVE('',#71,#62,#95,.T.) ;
#101=EDGE_CURVE('',#78,#64,#100,.T.) ;
#122=EDGE_CURVE('',#119,#121,#117,.T.) ;
#127=EDGE_CURVE('',#121,#119,#126,.T.) ;
#148=EDGE_CURVE('',#119,#147,#145,.T.) ;
#155=EDGE_CURVE('',#147,#154,#152,.T.) ;
#160=EDGE_CURVE('',#121,#154,#159,.T.) ;
#177=EDGE_CURVE('',#154,#147,#176,.T.) ;
#196=EDGE_CURVE('',#154,#195,#193,.F.) ;
#203=EDGE_CURVE('',#147,#202,#200,.F.) ;
#208=EDGE_CURVE('',#202,#195,#207,.T.) ;
#220=EDGE_CURVE('',#195,#202,#219,.T.) ;
#239=EDGE_CURVE('',#202,#238,#236,.F.) ;
#246=EDGE_CURVE('',#238,#245,#243,.T.) ;
#251=EDGE_CURVE('',#195,#245,#250,.F.) ;
#268=EDGE_CURVE('',#245,#238,#267,.T.) ;
#85=EDGE_LOOP('',(#86,#87,#88,#89)) ;
#102=EDGE_LOOP('',(#103,#104,#105,#106)) ;
#128=EDGE_LOOP('',(#129,#130)) ;
#132=EDGE_LOOP('',(#133,#134)) ;
#161=EDGE_LOOP('',(#162,#163,#164,#165)) ;
#178=EDGE_LOOP('',(#179,#180,#181,#182)) ;
#209=EDGE_LOOP('',(#210,#211,#212,#213)) ;
#221=EDGE_LOOP('',(#222,#223,#224,#225)) ;
#252=EDGE_LOOP('',(#253,#254,#255,#256)) ;
#269=EDGE_LOOP('',(#270,#271,#272,#273)) ;
#281=EDGE_LOOP('',(#282,#283)) ;
#285=EDGE_LOOP('',(#286,#287)) ;
#90=FACE_OUTER_BOUND('',#85,.T.) ;
#107=FACE_OUTER_BOUND('',#102,.T.) ;
#131=FACE_OUTER_BOUND('',#128,.T.) ;
#166=FACE_OUTER_BOUND('',#161,.T.) ;
#183=FACE_OUTER_BOUND('',#178,.T.) ;
#214=FACE_OUTER_BOUND('',#209,.T.) ;
#226=FACE_OUTER_BOUND('',#221,.T.) ;
#257=FACE_OUTER_BOUND('',#252,.T.) ;
#274=FACE_OUTER_BOUND('',#269,.T.) ;
#284=FACE_OUTER_BOUND('',#281,.T.) ;
#45=UNCERTAINTY_MEASURE_WITH_UNIT(LENGTH_MEASURE(0.005),#41,'distance_accuracy_value','CONFUSED CURVE UNCERTAINTY') ;
#60=LINE('Line',#57,#59) ;
#76=LINE('Line',#73,#75) ;
#145=LINE('Line',#142,#144) ;
#159=LINE('Line',#156,#158) ;
#193=LINE('Line',#190,#192) ;
#200=LINE('Line',#197,#199) ;
#236=LINE('Line',#233,#235) ;
#250=LINE('Line',#247,#249) ;
#2=MECHANICAL_CONTEXT(' ',#1,'mechanical') ;
#24=PERSONAL_ADDRESS(' ',' ',' ',' ',' ',' ',' ',' ',' ',' ',' ',' ',(#22),' ') ;
#113=PLANE('',#112) ;
#280=PLANE('',#279) ;
#43=PLANE_ANGLE_MEASURE_WITH_UNIT(PLANE_ANGLE_MEASURE(0.0174532925199),#42) ;
#7=PRODUCT_CATEGORY('part',$) ;
#9=PRODUCT_CATEGORY_RELATIONSHIP(' ',' ',#7,#8) ;
#6=PRODUCT_DEFINITION_FORMATION_WITH_SPECIFIED_SOURCE('',' ',#5,.NOT_KNOWN.) ;
#8=PRODUCT_RELATED_PRODUCT_CATEGORY('detail',$,(#5)) ;
#50=SHAPE_DEFINITION_REPRESENTATION(#40,#49) ;
#62=VERTEX_POINT('',#61) ;
#64=VERTEX_POINT('',#63) ;
#71=VERTEX_POINT('',#70) ;
#78=VERTEX_POINT('',#77) ;
#119=VERTEX_POINT('',#118) ;
#121=VERTEX_POINT('',#120) ;
#147=VERTEX_POINT('',#146) ;
#154=VERTEX_POINT('',#153) ;
#195=VERTEX_POINT('',#194) ;
#202=VERTEX_POINT('',#201) ;
#238=VERTEX_POINT('',#237) ;
#245=VERTEX_POINT('',#244) ;
#41=(LENGTH_UNIT()NAMED_UNIT(*)SI_UNIT(.MILLI.,.METRE.)) ;
#42=(NAMED_UNIT(*)PLANE_ANGLE_UNIT()SI_UNIT($,.RADIAN.)) ;
#44=(NAMED_UNIT(*)SI_UNIT($,.STERADIAN.)SOLID_ANGLE_UNIT()) ;
#46=(GEOMETRIC_REPRESENTATION_CONTEXT(3)GLOBAL_UNCERTAINTY_ASSIGNED_CONTEXT((#45))GLOBAL_UNIT_ASSIGNED_CONTEXT((#41,#42,#44))REPRESENTATION_CONTEXT(' ',' ')) ;
ENDSEC;
END-ISO-10303-21;
