ISO-10303-21;
HEADER;
FILE_DESCRIPTION(('CATIA V5 STEP Exchange'),'2;1');

FILE_NAME('D:\\Projet Splitboard\\Chaussure Splitboard\\Consultation 19-01\\Axe D8-39.stp','2019-01-25T18:39:44+00:00',('none'),('none'),'CATIA Version 5 Release 21 GA (IN-10)','CATIA V5 STEP AP203','none');

FILE_SCHEMA(('CONFIG_CONTROL_DESIGN'));

ENDSEC;
/* file written by CATIA V5R21 */
DATA;
#5=PRODUCT('Axe D8-39','','',(#2)) ;
#1=APPLICATION_CONTEXT('configuration controlled 3D design of mechanical parts and assemblies') ;
#14=PRODUCT_DEFINITION('',' ',#6,#3) ;
#16=SECURITY_CLASSIFICATION(' ',' ',#15) ;
#15=SECURITY_CLASSIFICATION_LEVEL('unclassified') ;
#47=CARTESIAN_POINT(' ',(0.,0.,0.)) ;
#52=CARTESIAN_POINT('Axis2P3D Location',(-7.32747196251E-015,-19.4,-3.17856851949E-013)) ;
#57=CARTESIAN_POINT('Line Origine',(-1.75516512378,0.,0.958851077208)) ;
#61=CARTESIAN_POINT('Vertex',(-1.75516512378,19.5,0.958851077208)) ;
#63=CARTESIAN_POINT('Vertex',(-1.75516512378,-19.5,0.958851077208)) ;
#66=CARTESIAN_POINT('Axis2P3D Location',(-7.32747196251E-015,19.5,-3.17856851949E-013)) ;
#70=CARTESIAN_POINT('Vertex',(1.75516512378,19.5,-0.958851077209)) ;
#73=CARTESIAN_POINT('Line Origine',(1.75516512378,0.,-0.958851077209)) ;
#77=CARTESIAN_POINT('Vertex',(1.75516512378,-19.5,-0.958851077209)) ;
#80=CARTESIAN_POINT('Axis2P3D Location',(-7.32747196251E-015,-19.5,-3.17856851949E-013)) ;
#92=CARTESIAN_POINT('Axis2P3D Location',(0.,-19.5,0.)) ;
#97=CARTESIAN_POINT('Axis2P3D Location',(-3.08563938289E-015,-19.5,-1.56846757804E-013)) ;
#101=CARTESIAN_POINT('Vertex',(-3.5,-19.5,2.61993052904E-007)) ;
#103=CARTESIAN_POINT('Vertex',(3.5,-19.5,-2.27275880406E-015)) ;
#106=CARTESIAN_POINT('Axis2P3D Location',(-3.55028506593E-014,-19.5,7.77156117238E-016)) ;
#115=CARTESIAN_POINT('Axis2P3D Location',(-7.21644966006E-015,-19.5,-3.17967874253E-013)) ;
#125=CARTESIAN_POINT('Axis2P3D Location',(-7.32747196251E-015,19.5,-3.17856851949E-013)) ;
#137=CARTESIAN_POINT('Axis2P3D Location',(-5.86197757002E-014,-23.,-2.54518628395E-012)) ;
#142=CARTESIAN_POINT('Line Origine',(-3.75,-19.25,6.14175377224E-013)) ;
#146=CARTESIAN_POINT('Vertex',(-4.,-19.,4.89842541529E-016)) ;
#149=CARTESIAN_POINT('Axis2P3D Location',(2.08890367703E-026,-19.,3.33066908295E-016)) ;
#153=CARTESIAN_POINT('Vertex',(4.,-19.,-9.79685083058E-016)) ;
#156=CARTESIAN_POINT('Line Origine',(3.75,-19.25,6.12065953477E-013)) ;
#168=CARTESIAN_POINT('Axis2P3D Location',(-7.85593812225E-013,-23.,1.22546417458E-012)) ;
#173=CARTESIAN_POINT('Axis2P3D Location',(-4.44089209696E-016,-19.,-2.22044605166E-016)) ;
#185=CARTESIAN_POINT('Axis2P3D Location',(0.,0.,0.)) ;
#190=CARTESIAN_POINT('Line Origine',(4.,0.,-9.79685083058E-016)) ;
#194=CARTESIAN_POINT('Vertex',(4.,19.,-9.79685083058E-016)) ;
#197=CARTESIAN_POINT('Line Origine',(-4.,0.,4.89842541529E-016)) ;
#201=CARTESIAN_POINT('Vertex',(-4.,19.,4.89842541529E-016)) ;
#204=CARTESIAN_POINT('Axis2P3D Location',(0.,19.,0.)) ;
#216=CARTESIAN_POINT('Axis2P3D Location',(0.,19.,0.)) ;
#228=CARTESIAN_POINT('Axis2P3D Location',(0.,23.,6.70574706874E-014)) ;
#233=CARTESIAN_POINT('Line Origine',(-3.75,19.25,9.07541290007E-007)) ;
#237=CARTESIAN_POINT('Vertex',(-3.5,19.5,2.61993053153E-007)) ;
#240=CARTESIAN_POINT('Axis2P3D Location',(0.,19.5,7.9936057773E-015)) ;
#244=CARTESIAN_POINT('Vertex',(3.5,19.5,-2.02295862353E-015)) ;
#247=CARTESIAN_POINT('Line Origine',(3.75,19.25,-1.22679644221E-014)) ;
#259=CARTESIAN_POINT('Axis2P3D Location',(-7.87370169064E-013,23.,1.22724053142E-012)) ;
#264=CARTESIAN_POINT('Axis2P3D Location',(-9.88098491915E-014,19.5,1.53210777398E-013)) ;
#276=CARTESIAN_POINT('Axis2P3D Location',(0.,19.5,0.)) ;
#53=DIRECTION('Axis2P3D Direction',(-0.,1.,0.)) ;
#54=DIRECTION('Axis2P3D XDirection',(0.87758256189,0.,-0.479425538604)) ;
#58=DIRECTION('Vector Direction',(0.,1.,0.)) ;
#67=DIRECTION('Axis2P3D Direction',(-0.,1.,0.)) ;
#74=DIRECTION('Vector Direction',(0.,1.,0.)) ;
#81=DIRECTION('Axis2P3D Direction',(-0.,1.,0.)) ;
#93=DIRECTION('Axis2P3D Direction',(-0.,-1.,0.)) ;
#94=DIRECTION('Axis2P3D XDirection',(1.,-0.,-0.)) ;
#98=DIRECTION('Axis2P3D Direction',(-0.,-1.,0.)) ;
#107=DIRECTION('Axis2P3D Direction',(-0.,-1.,0.)) ;
#116=DIRECTION('Axis2P3D Direction',(-0.,-1.,0.)) ;
#126=DIRECTION('Axis2P3D Direction',(-0.,1.,0.)) ;
#138=DIRECTION('Axis2P3D Direction',(1.46549439251E-014,1.,6.36379837715E-013)) ;
#139=DIRECTION('Axis2P3D XDirection',(-0.81545142992,-3.5640428772E-013,0.578825505175)) ;
#143=DIRECTION('Vector Direction',(-0.707106781186,0.707106781187,5.96007097316E-013)) ;
#150=DIRECTION('Axis2P3D Direction',(-3.05283860818E-013,-1.,-4.3008498867E-013)) ;
#157=DIRECTION('Vector Direction',(0.707106781186,0.707106781187,5.95693078825E-013)) ;
#169=DIRECTION('Axis2P3D Direction',(1.96287430754E-013,1.,-3.06421554797E-013)) ;
#170=DIRECTION('Axis2P3D XDirection',(1.,-1.96246263379E-013,1.16741468983E-016)) ;
#174=DIRECTION('Axis2P3D Direction',(-3.57721024164E-029,-1.,3.06421554797E-013)) ;
#186=DIRECTION('Axis2P3D Direction',(-0.,-1.,0.)) ;
#187=DIRECTION('Axis2P3D XDirection',(1.,-0.,0.)) ;
#191=DIRECTION('Vector Direction',(0.,-1.,0.)) ;
#198=DIRECTION('Vector Direction',(0.,-1.,0.)) ;
#205=DIRECTION('Axis2P3D Direction',(-0.,-1.,0.)) ;
#217=DIRECTION('Axis2P3D Direction',(-0.,-1.,0.)) ;
#229=DIRECTION('Axis2P3D Direction',(0.,-1.,-1.68753899743E-014)) ;
#230=DIRECTION('Axis2P3D XDirection',(-0.961638685762,-4.60981155588E-015,0.274319226535)) ;
#234=DIRECTION('Vector Direction',(-0.707106781187,-0.707106781187,1.71127614289E-007)) ;
#241=DIRECTION('Axis2P3D Direction',(-4.45166004432E-015,-1.,-1.56054993613E-014)) ;
#248=DIRECTION('Vector Direction',(0.707106781187,-0.707106781187,-1.49158783575E-014)) ;
#260=DIRECTION('Axis2P3D Direction',(1.96731519964E-013,-1.,-3.06865644006E-013)) ;
#261=DIRECTION('Axis2P3D XDirection',(1.,1.96773098985E-013,1.16741468983E-016)) ;
#265=DIRECTION('Axis2P3D Direction',(3.58239460431E-029,-1.,-3.06865644006E-013)) ;
#277=DIRECTION('Axis2P3D Direction',(-0.,-1.,0.)) ;
#278=DIRECTION('Axis2P3D XDirection',(1.,-0.,-0.)) ;
#48=AXIS2_PLACEMENT_3D(' ',#47,$,$) ;
#55=AXIS2_PLACEMENT_3D('Cylinder Axis2P3D',#52,#53,#54) ;
#68=AXIS2_PLACEMENT_3D('Circle Axis2P3D',#66,#67,$) ;
#82=AXIS2_PLACEMENT_3D('Circle Axis2P3D',#80,#81,$) ;
#95=AXIS2_PLACEMENT_3D('Plane Axis2P3D',#92,#93,#94) ;
#99=AXIS2_PLACEMENT_3D('Circle Axis2P3D',#97,#98,$) ;
#108=AXIS2_PLACEMENT_3D('Circle Axis2P3D',#106,#107,$) ;
#117=AXIS2_PLACEMENT_3D('Circle Axis2P3D',#115,#116,$) ;
#127=AXIS2_PLACEMENT_3D('Circle Axis2P3D',#125,#126,$) ;
#140=AXIS2_PLACEMENT_3D('Cone Axis2P3D',#137,#138,#139) ;
#151=AXIS2_PLACEMENT_3D('Circle Axis2P3D',#149,#150,$) ;
#171=AXIS2_PLACEMENT_3D('Cone Axis2P3D',#168,#169,#170) ;
#175=AXIS2_PLACEMENT_3D('Circle Axis2P3D',#173,#174,$) ;
#188=AXIS2_PLACEMENT_3D('Cylinder Axis2P3D',#185,#186,#187) ;
#206=AXIS2_PLACEMENT_3D('Circle Axis2P3D',#204,#205,$) ;
#218=AXIS2_PLACEMENT_3D('Circle Axis2P3D',#216,#217,$) ;
#231=AXIS2_PLACEMENT_3D('Cone Axis2P3D',#228,#229,#230) ;
#242=AXIS2_PLACEMENT_3D('Circle Axis2P3D',#240,#241,$) ;
#262=AXIS2_PLACEMENT_3D('Cone Axis2P3D',#259,#260,#261) ;
#266=AXIS2_PLACEMENT_3D('Circle Axis2P3D',#264,#265,$) ;
#279=AXIS2_PLACEMENT_3D('Plane Axis2P3D',#276,#277,#278) ;
#40=PRODUCT_DEFINITION_SHAPE(' ',' ',#14) ;
#31=APPROVAL_PERSON_ORGANIZATION(#25,#21,#19) ;
#25=PERSON_AND_ORGANIZATION(#22,#23) ;
#22=PERSON(' ',' ',' ',$,$,$) ;
#23=ORGANIZATION(' ',' ',' ') ;
#21=APPROVAL(#20,' ') ;
#20=APPROVAL_STATUS('not_yet_approved') ;
#19=APPROVAL_ROLE('APPROVER') ;
#13=DATE_AND_TIME(#11,#12) ;
#12=LOCAL_TIME(19,39,44.,#10) ;
#10=COORDINATED_UNIVERSAL_TIME_OFFSET(0,0,.AHEAD.) ;
#86=ORIENTED_EDGE('',*,*,#65,.F.) ;
#87=ORIENTED_EDGE('',*,*,#72,.F.) ;
#88=ORIENTED_EDGE('',*,*,#79,.T.) ;
#89=ORIENTED_EDGE('',*,*,#84,.T.) ;
#112=ORIENTED_EDGE('',*,*,#105,.T.) ;
#113=ORIENTED_EDGE('',*,*,#110,.T.) ;
#121=ORIENTED_EDGE('',*,*,#119,.F.) ;
#122=ORIENTED_EDGE('',*,*,#84,.F.) ;
#131=ORIENTED_EDGE('',*,*,#79,.F.) ;
#132=ORIENTED_EDGE('',*,*,#129,.F.) ;
#133=ORIENTED_EDGE('',*,*,#65,.T.) ;
#134=ORIENTED_EDGE('',*,*,#119,.T.) ;
#162=ORIENTED_EDGE('',*,*,#148,.T.) ;
#163=ORIENTED_EDGE('',*,*,#155,.T.) ;
#164=ORIENTED_EDGE('',*,*,#160,.F.) ;
#165=ORIENTED_EDGE('',*,*,#105,.F.) ;
#179=ORIENTED_EDGE('',*,*,#160,.T.) ;
#180=ORIENTED_EDGE('',*,*,#177,.T.) ;
#181=ORIENTED_EDGE('',*,*,#148,.F.) ;
#182=ORIENTED_EDGE('',*,*,#110,.F.) ;
#210=ORIENTED_EDGE('',*,*,#196,.T.) ;
#211=ORIENTED_EDGE('',*,*,#155,.F.) ;
#212=ORIENTED_EDGE('',*,*,#203,.F.) ;
#213=ORIENTED_EDGE('',*,*,#208,.T.) ;
#222=ORIENTED_EDGE('',*,*,#203,.T.) ;
#223=ORIENTED_EDGE('',*,*,#177,.F.) ;
#224=ORIENTED_EDGE('',*,*,#196,.F.) ;
#225=ORIENTED_EDGE('',*,*,#220,.T.) ;
#253=ORIENTED_EDGE('',*,*,#239,.T.) ;
#254=ORIENTED_EDGE('',*,*,#246,.T.) ;
#255=ORIENTED_EDGE('',*,*,#251,.F.) ;
#256=ORIENTED_EDGE('',*,*,#208,.F.) ;
#270=ORIENTED_EDGE('',*,*,#251,.T.) ;
#271=ORIENTED_EDGE('',*,*,#268,.T.) ;
#272=ORIENTED_EDGE('',*,*,#239,.F.) ;
#273=ORIENTED_EDGE('',*,*,#220,.F.) ;
#282=ORIENTED_EDGE('',*,*,#268,.F.) ;
#283=ORIENTED_EDGE('',*,*,#246,.F.) ;
#286=ORIENTED_EDGE('',*,*,#72,.T.) ;
#287=ORIENTED_EDGE('',*,*,#129,.T.) ;
#123=FACE_BOUND('',#120,.T.) ;
#288=FACE_BOUND('',#285,.T.) ;
#51=CLOSED_SHELL('Closed Shell',(#91,#124,#136,#167,#184,#215,#227,#258,#275,#289)) ;
#59=VECTOR('Line Direction',#58,1.) ;
#75=VECTOR('Line Direction',#74,1.) ;
#144=VECTOR('Line Direction',#143,1.) ;
#158=VECTOR('Line Direction',#157,1.) ;
#192=VECTOR('Line Direction',#191,1.) ;
#199=VECTOR('Line Direction',#198,1.) ;
#235=VECTOR('Line Direction',#234,1.) ;
#249=VECTOR('Line Direction',#248,1.) ;
#291=ADVANCED_BREP_SHAPE_REPRESENTATION('NONE',(#290),#46) ;
#49=SHAPE_REPRESENTATION(' ',(#48),#46) ;
#91=ADVANCED_FACE('Corps principal',(#90),#56,.F.) ;
#124=ADVANCED_FACE('Corps principal',(#114,#123),#96,.T.) ;
#136=ADVANCED_FACE('Corps principal',(#135),#56,.F.) ;
#167=ADVANCED_FACE('Corps principal',(#166),#141,.T.) ;
#184=ADVANCED_FACE('Corps principal',(#183),#172,.T.) ;
#215=ADVANCED_FACE('Corps principal',(#214),#189,.T.) ;
#227=ADVANCED_FACE('Corps principal',(#226),#189,.T.) ;
#258=ADVANCED_FACE('Corps principal',(#257),#232,.T.) ;
#275=ADVANCED_FACE('Corps principal',(#274),#263,.T.) ;
#289=ADVANCED_FACE('Corps principal',(#284,#288),#280,.F.) ;
#4=APPLICATION_PROTOCOL_DEFINITION('international standard','config_control_design',1994,#1) ;
#32=APPROVAL_DATE_TIME(#13,#21) ;
#290=MANIFOLD_SOLID_BREP('Corps principal',#51) ;
#11=CALENDAR_DATE(2019,25,1) ;
#30=CC_DESIGN_APPROVAL(#21,(#16,#6,#14)) ;
#18=CC_DESIGN_DATE_AND_TIME_ASSIGNMENT(#13,#17,(#16)) ;
#29=CC_DESIGN_DATE_AND_TIME_ASSIGNMENT(#13,#28,(#14)) ;
#17=DATE_TIME_ROLE('classification_date') ;
#28=DATE_TIME_ROLE('creation_date') ;
#27=CC_DESIGN_PERSON_AND_ORGANIZATION_ASSIGNMENT(#25,#26,(#16)) ;
#33=CC_DESIGN_PERSON_AND_ORGANIZATION_ASSIGNMENT(#25,#34,(#6)) ;
#35=CC_DESIGN_PERSON_AND_ORGANIZATION_ASSIGNMENT(#25,#36,(#6,#14)) ;
#37=CC_DESIGN_PERSON_AND_ORGANIZATION_ASSIGNMENT(#25,#38,(#5)) ;
#26=PERSON_AND_ORGANIZATION_ROLE('classification_officer') ;
#34=PERSON_AND_ORGANIZATION_ROLE('design_supplier') ;
#36=PERSON_AND_ORGANIZATION_ROLE('creator') ;
#38=PERSON_AND_ORGANIZATION_ROLE('design_owner') ;
#39=CC_DESIGN_SECURITY_CLASSIFICATION(#16,(#6)) ;
#69=CIRCLE('generated circle',#68,2.) ;
#83=CIRCLE('generated circle',#82,2.) ;
#100=CIRCLE('generated circle',#99,3.5) ;
#109=CIRCLE('generated circle',#108,3.5) ;
#118=CIRCLE('generated circle',#117,2.) ;
#128=CIRCLE('generated circle',#127,2.) ;
#152=CIRCLE('generated circle',#151,4.) ;
#176=CIRCLE('generated circle',#175,4.) ;
#207=CIRCLE('generated circle',#206,4.) ;
#219=CIRCLE('generated circle',#218,4.) ;
#243=CIRCLE('generated circle',#242,3.5) ;
#267=CIRCLE('generated circle',#266,3.5) ;
#141=CONICAL_SURFACE('Cone',#140,0.,0.785398163397) ;
#172=CONICAL_SURFACE('Cone',#171,0.,0.785398163397) ;
#232=CONICAL_SURFACE('Cone',#231,0.,0.785398163397) ;
#263=CONICAL_SURFACE('Cone',#262,0.,0.785398163397) ;
#292=SHAPE_REPRESENTATION_RELATIONSHIP(' ',' ',#49,#291) ;
#56=CYLINDRICAL_SURFACE('generated cylinder',#55,2.) ;
#189=CYLINDRICAL_SURFACE('generated cylinder',#188,4.) ;
#3=DESIGN_CONTEXT(' ',#1,'design') ;
#65=EDGE_CURVE('',#62,#64,#60,.F.) ;
#72=EDGE_CURVE('',#71,#62,#69,.F.) ;
#79=EDGE_CURVE('',#71,#78,#76,.F.) ;
#84=EDGE_CURVE('',#78,#64,#83,.F.) ;
#105=EDGE_CURVE('',#102,#104,#100,.T.) ;
#110=EDGE_CURVE('',#104,#102,#109,.T.) ;
#119=EDGE_CURVE('',#64,#78,#118,.T.) ;
#129=EDGE_CURVE('',#62,#71,#128,.F.) ;
#148=EDGE_CURVE('',#102,#147,#145,.T.) ;
#155=EDGE_CURVE('',#147,#154,#152,.T.) ;
#160=EDGE_CURVE('',#104,#154,#159,.T.) ;
#177=EDGE_CURVE('',#154,#147,#176,.T.) ;
#196=EDGE_CURVE('',#195,#154,#193,.T.) ;
#203=EDGE_CURVE('',#202,#147,#200,.T.) ;
#208=EDGE_CURVE('',#202,#195,#207,.T.) ;
#220=EDGE_CURVE('',#195,#202,#219,.T.) ;
#239=EDGE_CURVE('',#202,#238,#236,.F.) ;
#246=EDGE_CURVE('',#238,#245,#243,.T.) ;
#251=EDGE_CURVE('',#195,#245,#250,.F.) ;
#268=EDGE_CURVE('',#245,#238,#267,.T.) ;
#85=EDGE_LOOP('',(#86,#87,#88,#89)) ;
#111=EDGE_LOOP('',(#112,#113)) ;
#120=EDGE_LOOP('',(#121,#122)) ;
#130=EDGE_LOOP('',(#131,#132,#133,#134)) ;
#161=EDGE_LOOP('',(#162,#163,#164,#165)) ;
#178=EDGE_LOOP('',(#179,#180,#181,#182)) ;
#209=EDGE_LOOP('',(#210,#211,#212,#213)) ;
#221=EDGE_LOOP('',(#222,#223,#224,#225)) ;
#252=EDGE_LOOP('',(#253,#254,#255,#256)) ;
#269=EDGE_LOOP('',(#270,#271,#272,#273)) ;
#281=EDGE_LOOP('',(#282,#283)) ;
#285=EDGE_LOOP('',(#286,#287)) ;
#90=FACE_OUTER_BOUND('',#85,.T.) ;
#114=FACE_OUTER_BOUND('',#111,.T.) ;
#135=FACE_OUTER_BOUND('',#130,.T.) ;
#166=FACE_OUTER_BOUND('',#161,.T.) ;
#183=FACE_OUTER_BOUND('',#178,.T.) ;
#214=FACE_OUTER_BOUND('',#209,.T.) ;
#226=FACE_OUTER_BOUND('',#221,.T.) ;
#257=FACE_OUTER_BOUND('',#252,.T.) ;
#274=FACE_OUTER_BOUND('',#269,.T.) ;
#284=FACE_OUTER_BOUND('',#281,.T.) ;
#45=UNCERTAINTY_MEASURE_WITH_UNIT(LENGTH_MEASURE(0.005),#41,'distance_accuracy_value','CONFUSED CURVE UNCERTAINTY') ;
#60=LINE('Line',#57,#59) ;
#76=LINE('Line',#73,#75) ;
#145=LINE('Line',#142,#144) ;
#159=LINE('Line',#156,#158) ;
#193=LINE('Line',#190,#192) ;
#200=LINE('Line',#197,#199) ;
#236=LINE('Line',#233,#235) ;
#250=LINE('Line',#247,#249) ;
#2=MECHANICAL_CONTEXT(' ',#1,'mechanical') ;
#24=PERSONAL_ADDRESS(' ',' ',' ',' ',' ',' ',' ',' ',' ',' ',' ',' ',(#22),' ') ;
#96=PLANE('',#95) ;
#280=PLANE('',#279) ;
#43=PLANE_ANGLE_MEASURE_WITH_UNIT(PLANE_ANGLE_MEASURE(0.0174532925199),#42) ;
#7=PRODUCT_CATEGORY('part',$) ;
#9=PRODUCT_CATEGORY_RELATIONSHIP(' ',' ',#7,#8) ;
#6=PRODUCT_DEFINITION_FORMATION_WITH_SPECIFIED_SOURCE('',' ',#5,.NOT_KNOWN.) ;
#8=PRODUCT_RELATED_PRODUCT_CATEGORY('detail',$,(#5)) ;
#50=SHAPE_DEFINITION_REPRESENTATION(#40,#49) ;
#62=VERTEX_POINT('',#61) ;
#64=VERTEX_POINT('',#63) ;
#71=VERTEX_POINT('',#70) ;
#78=VERTEX_POINT('',#77) ;
#102=VERTEX_POINT('',#101) ;
#104=VERTEX_POINT('',#103) ;
#147=VERTEX_POINT('',#146) ;
#154=VERTEX_POINT('',#153) ;
#195=VERTEX_POINT('',#194) ;
#202=VERTEX_POINT('',#201) ;
#238=VERTEX_POINT('',#237) ;
#245=VERTEX_POINT('',#244) ;
#41=(LENGTH_UNIT()NAMED_UNIT(*)SI_UNIT(.MILLI.,.METRE.)) ;
#42=(NAMED_UNIT(*)PLANE_ANGLE_UNIT()SI_UNIT($,.RADIAN.)) ;
#44=(NAMED_UNIT(*)SI_UNIT($,.STERADIAN.)SOLID_ANGLE_UNIT()) ;
#46=(GEOMETRIC_REPRESENTATION_CONTEXT(3)GLOBAL_UNCERTAINTY_ASSIGNED_CONTEXT((#45))GLOBAL_UNIT_ASSIGNED_CONTEXT((#41,#42,#44))REPRESENTATION_CONTEXT(' ',' ')) ;
ENDSEC;
END-ISO-10303-21;
