0
SECTION
2
HEADER
9
$INSUNITS
70
4
9
$ACADVER
1
AC1014
9
$HANDSEED
5
FFFF
0
ENDSEC
0
SECTION
2
TABLES
0
TABLE
2
VPORT
5
8
100
AcDbSymbolTable
0
ENDTAB
0
TABLE
2
LTYPE
5
5
100
AcDbSymbolTable
0
LTYPE
5
14
100
AcDbSymbolTableRecord
100
AcDbLinetypeTableRecord
2
BYBLOCK
70
0
0
LTYPE
5
15
100
AcDbSymbolTableRecord
100
AcDbLinetypeTableRecord
2
BYLAYER
70
0
0
ENDTAB
0
TABLE
2
LAYER
5
2
100
AcDbSymbolTable
70
2
0
LAYER
5
50
100
AcDbSymbolTableRecord
100
AcDbLayerTableRecord
2
0
70
0
6
CONTINUOUS
0
ENDTAB
0
TABLE
2
STYLE
5
3
100
AcDbSymbolTable
70
1
0
STYLE
5
11
100
AcDbSymbolTableRecord
100
AcDbTextStyleTableRecord
2
STANDARD
70
0
0
ENDTAB
0
TABLE
2
VIEW
5
6
100
AcDbSymbolTable
70
0
0
ENDTAB
0
TABLE
2
UCS
5
7
100
AcDbSymbolTable
70
0
0
ENDTAB
0
TABLE
2
APPID
5
9
100
AcDbSymbolTable
70
2
0
APPID
5
12
100
AcDbSymbolTableRecord
100
AcDbRegAppTableRecord
2
ACAD
70
0
0
ENDTAB
0
TABLE
2
DIMSTYLE
5
A
100
AcDbSymbolTable
70
1
0
ENDTAB
0
TABLE
2
BLOCK_RECORD
5
1
100
AcDbSymbolTable
70
1
0
BLOCK_RECORD
5
1F
100
AcDbSymbolTableRecord
100
AcDbBlockTableRecord
2
*MODEL_SPACE
0
BLOCK_RECORD
5
1B
100
AcDbSymbolTableRecord
100
AcDbBlockTableRecord
2
*PAPER_SPACE
0
ENDTAB
0
ENDSEC
0
SECTION
2
BLOCKS
0
BLOCK
5
20
100
AcDbEntity
100
AcDbBlockBegin
2
*MODEL_SPACE
0
ENDBLK
5
21
100
AcDbEntity
100
AcDbBlockEnd
0
BLOCK
5
1C
100
AcDbEntity
100
AcDbBlockBegin
2
*PAPER_SPACE
0
ENDBLK
5
1D
100
AcDbEntity
100
AcDbBlockEnd
0
ENDSEC
0
SECTION
2
ENTITIES
0
LWPOLYLINE
5
100
100
AcDbEntity
8
0
100
AcDbPolyline
90
12
70
1
43
0.0
10
-11.499999888919763
20
0.50000000000006206
10
2.9999999999996851
20
0.50000000000004263
10
2.9999999999996896
20
-148.50000000000045
10
-11.499999888919763
20
-148.50000000000045
10
-11.499999888919763
20
-145.50000000000043
10
-21.499999888919781
20
-145.50000000000043
10
-21.499999888919781
20
-148.50000000000045
10
-30.000000000000362
20
-148.50000000000045
10
-30.000000000001918
20
0.50000000000003619
10
-21.499999888919781
20
0.50000000000006206
10
-21.499999888919781
20
-2.4999999999999551
10
-11.499999888919763
20
-2.4999999999999551
0
LWPOLYLINE
5
101
100
AcDbEntity
8
0
100
AcDbPolyline
90
4
70
1
43
0.0
10
-3.1752378504279477e-013
20
-8.9999999999999858
10
-3.0000000000003233
20
-8.9999999999999858
10
-3.0000000000003233
20
-19.000000000000018
10
-3.1752378504279533e-013
20
-19.000000000000018
0
LWPOLYLINE
5
102
100
AcDbEntity
8
0
100
AcDbPolyline
90
4
70
1
43
0.0
10
-3.1752378504279477e-013
20
-39.000000000000085
10
-3.0000000000003233
20
-39.000000000000085
10
-3.0000000000003233
20
-49.000000000000121
10
-3.1752378504279533e-013
20
-49.000000000000121
0
LWPOLYLINE
5
103
100
AcDbEntity
8
0
100
AcDbPolyline
90
4
70
1
43
0.0
10
-3.1752378504279477e-013
20
-69.000000000000185
10
-3.0000000000003233
20
-69.000000000000185
10
-3.0000000000003233
20
-79.000000000000227
10
-3.1752378504279533e-013
20
-79.000000000000227
0
LWPOLYLINE
5
104
100
AcDbEntity
8
0
100
AcDbPolyline
90
4
70
1
43
0.0
10
-3.1752378504279477e-013
20
-99.000000000000284
10
-3.0000000000003233
20
-99.000000000000284
10
-3.0000000000003233
20
-109.00000000000031
10
-3.1752378504279533e-013
20
-109.00000000000031
0
LWPOLYLINE
5
105
100
AcDbEntity
8
0
100
AcDbPolyline
90
4
70
1
43
0.0
10
-3.1752378504279477e-013
20
-129.00000000000037
10
-3.0000000000003233
20
-129.00000000000037
10
-3.0000000000003233
20
-139.0000000000004
10
-3.1752378504279533e-013
20
-139.0000000000004
0
LWPOLYLINE
5
106
100
AcDbEntity
8
0
100
AcDbPolyline
90
12
70
1
43
0.0
10
-11.499999888919742
20
0.50000000000013145
10
2.9999999999996794
20
0.50000000000011369
10
2.9999999999996829
20
-148.49999999999989
10
-11.499999888919742
20
-148.49999999999989
10
-11.499999888919742
20
-145.49999999999989
10
-21.499999888919742
20
-145.49999999999989
10
-21.499999888919742
20
-148.49999999999989
10
-30.000000000000313
20
-148.49999999999989
10
-30.000000000001865
20
0.50000000000010569
10
-21.499999888919742
20
0.50000000000013145
10
-21.499999888919742
20
-2.4999999999998757
10
-11.499999888919742
20
-2.4999999999998757
0
LWPOLYLINE
5
107
100
AcDbEntity
8
0
100
AcDbPolyline
90
4
70
1
43
0.0
10
-3.1752378504279477e-013
20
-8.9999999999998845
10
-3.000000000000318
20
-8.9999999999998845
10
-3.000000000000318
20
-18.999999999999883
10
-3.1752378504279477e-013
20
-18.999999999999883
0
LWPOLYLINE
5
108
100
AcDbEntity
8
0
100
AcDbPolyline
90
4
70
1
43
0.0
10
-3.1752378504279477e-013
20
-38.999999999999886
10
-3.000000000000318
20
-38.999999999999886
10
-3.000000000000318
20
-48.999999999999886
10
-3.1752378504279477e-013
20
-48.999999999999886
0
LWPOLYLINE
5
109
100
AcDbEntity
8
0
100
AcDbPolyline
90
4
70
1
43
0.0
10
-3.1752378504279477e-013
20
-68.999999999999886
10
-3.000000000000318
20
-68.999999999999886
10
-3.000000000000318
20
-78.999999999999886
10
-3.1752378504279477e-013
20
-78.999999999999886
0
LWPOLYLINE
5
110
100
AcDbEntity
8
0
100
AcDbPolyline
90
4
70
1
43
0.0
10
-3.1752378504279477e-013
20
-98.999999999999886
10
-3.000000000000318
20
-98.999999999999886
10
-3.000000000000318
20
-108.99999999999989
10
-3.1752378504279477e-013
20
-108.99999999999989
0
LWPOLYLINE
5
111
100
AcDbEntity
8
0
100
AcDbPolyline
90
4
70
1
43
0.0
10
-3.1752378504279477e-013
20
-128.99999999999989
10
-3.000000000000318
20
-128.99999999999989
10
-3.000000000000318
20
-138.99999999999989
10
-3.1752378504279477e-013
20
-138.99999999999989
0
ENDSEC
0
SECTION
2
OBJECTS
0
DICTIONARY
5
C
100
AcDbDictionary
3
ACAD_GROUP
350
D
3
ACAD_MLINESTYLE
350
17
0
DICTIONARY
5
D
100
AcDbDictionary
0
DICTIONARY
5
1A
330
C
100
AcDbDictionary
0
DICTIONARY
5
17
100
AcDbDictionary
0
ENDSEC
0
EOF
