  0
SECTION
  2
HEADER
  9
$ACADVER
  1
AC1015
  9
$ACADMAINTVER
 70
     6
  9
$DWGCODEPAGE
  3
ANSI_1252
  9
$INSBASE
 10
0.0
 20
0.0
 30
0.0
  9
$EXTMIN
 10
-10.0
 20
-21.0
 30
0.0
  9
$EXTMAX
 10
10.0
 20
14.0
 30
0.0
  9
$LIMMIN
 10
0.0
 20
0.0
  9
$LIMMAX
 10
420.0
 20
297.0
  9
$ORTHOMODE
 70
     0
  9
$REGENMODE
 70
     1
  9
$FILLMODE
 70
     1
  9
$QTEXTMODE
 70
     0
  9
$MIRRTEXT
 70
     1
  9
$LTSCALE
 40
1.0
  9
$ATTMODE
 70
     1
  9
$TEXTSIZE
 40
3.5
  9
$TRACEWID
 40
1.0
  9
$TEXTSTYLE
  7
Standard
  9
$CLAYER
  8
0
  9
$CELTYPE
  6
ByLayer
  9
$CECOLOR
 62
   256
  9
$CELTSCALE
 40
1.0
  9
$DISPSILH
 70
     0
  9
$DIMSCALE
 40
1.0
  9
$DIMASZ
 40
3.302
  9
$DIMEXO
 40
1.0
  9
$DIMDLI
 40
3.75
  9
$DIMRND
 40
0.0
  9
$DIMDLE
 40
0.0
  9
$DIMEXE
 40
1.0
  9
$DIMTP
 40
0.0
  9
$DIMTM
 40
0.0
  9
$DIMTXT
 40
3.5
  9
$DIMCEN
 40
2.5
  9
$DIMTSZ
 40
0.0
  9
$DIMTOL
 70
     0
  9
$DIMLIM
 70
     0
  9
$DIMTIH
 70
     1
  9
$DIMTOH
 70
     1
  9
$DIMSE1
 70
     0
  9
$DIMSE2
 70
     0
  9
$DIMTAD
 70
     1
  9
$DIMZIN
 70
     0
  9
$DIMBLK
  1

  9
$DIMASO
 70
     1
  9
$DIMSHO
 70
     1
  9
$DIMPOST
  1

  9
$DIMAPOST
  1

  9
$DIMALT
 70
     0
  9
$DIMALTD
 70
     3
  9
$DIMALTF
 40
0.0393700787
  9
$DIMLFAC
 40
1.0
  9
$DIMTOFL
 70
     1
  9
$DIMTVP
 40
0.0
  9
$DIMTIX
 70
     0
  9
$DIMSOXD
 70
     0
  9
$DIMSAH
 70
     0
  9
$DIMBLK1
  1

  9
$DIMBLK2
  1

  9
$DIMSTYLE
  2
ISO-25
  9
$DIMCLRD
 70
     0
  9
$DIMCLRE
 70
     0
  9
$DIMCLRT
 70
     0
  9
$DIMTFAC
 40
1.0
  9
$DIMGAP
 40
1.524
  9
$DIMJUST
 70
     0
  9
$DIMSD1
 70
     0
  9
$DIMSD2
 70
     0
  9
$DIMTOLJ
 70
     0
  9
$DIMTZIN
 70
     0
  9
$DIMALTZ
 70
     0
  9
$DIMALTTZ
 70
     0
  9
$DIMUPT
 70
     0
  9
$DIMDEC
 70
     2
  9
$DIMTDEC
 70
     2
  9
$DIMALTU
 70
     2
  9
$DIMALTTD
 70
     3
  9
$DIMTXSTY
  7
Standard
  9
$DIMAUNIT
 70
     0
  9
$DIMADEC
 70
     2
  9
$DIMALTRND
 40
0.0
  9
$DIMAZIN
 70
     0
  9
$DIMDSEP
 70
    44
  9
$DIMATFIT
 70
     3
  9
$DIMFRAC
 70
     0
  9
$DIMLDRBLK
  1

  9
$DIMLUNIT
 70
     2
  9
$DIMLWD
 70
    -2
  9
$DIMLWE
 70
    -2
  9
$DIMTMOVE
 70
     0
  9
$LUNITS
 70
     2
  9
$LUPREC
 70
     2
  9
$SKETCHINC
 40
1.0
  9
$FILLETRAD
 40
10.0
  9
$AUNITS
 70
     0
  9
$AUPREC
 70
     2
  9
$MENU
  1
.
  9
$ELEVATION
 40
0.0
  9
$PELEVATION
 40
0.0
  9
$THICKNESS
 40
0.0
  9
$LIMCHECK
 70
     0
  9
$CHAMFERA
 40
0.0
  9
$CHAMFERB
 40
0.0
  9
$CHAMFERC
 40
0.0
  9
$CHAMFERD
 40
0.0
  9
$SKPOLY
 70
     0
  9
$TDCREATE
 40
2458468.399735174
  9
$TDUCREATE
 40
2458468.358068507
  9
$TDUPDATE
 40
2458468.399833634
  9
$TDUUPDATE
 40
2458468.358166968
  9
$TDINDWG
 40
0.0000000116
  9
$TDUSRTIMER
 40
0.0000000116
  9
$USRTIMER
 70
     1
  9
$ANGBASE
 50
0.0
  9
$ANGDIR
 70
     0
  9
$PDMODE
 70
     0
  9
$PDSIZE
 40
-1.0
  9
$PLINEWID
 40
0.0
  9
$SPLFRAME
 70
     0
  9
$SPLINETYPE
 70
     6
  9
$SPLINESEGS
 70
     8
  9
$HANDSEED
  5
97
  9
$SURFTAB1
 70
     6
  9
$SURFTAB2
 70
     6
  9
$SURFTYPE
 70
     6
  9
$SURFU
 70
     6
  9
$SURFV
 70
     6
  9
$UCSBASE
  2

  9
$UCSNAME
  2

  9
$UCSORG
 10
0.0
 20
0.0
 30
0.0
  9
$UCSXDIR
 10
1.0
 20
0.0
 30
0.0
  9
$UCSYDIR
 10
0.0
 20
1.0
 30
0.0
  9
$UCSORTHOREF
  2

  9
$UCSORTHOVIEW
 70
     0
  9
$UCSORGTOP
 10
0.0
 20
0.0
 30
0.0
  9
$UCSORGBOTTOM
 10
0.0
 20
0.0
 30
0.0
  9
$UCSORGLEFT
 10
0.0
 20
0.0
 30
0.0
  9
$UCSORGRIGHT
 10
0.0
 20
0.0
 30
0.0
  9
$UCSORGFRONT
 10
0.0
 20
0.0
 30
0.0
  9
$UCSORGBACK
 10
0.0
 20
0.0
 30
0.0
  9
$PUCSBASE
  2

  9
$PUCSNAME
  2

  9
$PUCSORG
 10
0.0
 20
0.0
 30
0.0
  9
$PUCSXDIR
 10
1.0
 20
0.0
 30
0.0
  9
$PUCSYDIR
 10
0.0
 20
1.0
 30
0.0
  9
$PUCSORTHOREF
  2

  9
$PUCSORTHOVIEW
 70
     0
  9
$PUCSORGTOP
 10
0.0
 20
0.0
 30
0.0
  9
$PUCSORGBOTTOM
 10
0.0
 20
0.0
 30
0.0
  9
$PUCSORGLEFT
 10
0.0
 20
0.0
 30
0.0
  9
$PUCSORGRIGHT
 10
0.0
 20
0.0
 30
0.0
  9
$PUCSORGFRONT
 10
0.0
 20
0.0
 30
0.0
  9
$PUCSORGBACK
 10
0.0
 20
0.0
 30
0.0
  9
$USERI1
 70
     0
  9
$USERI2
 70
     0
  9
$USERI3
 70
     0
  9
$USERI4
 70
     0
  9
$USERI5
 70
     0
  9
$USERR1
 40
0.0
  9
$USERR2
 40
0.0
  9
$USERR3
 40
0.0
  9
$USERR4
 40
0.0
  9
$USERR5
 40
0.0
  9
$WORLDVIEW
 70
     1
  9
$SHADEDGE
 70
     3
  9
$SHADEDIF
 70
    70
  9
$TILEMODE
 70
     0
  9
$MAXACTVP
 70
    64
  9
$PINSBASE
 10
0.0
 20
0.0
 30
0.0
  9
$PLIMCHECK
 70
     0
  9
$PEXTMIN
 10
-10.0
 20
-21.0
 30
0.0
  9
$PEXTMAX
 10
10.0
 20
14.0
 30
0.0
  9
$PLIMMIN
 10
0.0
 20
0.0
  9
$PLIMMAX
 10
0.0
 20
0.0
  9
$UNITMODE
 70
     0
  9
$VISRETAIN
 70
     1
  9
$PLINEGEN
 70
     0
  9
$PSLTSCALE
 70
     1
  9
$TREEDEPTH
 70
  3020
  9
$CMLSTYLE
  2
Standard
  9
$CMLJUST
 70
     0
  9
$CMLSCALE
 40
20.0
  9
$PROXYGRAPHICS
 70
     1
  9
$MEASUREMENT
 70
     1
  9
$CELWEIGHT
370
    -1
  9
$ENDCAPS
280
     0
  9
$JOINSTYLE
280
     0
  9
$LWDISPLAY
290
     1
  9
$INSUNITS
 70
     4
  9
$HYPERLINKBASE
  1

  9
$STYLESHEET
  1

  9
$XEDIT
290
     1
  9
$CEPSNTYPE
380
     0
  9
$PSTYLEMODE
290
     1
  9
$FINGERPRINTGUID
  2
{3FDA1CD1-1B71-4A16-B3AE-76570D8E4B03}
  9
$VERSIONGUID
  2
{FAEB1C32-E019-11D5-929B-00C0DF256EC4}
  9
$EXTNAMES
290
     1
  9
$PSVPSCALE
 40
0.0
  9
$OLESTARTUP
290
     0
  0
ENDSEC
  0
SECTION
  2
CLASSES
  0
CLASS
  1
ACDBDICTIONARYWDFLT
  2
AcDbDictionaryWithDefault
  3
ObjectDBX Classes
 90
        0
280
     0
281
     0
  0
CLASS
  1
VISUALSTYLE
  2
AcDbVisualStyle
  3
ObjectDBX Classes
 90
     4095
280
     0
281
     0
  0
CLASS
  1
MATERIAL
  2
AcDbMaterial
  3
ObjectDBX Classes
 90
     1153
280
     0
281
     0
  0
CLASS
  1
SCALE
  2
AcDbScale
  3
ObjectDBX Classes
 90
     1153
280
     0
281
     0
  0
CLASS
  1
TABLESTYLE
  2
AcDbTableStyle
  3
ObjectDBX Classes
 90
     4095
280
     0
281
     0
  0
CLASS
  1
MLEADERSTYLE
  2
AcDbMLeaderStyle
  3
ACDB_MLEADERSTYLE_CLASS
 90
     4095
280
     0
281
     0
  0
CLASS
  1
SUN
  2
AcDbSun
  3
SCENEOE
 90
     1153
280
     0
281
     0
  0
CLASS
  1
ACDBPLACEHOLDER
  2
AcDbPlaceHolder
  3
ObjectDBX Classes
 90
        0
280
     0
281
     0
  0
CLASS
  1
LAYOUT
  2
AcDbLayout
  3
ObjectDBX Classes
 90
        0
280
     0
281
     0
  0
ENDSEC
  0
SECTION
  2
TABLES
  0
TABLE
  2
VPORT
  5
8
330
0
100
AcDbSymbolTable
 70
     1
  0
VPORT
  5
29
330
8
100
AcDbSymbolTableRecord
100
AcDbViewportTableRecord
  2
*Active
 70
     0
 10
0.0
 20
0.0
 11
1.0
 21
1.0
 12
0.0
 22
-3.5
 13
0.0
 23
0.0
 14
10.0
 24
10.0
 15
10.0
 25
10.0
 16
0.0
 26
0.0
 36
1.0
 17
0.0
 27
0.0
 37
0.0
 40
35.7
 41
0.5714285714
 42
50.0
 43
0.0
 44
0.0
 50
0.0
 51
0.0
 71
     0
 72
   100
 73
     1
 74
     3
 75
     0
 76
     0
 77
     0
 78
     0
281
     0
 65
     1
110
0.0
120
0.0
130
0.0
111
1.0
121
0.0
131
0.0
112
0.0
122
1.0
132
0.0
 79
     0
146
0.0
  0
ENDTAB
  0
TABLE
  2
LTYPE
  5
5
330
0
100
AcDbSymbolTable
 70
     6
  0
LTYPE
  5
14
330
5
100
AcDbSymbolTableRecord
100
AcDbLinetypeTableRecord
  2
ByBlock
 70
     0
  3

 72
    65
 73
     0
 40
0.0
  0
LTYPE
  5
15
330
5
100
AcDbSymbolTableRecord
100
AcDbLinetypeTableRecord
  2
ByLayer
 70
     0
  3

 72
    65
 73
     0
 40
0.0
  0
LTYPE
  5
16
330
5
100
AcDbSymbolTableRecord
100
AcDbLinetypeTableRecord
  2
Continuous
 70
     0
  3
Solid line
 72
    65
 73
     0
 40
0.0
  0
LTYPE
  5
6E
330
5
100
AcDbSymbolTableRecord
100
AcDbLinetypeTableRecord
  2
HIDDEN
 70
     0
  3
Hidden __ __ __ __ __ __ __ __ __ __ __ __ __ __
 72
    65
 73
     2
 40
1.905
 49
1.27
 74
     0
 49
-0.635
 74
     0
  0
LTYPE
  5
6F
330
5
100
AcDbSymbolTableRecord
100
AcDbLinetypeTableRecord
  2
PHANTOM
 70
     0
  3
Phantom ______  __  __  ______  __  __  ______
 72
    65
 73
     6
 40
12.7
 49
6.35
 74
     0
 49
-1.27
 74
     0
 49
1.27
 74
     0
 49
-1.27
 74
     0
 49
1.27
 74
     0
 49
-1.27
 74
     0
  0
LTYPE
  5
70
330
5
100
AcDbSymbolTableRecord
100
AcDbLinetypeTableRecord
  2
CENTER
 70
     0
  3
Center ____ _ ____ _ ____ _ ____ _ ____ _ ____
 72
    65
 73
     4
 40
10.16
 49
6.35
 74
     0
 49
-1.27
 74
     0
 49
1.27
 74
     0
 49
-1.27
 74
     0
  0
LTYPE
  5
71
330
5
100
AcDbSymbolTableRecord
100
AcDbLinetypeTableRecord
  2
CENTERX2
 70
     0
  3
Center (2x) ________  __  ________  __  _____
 72
    65
 73
     4
 40
20.32
 49
12.7
 74
     0
 49
-2.54
 74
     0
 49
2.54
 74
     0
 49
-2.54
 74
     0
  0
LTYPE
  5
72
330
5
100
AcDbSymbolTableRecord
100
AcDbLinetypeTableRecord
  2
DOT2
 70
     0
  3
Dot (.5x) ........................................
 72
    65
 73
     2
 40
0.635
 49
0.0
 74
     0
 49
-0.635
 74
     0
  0
ENDTAB
  0
TABLE
  2
LAYER
  5
2
330
0
100
AcDbSymbolTable
 70
     1
  0
LAYER
  5
10
330
2
100
AcDbSymbolTableRecord
100
AcDbLayerTableRecord
  2
0
 70
     0
 62
     7
  6
Continuous
370
    -3
390
F
  0
ENDTAB
  0
TABLE
  2
STYLE
  5
3
330
0
100
AcDbSymbolTable
 70
     1
  0
STYLE
  5
11
330
3
100
AcDbSymbolTableRecord
100
AcDbTextStyleTableRecord
  2
Standard
 70
     0
 40
0.0
 41
1.0
 50
0.0
 71
     0
 42
3.5
  3
txt
  4

  0
ENDTAB
  0
TABLE
  2
VIEW
  5
6
330
0
100
AcDbSymbolTable
 70
     0
  0
ENDTAB
  0
TABLE
  2
UCS
  5
7
330
0
100
AcDbSymbolTable
 70
     0
  0
ENDTAB
  0
TABLE
  2
APPID
  5
9
330
0
100
AcDbSymbolTable
 70
     1
  0
APPID
  5
12
330
9
100
AcDbSymbolTableRecord
100
AcDbRegAppTableRecord
  2
ACAD
 70
     0
  0
ENDTAB
  0
TABLE
  2
DIMSTYLE
  5
A
330
0
100
AcDbSymbolTable
 70
     1
100
AcDbDimStyleTable
  0
DIMSTYLE
105
27
330
A
100
AcDbSymbolTableRecord
100
AcDbDimStyleTableRecord
  2
ISO-25
 70
     0
 41
2.5
 42
0.625
 43
3.75
 44
1.25
 73
     0
 74
     0
 77
     1
 78
     8
140
2.5
141
2.5
143
0.0393700787
147
0.625
171
     3
172
     1
178
     0
271
     2
272
     2
274
     3
278
    44
283
     0
284
     8
340
11
  0
ENDTAB
  0
TABLE
  2
BLOCK_RECORD
  5
1
330
0
100
AcDbSymbolTable
 70
     2
  0
BLOCK_RECORD
  5
1F
330
1
100
AcDbSymbolTableRecord
100
AcDbBlockTableRecord
  2
*Model_Space
340
22
  0
BLOCK_RECORD
  5
85
330
1
100
AcDbSymbolTableRecord
100
AcDbBlockTableRecord
  2
*Paper_Space
340
86
  0
BLOCK_RECORD
  5
1B
330
1
100
AcDbSymbolTableRecord
100
AcDbBlockTableRecord
  2
*Paper_Space0
340
1E
  0
BLOCK_RECORD
  5
23
330
1
100
AcDbSymbolTableRecord
100
AcDbBlockTableRecord
  2
*Paper_Space1
340
26
  0
ENDTAB
  0
ENDSEC
  0
SECTION
  2
BLOCKS
  0
BLOCK
  5
20
330
1F
100
AcDbEntity
  8
0
100
AcDbBlockBegin
  2
*Model_Space
 70
     0
 10
0.0
 20
0.0
 30
0.0
  3
*Model_Space
  1

  0
ENDBLK
  5
21
330
1F
100
AcDbEntity
  8
0
100
AcDbBlockEnd
  0
BLOCK
  5
87
330
85
100
AcDbEntity
 67
     1
  8
0
100
AcDbBlockBegin
  2
*Paper_Space
 70
     0
 10
0.0
 20
0.0
 30
0.0
  3
*Paper_Space
  1

  0
ENDBLK
  5
88
330
85
100
AcDbEntity
 67
     1
  8
0
100
AcDbBlockEnd
  0
BLOCK
  5
1C
330
1B
100
AcDbEntity
  8
0
100
AcDbBlockBegin
  2
*Paper_Space0
 70
     0
 10
0.0
 20
0.0
 30
0.0
  3
*Paper_Space0
  1

  0
SPLINE
  5
7B
330
1B
100
AcDbEntity
  8
0
  6
Continuous
 62
     7
370
    25
100
AcDbSpline
210
0.0
220
0.0
230
1.0
 70
     8
 71
     3
 72
    33
 73
    29
 74
     0
 42
0.000000001
 43
0.00000001
 40
0.0
 40
0.0
 40
0.0
 40
0.0
 40
0.0271727338241468
 40
0.0569303544894215
 40
0.0890478364735442
 40
0.1232968462555303
 40
0.1594469863148197
 40
0.2092744468157827
 40
0.2614424897219723
 40
0.3154278717989484
 40
0.3896636015091539
 40
0.4649657289657332
 40
0.5400852531883887
 40
0.6137830830558301
 40
0.6547872334925438
 40
0.6947025590981255
 40
0.7333076482327966
 40
0.7703857430142862
 40
0.8057264193791802
 40
0.83912805461441
 40
0.8704015566828738
 40
0.8933695112123293
 40
0.9148466075100081
 40
0.9347762833950167
 40
0.9531233539802271
 40
0.9698841918630456
 40
0.9852078786293774
 40
1.0
 40
1.0
 40
1.0
 40
1.0
 10
-10.0
 20
14.0
 30
0.0
 10
-9.997107976279606
 20
13.67489865050385
 30
0.0
 10
-9.99104881651087
 20
12.99376972208673
 30
0.0
 10
-9.947989709800312
 20
11.92911418066709
 30
0.0
 10
-9.88170510283877
 20
10.78095729107728
 30
0.0
 10
-9.78957428550198
 20
9.557839832202301
 30
0.0
 10
-9.66026402620754
 20
8.125219045697902
 30
0.0
 10
-9.485484504752527
 20
6.481611899337322
 30
0.0
 10
-9.25782106522414
 20
4.629303005230342
 30
0.0
 10
-8.961190322585367
 20
2.491511175207879
 30
0.0
 10
-8.583387287208195
 20
0.0858481923847192
 30
0.0
 10
-8.11127580895876
 20
-2.560393935040694
 30
0.0
 10
-7.581806557988273
 20
-5.189222212473231
 30
0.0
 10
-7.078499848640536
 20
-7.404096352122425
 30
0.0
 10
-6.627615438051723
 20
-9.198249466111783
 30
0.0
 10
-6.253721460184061
 20
-10.57860132785144
 30
0.0
 10
-5.864732231114605
 20
-11.90591724547515
 30
0.0
 10
-5.461352364463415
 20
-13.17163208068387
 30
0.0
 10
-5.044303421990766
 20
-14.36720870139889
 30
0.0
 10
-4.614302825275141
 20
-15.48412462281485
 30
0.0
 10
-4.200454397445742
 20
-16.44792927761511
 30
0.0
 10
-3.808350277736261
 20
-17.2648388424111
 30
0.0
 10
-3.445007500785242
 20
-17.94425777807648
 30
0.0
 10
-3.075119464565547
 20
-18.55650337803927
 30
0.0
 10
-2.69878296524025
 20
-19.09747772513425
 30
0.0
 10
-2.31570360543425
 20
-19.56473360062911
 30
0.0
 10
-1.91640637200283
 20
-19.96016537655415
 30
0.0
 10
-1.637159153443645
 20
-20.18806264169666
 30
0.0
 10
-1.499999999999989
 20
-20.30000000000001
 30
0.0
  0
SPLINE
  5
7C
330
1B
100
AcDbEntity
  8
0
  6
Continuous
 62
     7
370
    25
100
AcDbSpline
210
0.0
220
0.0
230
1.0
 70
     8
 71
     3
 72
    34
 73
    30
 74
     0
 42
0.000000001
 43
0.00000001
 40
0.0
 40
0.0
 40
0.0
 40
0.0
 40
0.0156591021912781
 40
0.031987895989527
 40
0.0499684386728769
 40
0.0697277790615529
 40
0.0912529025560605
 40
0.1144946106526571
 40
0.1439889011489691
 40
0.1756168172271856
 40
0.2092088515338551
 40
0.244581303360371
 40
0.2887434266083646
 40
0.3348148512765413
 40
0.3824463276541419
 40
0.4312816372537543
 40
0.4809595335196855
 40
0.5311150909808051
 40
0.5914142656325377
 40
0.6512328699618869
 40
0.7099292360256255
 40
0.7668601238829985
 40
0.8213818097648959
 40
0.8554673542959965
 40
0.8880643446965998
 40
0.9189934527654491
 40
0.9480764208441192
 40
0.9751366306342364
 40
1.0
 40
1.0
 40
1.0
 40
1.0
 10
1.499999999999998
 20
-20.30000000000001
 30
0.0
 10
1.645155534768532
 20
-20.18142095672284
 30
0.0
 10
1.941674459784952
 20
-19.93919160943623
 30
0.0
 10
2.363212788463355
 20
-19.5133345095938
 30
0.0
 10
2.76714226929648
 20
-19.00687341282529
 30
0.0
 10
3.163877434605712
 20
-18.41850339420512
 30
0.0
 10
3.55331070962727
 20
-17.75141845120133
 30
0.0
 10
3.96061019908851
 20
-16.96144791577733
 30
0.0
 10
4.38029790245821
 20
-16.04309403349035
 30
0.0
 10
4.808362870873099
 20
-14.99360955709841
 30
0.0
 10
5.224361345872739
 20
-13.86408167097431
 30
0.0
 10
5.655029173792324
 20
-12.58080487249227
 30
0.0
 10
6.093920836033354
 20
-11.14335794819002
 30
0.0
 10
6.535632499687255
 20
-9.554020261160948
 30
0.0
 10
6.956154849764443
 20
-7.901217841216026
 30
0.0
 10
7.354364766111714
 20
-6.198579063995447
 30
0.0
 10
7.729147127319973
 20
-4.459741308621133
 30
0.0
 10
8.10280309451299
 20
-2.580617091798483
 30
0.0
 10
8.467275435234026
 20
-0.5762140460316318
 30
0.0
 10
8.814442605602162
 20
1.534875099544216
 30
0.0
 10
9.12105654152151
 20
3.611505272455493
 30
0.0
 10
9.385266293586824
 20
5.630055568237227
 30
0.0
 10
9.581795392845866
 20
7.360257822780262
 30
0.0
 10
9.723269482545458
 20
8.80347452033692
 30
0.0
 10
9.822002473693903
 20
9.96716081764043
 30
0.0
 10
9.900062611872837
 20
11.07244189338282
 30
0.0
 10
9.956161966203965
 20
12.11269705166914
 30
0.0
 10
9.992508150505158
 20
13.08130304937436
 30
0.0
 10
9.997574162995026
 20
13.7025288534266
 30
0.0
 10
10.0
 20
14.0
 30
0.0
  0
SPLINE
  5
7D
330
1B
100
AcDbEntity
  8
0
  6
Continuous
 62
     7
370
    25
100
AcDbSpline
210
0.0
220
0.0
230
1.0
 70
     8
 71
     3
 72
    13
 73
     9
 74
     0
 42
0.000000001
 43
0.00000001
 40
0.0
 40
0.0
 40
0.0
 40
0.0
 40
0.2385959380790898
 40
0.4373376896345869
 40
0.6007135546058651
 40
0.7337787197696307
 40
0.892125668566949
 40
1.0
 40
1.0
 40
1.0
 40
1.0
 10
-1.499999999999996
 20
-20.3
 30
0.0
 10
-1.394353892748782
 20
-20.38267626012374
 30
0.0
 10
-1.200708414807668
 20
-20.53421884245452
 30
0.0
 10
-0.9156159017959997
 20
-20.71593834968428
 30
0.0
 10
-0.6681832912850286
 20
-20.84442606899603
 30
0.0
 10
-0.4298646932154643
 20
-20.93725880334755
 30
0.0
 10
-0.2104503919271472
 20
-20.99242883797291
 30
0.0
 10
-0.0606855430033458
 20
-20.99781677727197
 30
0.0
 10
0.0000000000000042
 20
-21.0
 30
0.0
  0
SPLINE
  5
7E
330
1B
100
AcDbEntity
  8
0
  6
Continuous
 62
     7
370
    25
100
AcDbSpline
210
0.0
220
0.0
230
1.0
 70
     8
 71
     3
 72
    13
 73
     9
 74
     0
 42
0.000000001
 43
0.00000001
 40
0.0
 40
0.0
 40
0.0
 40
0.0
 40
0.0885524280220537
 40
0.2122732432609612
 40
0.3785640760838815
 40
0.5456821383528198
 40
0.7510696027694583
 40
1.0
 40
1.0
 40
1.0
 40
1.0
 10
0.0000000000000044
 20
-21.0
 30
0.0
 10
0.0498015988698041
 20
-20.99859464238274
 30
0.0
 10
0.169183383737871
 20
-20.99522579269651
 30
0.0
 10
0.3788711737104588
 20
-20.95308163160307
 30
0.0
 10
0.6215833561530167
 20
-20.86653948494948
 30
0.0
 10
0.8923238856393345
 20
-20.72981161135376
 30
0.0
 10
1.188430634862754
 20
-20.54347938661764
 30
0.0
 10
1.389713078063993
 20
-20.38618495625557
 30
0.0
 10
1.500000000000005
 20
-20.30000000000001
 30
0.0
  0
LINE
  5
81
330
1B
100
AcDbEntity
  8
0
  6
Continuous
 62
     7
370
    25
100
AcDbLine
 10
-10.0
 20
14.0
 30
0.0
 11
9.9999999997
 21
14.0
 31
0.0
  0
LINE
  5
82
330
1B
100
AcDbEntity
  8
0
  6
Continuous
 62
     8
370
    25
100
AcDbLine
 10
-1.5
 20
-20.3
 30
0.0
 11
1.4999991564
 21
-20.3
 31
0.0
  0
VIEWPORT
  5
91
330
1B
100
AcDbEntity
  8
0
100
AcDbViewport
 10
0.0
 20
0.0
 30
0.0
 40
205.6
 41
156.0
 68
     1
 69
     1
 12
0.0
 22
-3.5
 13
0.0
 23
0.0
 14
10.0
 24
10.0
 15
10.0
 25
10.0
 16
0.0
 26
0.0
 36
1.0
 17
0.0
 27
0.0
 37
0.0
 42
50.0
 43
0.0
 44
0.0
 45
35.7
 50
0.0
 51
0.0
 72
   100
 90
   557152
  1

281
     0
 71
     1
 74
     0
110
0.0
120
0.0
130
0.0
111
1.0
121
0.0
131
0.0
112
0.0
122
1.0
132
0.0
 79
     0
146
0.0
  0
ENDBLK
  5
1D
330
1B
100
AcDbEntity
  8
0
100
AcDbBlockEnd
  0
BLOCK
  5
24
330
23
100
AcDbEntity
  8
0
100
AcDbBlockBegin
  2
*Paper_Space1
 70
     0
 10
0.0
 20
0.0
 30
0.0
  3
*Paper_Space1
  1

  0
CIRCLE
  5
83
330
23
100
AcDbEntity
  8
0
  6
Continuous
 62
     7
370
    25
100
AcDbCircle
 10
0.0
 20
0.0
 30
0.0
 40
1.5
  0
CIRCLE
  5
84
330
23
100
AcDbEntity
  8
0
  6
Continuous
 62
     7
370
    25
100
AcDbCircle
 10
0.0
 20
0.0
 30
0.0
 40
9.999999999999998
  0
VIEWPORT
  5
93
330
23
100
AcDbEntity
  8
0
100
AcDbViewport
 10
0.0
 20
0.0
 30
0.0
 40
205.6
 41
156.0
 68
     1
 69
     1
 12
0.0
 22
-3.5
 13
0.0
 23
0.0
 14
10.0
 24
10.0
 15
10.0
 25
10.0
 16
0.0
 26
0.0
 36
1.0
 17
0.0
 27
0.0
 37
0.0
 42
50.0
 43
0.0
 44
0.0
 45
35.7
 50
0.0
 51
0.0
 72
   100
 90
   557152
  1

281
     0
 71
     1
 74
     0
110
0.0
120
0.0
130
0.0
111
1.0
121
0.0
131
0.0
112
0.0
122
1.0
132
0.0
 79
     0
146
0.0
  0
ENDBLK
  5
25
330
23
100
AcDbEntity
  8
0
100
AcDbBlockEnd
  0
ENDSEC
  0
SECTION
  2
ENTITIES
  0
SPLINE
  5
73
330
1F
100
AcDbEntity
  8
0
  6
Continuous
 62
     7
370
    25
100
AcDbSpline
210
0.0
220
0.0
230
1.0
 70
     8
 71
     3
 72
    33
 73
    29
 74
     0
 42
0.000000001
 43
0.00000001
 40
0.0
 40
0.0
 40
0.0
 40
0.0
 40
0.0271727338241468
 40
0.0569303544894215
 40
0.0890478364735442
 40
0.1232968462555303
 40
0.1594469863148197
 40
0.2092744468157827
 40
0.2614424897219723
 40
0.3154278717989484
 40
0.3896636015091539
 40
0.4649657289657332
 40
0.5400852531883887
 40
0.6137830830558301
 40
0.6547872334925438
 40
0.6947025590981255
 40
0.7333076482327966
 40
0.7703857430142862
 40
0.8057264193791802
 40
0.83912805461441
 40
0.8704015566828738
 40
0.8933695112123293
 40
0.9148466075100081
 40
0.9347762833950167
 40
0.9531233539802271
 40
0.9698841918630456
 40
0.9852078786293774
 40
1.0
 40
1.0
 40
1.0
 40
1.0
 10
-10.0
 20
14.0
 30
0.0
 10
-9.997107976279606
 20
13.67489865050385
 30
0.0
 10
-9.99104881651087
 20
12.99376972208673
 30
0.0
 10
-9.947989709800312
 20
11.92911418066709
 30
0.0
 10
-9.88170510283877
 20
10.78095729107728
 30
0.0
 10
-9.78957428550198
 20
9.557839832202301
 30
0.0
 10
-9.66026402620754
 20
8.125219045697902
 30
0.0
 10
-9.485484504752527
 20
6.481611899337322
 30
0.0
 10
-9.25782106522414
 20
4.629303005230342
 30
0.0
 10
-8.961190322585367
 20
2.491511175207879
 30
0.0
 10
-8.583387287208195
 20
0.0858481923847192
 30
0.0
 10
-8.11127580895876
 20
-2.560393935040694
 30
0.0
 10
-7.581806557988273
 20
-5.189222212473231
 30
0.0
 10
-7.078499848640536
 20
-7.404096352122425
 30
0.0
 10
-6.627615438051723
 20
-9.198249466111783
 30
0.0
 10
-6.253721460184061
 20
-10.57860132785144
 30
0.0
 10
-5.864732231114605
 20
-11.90591724547515
 30
0.0
 10
-5.461352364463415
 20
-13.17163208068387
 30
0.0
 10
-5.044303421990766
 20
-14.36720870139889
 30
0.0
 10
-4.614302825275141
 20
-15.48412462281485
 30
0.0
 10
-4.200454397445742
 20
-16.44792927761511
 30
0.0
 10
-3.808350277736261
 20
-17.2648388424111
 30
0.0
 10
-3.445007500785242
 20
-17.94425777807648
 30
0.0
 10
-3.075119464565547
 20
-18.55650337803927
 30
0.0
 10
-2.69878296524025
 20
-19.09747772513425
 30
0.0
 10
-2.31570360543425
 20
-19.56473360062911
 30
0.0
 10
-1.91640637200283
 20
-19.96016537655415
 30
0.0
 10
-1.637159153443645
 20
-20.18806264169666
 30
0.0
 10
-1.499999999999989
 20
-20.30000000000001
 30
0.0
  0
SPLINE
  5
74
330
1F
100
AcDbEntity
  8
0
  6
Continuous
 62
     7
370
    25
100
AcDbSpline
210
0.0
220
0.0
230
1.0
 70
     8
 71
     3
 72
    34
 73
    30
 74
     0
 42
0.000000001
 43
0.00000001
 40
0.0
 40
0.0
 40
0.0
 40
0.0
 40
0.0156591021912781
 40
0.031987895989527
 40
0.0499684386728769
 40
0.0697277790615529
 40
0.0912529025560605
 40
0.1144946106526571
 40
0.1439889011489691
 40
0.1756168172271856
 40
0.2092088515338551
 40
0.244581303360371
 40
0.2887434266083646
 40
0.3348148512765413
 40
0.3824463276541419
 40
0.4312816372537543
 40
0.4809595335196855
 40
0.5311150909808051
 40
0.5914142656325377
 40
0.6512328699618869
 40
0.7099292360256255
 40
0.7668601238829985
 40
0.8213818097648959
 40
0.8554673542959965
 40
0.8880643446965998
 40
0.9189934527654491
 40
0.9480764208441192
 40
0.9751366306342364
 40
1.0
 40
1.0
 40
1.0
 40
1.0
 10
1.499999999999998
 20
-20.30000000000001
 30
0.0
 10
1.645155534768532
 20
-20.18142095672284
 30
0.0
 10
1.941674459784952
 20
-19.93919160943623
 30
0.0
 10
2.363212788463355
 20
-19.5133345095938
 30
0.0
 10
2.76714226929648
 20
-19.00687341282529
 30
0.0
 10
3.163877434605712
 20
-18.41850339420512
 30
0.0
 10
3.55331070962727
 20
-17.75141845120133
 30
0.0
 10
3.96061019908851
 20
-16.96144791577733
 30
0.0
 10
4.38029790245821
 20
-16.04309403349035
 30
0.0
 10
4.808362870873099
 20
-14.99360955709841
 30
0.0
 10
5.224361345872739
 20
-13.86408167097431
 30
0.0
 10
5.655029173792324
 20
-12.58080487249227
 30
0.0
 10
6.093920836033354
 20
-11.14335794819002
 30
0.0
 10
6.535632499687255
 20
-9.554020261160948
 30
0.0
 10
6.956154849764443
 20
-7.901217841216026
 30
0.0
 10
7.354364766111714
 20
-6.198579063995447
 30
0.0
 10
7.729147127319973
 20
-4.459741308621133
 30
0.0
 10
8.10280309451299
 20
-2.580617091798483
 30
0.0
 10
8.467275435234026
 20
-0.5762140460316318
 30
0.0
 10
8.814442605602162
 20
1.534875099544216
 30
0.0
 10
9.12105654152151
 20
3.611505272455493
 30
0.0
 10
9.385266293586824
 20
5.630055568237227
 30
0.0
 10
9.581795392845866
 20
7.360257822780262
 30
0.0
 10
9.723269482545458
 20
8.80347452033692
 30
0.0
 10
9.822002473693903
 20
9.96716081764043
 30
0.0
 10
9.900062611872837
 20
11.07244189338282
 30
0.0
 10
9.956161966203965
 20
12.11269705166914
 30
0.0
 10
9.992508150505158
 20
13.08130304937436
 30
0.0
 10
9.997574162995026
 20
13.7025288534266
 30
0.0
 10
10.0
 20
14.0
 30
0.0
  0
SPLINE
  5
75
330
1F
100
AcDbEntity
  8
0
  6
Continuous
 62
     7
370
    25
100
AcDbSpline
210
0.0
220
0.0
230
1.0
 70
     8
 71
     3
 72
    13
 73
     9
 74
     0
 42
0.000000001
 43
0.00000001
 40
0.0
 40
0.0
 40
0.0
 40
0.0
 40
0.2385959380790898
 40
0.4373376896345869
 40
0.6007135546058651
 40
0.7337787197696307
 40
0.892125668566949
 40
1.0
 40
1.0
 40
1.0
 40
1.0
 10
-1.499999999999996
 20
-20.3
 30
0.0
 10
-1.394353892748782
 20
-20.38267626012374
 30
0.0
 10
-1.200708414807668
 20
-20.53421884245452
 30
0.0
 10
-0.9156159017959997
 20
-20.71593834968428
 30
0.0
 10
-0.6681832912850286
 20
-20.84442606899603
 30
0.0
 10
-0.4298646932154643
 20
-20.93725880334755
 30
0.0
 10
-0.2104503919271472
 20
-20.99242883797291
 30
0.0
 10
-0.0606855430033458
 20
-20.99781677727197
 30
0.0
 10
0.0000000000000042
 20
-21.0
 30
0.0
  0
SPLINE
  5
76
330
1F
100
AcDbEntity
  8
0
  6
Continuous
 62
     7
370
    25
100
AcDbSpline
210
0.0
220
0.0
230
1.0
 70
     8
 71
     3
 72
    13
 73
     9
 74
     0
 42
0.000000001
 43
0.00000001
 40
0.0
 40
0.0
 40
0.0
 40
0.0
 40
0.0885524280220537
 40
0.2122732432609612
 40
0.3785640760838815
 40
0.5456821383528198
 40
0.7510696027694583
 40
1.0
 40
1.0
 40
1.0
 40
1.0
 10
0.0000000000000044
 20
-21.0
 30
0.0
 10
0.0498015988698041
 20
-20.99859464238274
 30
0.0
 10
0.169183383737871
 20
-20.99522579269651
 30
0.0
 10
0.3788711737104588
 20
-20.95308163160307
 30
0.0
 10
0.6215833561530167
 20
-20.86653948494948
 30
0.0
 10
0.8923238856393345
 20
-20.72981161135376
 30
0.0
 10
1.188430634862754
 20
-20.54347938661764
 30
0.0
 10
1.389713078063993
 20
-20.38618495625557
 30
0.0
 10
1.500000000000005
 20
-20.30000000000001
 30
0.0
  0
LINE
  5
79
330
1F
100
AcDbEntity
  8
0
  6
Continuous
 62
     7
370
    25
100
AcDbLine
 10
-10.0
 20
14.0
 30
0.0
 11
9.9999999997
 21
14.0
 31
0.0
  0
LINE
  5
7A
330
1F
100
AcDbEntity
  8
0
  6
Continuous
 62
     8
370
    25
100
AcDbLine
 10
-1.5
 20
-20.3
 30
0.0
 11
1.4999991564
 21
-20.3
 31
0.0
  0
SPLINE
  5
89
330
85
100
AcDbEntity
 67
     1
  8
0
  6
Continuous
 62
     7
370
    25
100
AcDbSpline
210
0.0
220
0.0
230
1.0
 70
     8
 71
     3
 72
    33
 73
    29
 74
     0
 42
0.000000001
 43
0.00000001
 40
0.0
 40
0.0
 40
0.0
 40
0.0
 40
0.0271727338241468
 40
0.0569303544894215
 40
0.0890478364735442
 40
0.1232968462555303
 40
0.1594469863148196
 40
0.2092744468157827
 40
0.2614424897219722
 40
0.3154278717989483
 40
0.3896636015091539
 40
0.4649657289657331
 40
0.5400852531883886
 40
0.6137830830558301
 40
0.6547872334925438
 40
0.6947025590981254
 40
0.7333076482327966
 40
0.7703857430142861
 40
0.8057264193791802
 40
0.83912805461441
 40
0.8704015566828738
 40
0.8933695112123293
 40
0.9148466075100081
 40
0.9347762833950167
 40
0.9531233539802272
 40
0.9698841918630456
 40
0.9852078786293774
 40
1.0
 40
1.0
 40
1.0
 40
1.0
 10
-10.0
 20
14.0
 30
0.0
 10
-9.997107976279604
 20
13.67489865050385
 30
0.0
 10
-9.991048816510869
 20
12.99376972208673
 30
0.0
 10
-9.947989709800316
 20
11.92911418066709
 30
0.0
 10
-9.881705102838765
 20
10.78095729107728
 30
0.0
 10
-9.789574285501983
 20
9.557839832202301
 30
0.0
 10
-9.660264026207539
 20
8.125219045697902
 30
0.0
 10
-9.485484504752536
 20
6.481611899337324
 30
0.0
 10
-9.257821065224144
 20
4.629303005230345
 30
0.0
 10
-8.961190322585365
 20
2.491511175207877
 30
0.0
 10
-8.5833872872082
 20
0.0858481923847218
 30
0.0
 10
-8.111275808958764
 20
-2.560393935040695
 30
0.0
 10
-7.58180655798828
 20
-5.189222212473236
 30
0.0
 10
-7.078499848640535
 20
-7.404096352122417
 30
0.0
 10
-6.627615438051728
 20
-9.198249466111783
 30
0.0
 10
-6.253721460184063
 20
-10.57860132785144
 30
0.0
 10
-5.864732231114604
 20
-11.90591724547514
 30
0.0
 10
-5.461352364463416
 20
-13.17163208068387
 30
0.0
 10
-5.044303421990776
 20
-14.3672087013989
 30
0.0
 10
-4.614302825275145
 20
-15.48412462281485
 30
0.0
 10
-4.200454397445744
 20
-16.44792927761511
 30
0.0
 10
-3.808350277736267
 20
-17.2648388424111
 30
0.0
 10
-3.445007500785245
 20
-17.94425777807648
 30
0.0
 10
-3.075119464565551
 20
-18.55650337803926
 30
0.0
 10
-2.698782965240258
 20
-19.09747772513425
 30
0.0
 10
-2.315703605434252
 20
-19.56473360062912
 30
0.0
 10
-1.916406372002835
 20
-19.96016537655414
 30
0.0
 10
-1.63715915344365
 20
-20.18806264169666
 30
0.0
 10
-1.499999999999994
 20
-20.30000000000001
 30
0.0
  0
SPLINE
  5
8A
330
85
100
AcDbEntity
 67
     1
  8
0
  6
Continuous
 62
     7
370
    25
100
AcDbSpline
210
0.0
220
0.0
230
1.0
 70
     8
 71
     3
 72
    34
 73
    30
 74
     0
 42
0.000000001
 43
0.00000001
 40
0.0
 40
0.0
 40
0.0
 40
0.0
 40
0.0156591021912781
 40
0.031987895989527
 40
0.0499684386728769
 40
0.0697277790615529
 40
0.0912529025560605
 40
0.1144946106526571
 40
0.1439889011489691
 40
0.1756168172271855
 40
0.209208851533855
 40
0.244581303360371
 40
0.2887434266083646
 40
0.3348148512765413
 40
0.3824463276541417
 40
0.4312816372537542
 40
0.4809595335196853
 40
0.5311150909808049
 40
0.5914142656325375
 40
0.6512328699618867
 40
0.7099292360256253
 40
0.7668601238829982
 40
0.8213818097648956
 40
0.8554673542959962
 40
0.8880643446965996
 40
0.9189934527654489
 40
0.9480764208441192
 40
0.9751366306342363
 40
1.0
 40
1.0
 40
1.0
 40
1.0
 10
1.499999999999994
 20
-20.30000000000001
 30
0.0
 10
1.645155534768528
 20
-20.18142095672284
 30
0.0
 10
1.941674459784949
 20
-19.93919160943623
 30
0.0
 10
2.36321278846335
 20
-19.5133345095938
 30
0.0
 10
2.767142269296477
 20
-19.00687341282529
 30
0.0
 10
3.163877434605706
 20
-18.41850339420512
 30
0.0
 10
3.553310709627266
 20
-17.75141845120133
 30
0.0
 10
3.960610199088506
 20
-16.96144791577733
 30
0.0
 10
4.380297902458206
 20
-16.04309403349035
 30
0.0
 10
4.808362870873093
 20
-14.99360955709841
 30
0.0
 10
5.224361345872739
 20
-13.86408167097431
 30
0.0
 10
5.655029173792316
 20
-12.58080487249226
 30
0.0
 10
6.093920836033352
 20
-11.14335794819002
 30
0.0
 10
6.535632499687251
 20
-9.554020261160952
 30
0.0
 10
6.956154849764441
 20
-7.901217841216027
 30
0.0
 10
7.35436476611171
 20
-6.198579063995446
 30
0.0
 10
7.729147127319973
 20
-4.459741308621138
 30
0.0
 10
8.102803094512982
 20
-2.580617091798479
 30
0.0
 10
8.467275435234027
 20
-0.5762140460316341
 30
0.0
 10
8.814442605602158
 20
1.534875099544216
 30
0.0
 10
9.121056541521511
 20
3.611505272455488
 30
0.0
 10
9.385266293586822
 20
5.63005556823723
 30
0.0
 10
9.581795392845862
 20
7.360257822780259
 30
0.0
 10
9.72326948254546
 20
8.803474520336923
 30
0.0
 10
9.822002473693905
 20
9.967160817640432
 30
0.0
 10
9.900062611872835
 20
11.07244189338281
 30
0.0
 10
9.956161966203965
 20
12.11269705166914
 30
0.0
 10
9.992508150505156
 20
13.08130304937436
 30
0.0
 10
9.997574162995026
 20
13.7025288534266
 30
0.0
 10
10.0
 20
14.0
 30
0.0
  0
SPLINE
  5
8B
330
85
100
AcDbEntity
 67
     1
  8
0
  6
Continuous
 62
     7
370
    25
100
AcDbSpline
210
0.0
220
0.0
230
1.0
 70
     8
 71
     3
 72
    13
 73
     9
 74
     0
 42
0.000000001
 43
0.00000001
 40
0.0
 40
0.0
 40
0.0
 40
0.0
 40
0.2385959380790897
 40
0.437337689634587
 40
0.6007135546058651
 40
0.7337787197696307
 40
0.892125668566949
 40
1.0
 40
1.0
 40
1.0
 40
1.0
 10
-1.5
 20
-20.3
 30
0.0
 10
-1.394353892748786
 20
-20.38267626012374
 30
0.0
 10
-1.200708414807673
 20
-20.53421884245452
 30
0.0
 10
-0.9156159017960039
 20
-20.71593834968428
 30
0.0
 10
-0.6681832912850331
 20
-20.84442606899603
 30
0.0
 10
-0.4298646932154686
 20
-20.93725880334755
 30
0.0
 10
-0.2104503919271515
 20
-20.99242883797291
 30
0.0
 10
-0.0606855430033501
 20
-20.99781677727197
 30
0.0
 10
-0.0000000000000001
 20
-21.0
 30
0.0
  0
SPLINE
  5
8C
330
85
100
AcDbEntity
 67
     1
  8
0
  6
Continuous
 62
     7
370
    25
100
AcDbSpline
210
0.0
220
0.0
230
1.0
 70
     8
 71
     3
 72
    13
 73
     9
 74
     0
 42
0.000000001
 43
0.00000001
 40
0.0
 40
0.0
 40
0.0
 40
0.0
 40
0.0885524280220537
 40
0.2122732432609612
 40
0.3785640760838814
 40
0.5456821383528196
 40
0.7510696027694583
 40
1.0
 40
1.0
 40
1.0
 40
1.0
 10
0.0000000000000001
 20
-21.0
 30
0.0
 10
0.0498015988697998
 20
-20.99859464238274
 30
0.0
 10
0.1691833837378668
 20
-20.99522579269652
 30
0.0
 10
0.3788711737104542
 20
-20.95308163160306
 30
0.0
 10
0.6215833561530124
 20
-20.86653948494948
 30
0.0
 10
0.8923238856393303
 20
-20.72981161135376
 30
0.0
 10
1.18843063486275
 20
-20.54347938661763
 30
0.0
 10
1.389713078063989
 20
-20.38618495625557
 30
0.0
 10
1.5
 20
-20.30000000000001
 30
0.0
  0
LINE
  5
8F
330
85
100
AcDbEntity
 67
     1
  8
0
  6
Continuous
 62
     7
370
    25
100
AcDbLine
 10
-9.9999999994
 20
14.0
 30
0.0
 11
10.0
 21
14.0
 31
0.0
  0
LINE
  5
90
330
85
100
AcDbEntity
 67
     1
  8
0
  6
Continuous
 62
     8
370
    25
100
AcDbLine
 10
-1.499999999
 20
-20.3
 30
0.0
 11
1.4999999914
 21
-20.3
 31
0.0
  0
VIEWPORT
  5
95
330
85
100
AcDbEntity
 67
     1
  8
0
100
AcDbViewport
 10
0.0
 20
0.0
 30
0.0
 40
205.6
 41
156.0
 68
     1
 69
     1
 12
0.0
 22
-3.5
 13
0.0
 23
0.0
 14
10.0
 24
10.0
 15
10.0
 25
10.0
 16
0.0
 26
0.0
 36
1.0
 17
0.0
 27
0.0
 37
0.0
 42
50.0
 43
0.0
 44
0.0
 45
35.7
 50
0.0
 51
0.0
 72
   100
 90
   557152
  1

281
     0
 71
     1
 74
     0
110
0.0
120
0.0
130
0.0
111
1.0
121
0.0
131
0.0
112
0.0
122
1.0
132
0.0
 79
     0
146
0.0
  0
ENDSEC
  0
SECTION
  2
OBJECTS
  0
DICTIONARY
  5
C
330
0
100
AcDbDictionary
281
     1
  3
ACAD_GROUP
350
D
  3
ACAD_LAYOUT
350
1A
  3
ACAD_MLINESTYLE
350
17
  3
ACAD_PLOTSETTINGS
350
19
  3
ACAD_PLOTSTYLENAME
350
E
  3
ACAD_SCALELIST
350
47
  0
DICTIONARY
  5
D
102
{ACAD_REACTORS
330
C
102
}
330
C
100
AcDbDictionary
281
     1
  0
DICTIONARY
  5
1A
102
{ACAD_REACTORS
330
C
102
}
330
C
100
AcDbDictionary
281
     1
  3
_Dessous
350
26
  3
_Droite
350
86
  3
_Face
350
1E
  3
Model
350
22
  0
DICTIONARY
  5
17
102
{ACAD_REACTORS
330
C
102
}
330
C
100
AcDbDictionary
281
     1
  3
Standard
350
18
  0
DICTIONARY
  5
19
102
{ACAD_REACTORS
330
C
102
}
330
C
100
AcDbDictionary
281
     1
  0
ACDBDICTIONARYWDFLT
  5
E
102
{ACAD_REACTORS
330
C
102
}
330
C
100
AcDbDictionary
281
     1
  3
Normal
350
F
100
AcDbDictionaryWithDefault
340
F
  0
DICTIONARY
  5
47
102
{ACAD_REACTORS
330
C
102
}
330
C
100
AcDbDictionary
281
     1
  3
A0
350
48
  3
A1
350
49
  3
A2
350
4A
  3
A3
350
4B
  3
A4
350
4C
  3
A5
350
4D
  3
A6
350
4E
  3
A7
350
4F
  3
A8
350
50
  3
A9
350
51
  3
B0
350
52
  3
B1
350
53
  3
B2
350
54
  3
B3
350
55
  3
B4
350
56
  3
B5
350
57
  3
B6
350
58
  3
B7
350
59
  3
B8
350
5A
  3
B9
350
5B
  3
C0
350
5C
  3
C1
350
5D
  3
C2
350
5E
  3
C3
350
5F
  3
C4
350
60
  3
C5
350
61
  3
C6
350
62
  3
C7
350
63
  3
C8
350
64
  3
C9
350
65
  3
D0
350
66
  3
D1
350
67
  3
D2
350
68
  0
LAYOUT
  5
26
102
{ACAD_REACTORS
330
1A
102
}
330
1A
100
AcDbPlotSettings
  1

  2
none_device
  4
ISO_A4_(210.00_x_297.00_MM)
  6

 40
7.5
 41
20.0
 42
7.5
 43
20.0
 44
210.0
 45
297.0
 46
0.0
 47
0.0
 48
0.0
 49
0.0
140
0.0
141
0.0
142
1.0
143
0.1794871795
 70
   688
 72
     1
 73
     1
 74
     1
  7

 75
     0
147
5.5714285714
148
10.0
149
21.0
100
AcDbLayout
  1
_Dessous
 70
     1
 71
     2
 10
0.0
 20
0.0
 11
0.0
 21
0.0
 12
0.0
 22
0.0
 32
0.0
 14
0.0
 24
0.0
 34
0.0
 15
0.0
 25
0.0
 35
0.0
146
0.0
 13
0.0
 23
0.0
 33
0.0
 16
1.0
 26
0.0
 36
0.0
 17
0.0
 27
1.0
 37
0.0
 76
     0
330
23
331
93
  0
LAYOUT
  5
86
102
{ACAD_REACTORS
330
1A
102
}
330
1A
100
AcDbPlotSettings
  1

  2
none_device
  4
ANSI_A_(11.00_x_8.50_Inches)
  6

 40
6.35
 41
19.05
 42
6.35000508
 43
19.05000254
 44
279.4
 45
215.9
 46
133.34999746
 47
110.27409873
 48
0.0
 49
0.0
140
0.0
141
0.0
142
0.2404285714
143
1.0
 70
  1696
 72
     0
 73
     0
 74
     1
  7

 75
     0
147
0.1999999971
148
254.0
149
533.4
100
AcDbLayout
  1
_Droite
 70
     1
 71
     3
 10
0.0
 20
0.0
 11
0.0
 21
0.0
 12
0.0
 22
0.0
 32
0.0
 14
-10.0
 24
-21.0
 34
0.0
 15
10.0
 25
14.0
 35
0.0
146
0.0
 13
0.0
 23
0.0
 33
0.0
 16
1.0
 26
0.0
 36
0.0
 17
0.0
 27
1.0
 37
0.0
 76
     0
330
85
331
95
  0
LAYOUT
  5
1E
102
{ACAD_REACTORS
330
1A
102
}
330
1A
100
AcDbPlotSettings
  1

  2
none_device
  4
ISO_A4_(210.00_x_297.00_MM)
  6

 40
7.5
 41
20.0
 42
7.5
 43
20.0
 44
210.0
 45
297.0
 46
0.0
 47
0.0
 48
0.0
 49
0.0
140
0.0
141
0.0
142
1.0
143
0.1794871795
 70
   688
 72
     1
 73
     1
 74
     1
  7

 75
     0
147
5.5714285714
148
10.0
149
21.0
100
AcDbLayout
  1
_Face
 70
     1
 71
     1
 10
-13.5897435897
 20
-22.3461538462
 11
39.7179487179
 21
15.3461538462
 12
0.0
 22
0.0
 32
0.0
 14
1.0000000000E+20
 24
1.0000000000E+20
 34
1.0000000000E+20
 15
-1.0000000000E+20
 25
-1.0000000000E+20
 35
-1.0000000000E+20
146
0.0
 13
0.0
 23
0.0
 33
0.0
 16
1.0
 26
0.0
 36
0.0
 17
0.0
 27
1.0
 37
0.0
 76
     0
330
1B
331
91
  0
LAYOUT
  5
22
102
{ACAD_REACTORS
330
1A
102
}
330
1A
100
AcDbPlotSettings
  1

  2
none_device
  4
Letter_(8.50_x_11.00_Inches)
  6

 40
6.35
 41
6.35
 42
6.35000508
 43
6.35000508
 44
215.9
 45
279.4
 46
0.0
 47
0.0
 48
0.0
 49
0.0
140
0.0
141
0.0
142
1.0
143
1.0
 70
  1712
 72
     1
 73
     0
 74
     0
  7

 75
     0
147
1.0
148
0.0
149
0.0
100
AcDbLayout
  1
Model
 70
     1
 71
     0
 10
0.0
 20
0.0
 11
420.0
 21
297.0
 12
0.0
 22
0.0
 32
0.0
 14
-10.0
 24
-21.0
 34
0.0
 15
10.0
 25
14.0
 35
0.0
146
0.0
 13
0.0
 23
0.0
 33
0.0
 16
1.0
 26
0.0
 36
0.0
 17
0.0
 27
1.0
 37
0.0
 76
     0
330
1F
331
29
  0
MLINESTYLE
  5
18
102
{ACAD_REACTORS
330
17
102
}
330
17
100
AcDbMlineStyle
  2
Standard
 70
     0
  3

 62
   256
 51
90.0
 52
90.0
 71
     2
 49
0.5
 62
   256
  6
BYLAYER
 49
-0.5
 62
   256
  6
BYLAYER
  0
ACDBPLACEHOLDER
  5
F
102
{ACAD_REACTORS
330
E
102
}
330
E
  0
SCALE
  5
48
102
{ACAD_REACTORS
330
47
102
}
330
47
100
AcDbScale
 70
     0
300
1:1
140
1.0
141
1.0
290
     1
  0
SCALE
  5
49
102
{ACAD_REACTORS
330
47
102
}
330
47
100
AcDbScale
 70
     0
300
1:2
140
1.0
141
2.0
290
     0
  0
SCALE
  5
4A
102
{ACAD_REACTORS
330
47
102
}
330
47
100
AcDbScale
 70
     0
300
1:4
140
1.0
141
4.0
290
     0
  0
SCALE
  5
4B
102
{ACAD_REACTORS
330
47
102
}
330
47
100
AcDbScale
 70
     0
300
1:5
140
1.0
141
5.0
290
     0
  0
SCALE
  5
4C
102
{ACAD_REACTORS
330
47
102
}
330
47
100
AcDbScale
 70
     0
300
1:8
140
1.0
141
8.0
290
     0
  0
SCALE
  5
4D
102
{ACAD_REACTORS
330
47
102
}
330
47
100
AcDbScale
 70
     0
300
1:10
140
1.0
141
10.0
290
     0
  0
SCALE
  5
4E
102
{ACAD_REACTORS
330
47
102
}
330
47
100
AcDbScale
 70
     0
300
1:16
140
1.0
141
16.0
290
     0
  0
SCALE
  5
4F
102
{ACAD_REACTORS
330
47
102
}
330
47
100
AcDbScale
 70
     0
300
1:20
140
1.0
141
20.0
290
     0
  0
SCALE
  5
50
102
{ACAD_REACTORS
330
47
102
}
330
47
100
AcDbScale
 70
     0
300
1:30
140
1.0
141
30.0
290
     0
  0
SCALE
  5
51
102
{ACAD_REACTORS
330
47
102
}
330
47
100
AcDbScale
 70
     0
300
1:40
140
1.0
141
40.0
290
     0
  0
SCALE
  5
52
102
{ACAD_REACTORS
330
47
102
}
330
47
100
AcDbScale
 70
     0
300
1:50
140
1.0
141
50.0
290
     0
  0
SCALE
  5
53
102
{ACAD_REACTORS
330
47
102
}
330
47
100
AcDbScale
 70
     0
300
1:100
140
1.0
141
100.0
290
     0
  0
SCALE
  5
54
102
{ACAD_REACTORS
330
47
102
}
330
47
100
AcDbScale
 70
     0
300
2:1
140
2.0
141
1.0
290
     0
  0
SCALE
  5
55
102
{ACAD_REACTORS
330
47
102
}
330
47
100
AcDbScale
 70
     0
300
4:1
140
4.0
141
1.0
290
     0
  0
SCALE
  5
56
102
{ACAD_REACTORS
330
47
102
}
330
47
100
AcDbScale
 70
     0
300
8:1
140
8.0
141
1.0
290
     0
  0
SCALE
  5
57
102
{ACAD_REACTORS
330
47
102
}
330
47
100
AcDbScale
 70
     0
300
10:1
140
10.0
141
1.0
290
     0
  0
SCALE
  5
58
102
{ACAD_REACTORS
330
47
102
}
330
47
100
AcDbScale
 70
     0
300
100:1
140
100.0
141
1.0
290
     0
  0
SCALE
  5
59
102
{ACAD_REACTORS
330
47
102
}
330
47
100
AcDbScale
 70
     0
300
1/128" = 1'-0"
140
0.0078125
141
12.0
290
     0
  0
SCALE
  5
5A
102
{ACAD_REACTORS
330
47
102
}
330
47
100
AcDbScale
 70
     0
300
1/64" = 1'-0"
140
0.015625
141
12.0
290
     0
  0
SCALE
  5
5B
102
{ACAD_REACTORS
330
47
102
}
330
47
100
AcDbScale
 70
     0
300
1/32" = 1'-0"
140
0.03125
141
12.0
290
     0
  0
SCALE
  5
5C
102
{ACAD_REACTORS
330
47
102
}
330
47
100
AcDbScale
 70
     0
300
1/16" = 1'-0"
140
0.0625
141
12.0
290
     0
  0
SCALE
  5
5D
102
{ACAD_REACTORS
330
47
102
}
330
47
100
AcDbScale
 70
     0
300
3/32" = 1'-0"
140
0.09375
141
12.0
290
     0
  0
SCALE
  5
5E
102
{ACAD_REACTORS
330
47
102
}
330
47
100
AcDbScale
 70
     0
300
1/8" = 1'-0"
140
0.125
141
12.0
290
     0
  0
SCALE
  5
5F
102
{ACAD_REACTORS
330
47
102
}
330
47
100
AcDbScale
 70
     0
300
3/16" = 1'-0"
140
0.1875
141
12.0
290
     0
  0
SCALE
  5
60
102
{ACAD_REACTORS
330
47
102
}
330
47
100
AcDbScale
 70
     0
300
1/4" = 1'-0"
140
0.25
141
12.0
290
     0
  0
SCALE
  5
61
102
{ACAD_REACTORS
330
47
102
}
330
47
100
AcDbScale
 70
     0
300
3/8" = 1'-0"
140
0.375
141
12.0
290
     0
  0
SCALE
  5
62
102
{ACAD_REACTORS
330
47
102
}
330
47
100
AcDbScale
 70
     0
300
1/2" = 1'-0"
140
0.5
141
12.0
290
     0
  0
SCALE
  5
63
102
{ACAD_REACTORS
330
47
102
}
330
47
100
AcDbScale
 70
     0
300
3/4" = 1'-0"
140
0.75
141
12.0
290
     0
  0
SCALE
  5
64
102
{ACAD_REACTORS
330
47
102
}
330
47
100
AcDbScale
 70
     0
300
1" = 1'-0"
140
1.0
141
12.0
290
     0
  0
SCALE
  5
65
102
{ACAD_REACTORS
330
47
102
}
330
47
100
AcDbScale
 70
     0
300
1-1/2" = 1'-0"
140
1.5
141
12.0
290
     0
  0
SCALE
  5
66
102
{ACAD_REACTORS
330
47
102
}
330
47
100
AcDbScale
 70
     0
300
3" = 1'-0"
140
3.0
141
12.0
290
     0
  0
SCALE
  5
67
102
{ACAD_REACTORS
330
47
102
}
330
47
100
AcDbScale
 70
     0
300
6" = 1'-0"
140
6.0
141
12.0
290
     0
  0
SCALE
  5
68
102
{ACAD_REACTORS
330
47
102
}
330
47
100
AcDbScale
 70
     0
300
1'-0" = 1'-0"
140
12.0
141
12.0
290
     0
  0
ENDSEC
  0
EOF
