ISO-10303-21;
HEADER;
FILE_DESCRIPTION (( 'STEP AP214' ),
    '1' );
FILE_NAME ('trigger_wheel_acier_base.STEP',
    '2018-11-25T21:37:16',
    ( '' ),
    ( '' ),
    'SwSTEP 2.0',
    'SolidWorks 2016',
    '' );
FILE_SCHEMA (( 'AUTOMOTIVE_DESIGN' ));
ENDSEC;

DATA;
#1 = EDGE_LOOP ( 'NONE', ( #175, #110 ) ) ;
#2 = EDGE_CURVE ( 'NONE', #137, #56, #124, .T. ) ;
#3 = ADVANCED_FACE ( 'NONE', ( #67 ), #263, .F. ) ;
#4 =( NAMED_UNIT ( * ) PLANE_ANGLE_UNIT ( ) SI_UNIT ( $, .RADIAN. ) );
#5 = CYLINDRICAL_SURFACE ( 'NONE', #138, 4.250000000000000000 ) ;
#6 = VERTEX_POINT ( 'NONE', #39 ) ;
#7 = FILL_AREA_STYLE ('',( #51 ) ) ;
#8 = EDGE_CURVE ( 'NONE', #94, #285, #220, .T. ) ;
#9 = CARTESIAN_POINT ( 'NONE',  ( 8.725608443924904900E-016, 14.24999999999999500, 0.0000000000000000000 ) ) ;
#10 = FACE_BOUND ( 'NONE', #201, .T. ) ;
#11 = DIRECTION ( 'NONE',  ( 1.000000000000000000, 0.0000000000000000000, 0.0000000000000000000 ) ) ;
#12 = ORIENTED_EDGE ( 'NONE', *, *, #103, .F. ) ;
#13 = CIRCLE ( 'NONE', #226, 7.500000000000001800 ) ;
#14 = DIRECTION ( 'NONE',  ( -1.000000000000000000, 6.570922257487903800E-017, 0.0000000000000000000 ) ) ;
#15 = AXIS2_PLACEMENT_3D ( 'NONE', #116, #68, #165 ) ;
#16 = ORIENTED_EDGE ( 'NONE', *, *, #120, .F. ) ;
#17 =( GEOMETRIC_REPRESENTATION_CONTEXT ( 3 ) GLOBAL_UNCERTAINTY_ASSIGNED_CONTEXT ( ( #119 ) ) GLOBAL_UNIT_ASSIGNED_CONTEXT ( ( #30, #251, #117 ) ) REPRESENTATION_CONTEXT ( 'NONE', 'WORKASPACE' ) );
#18 = DIRECTION ( 'NONE',  ( 6.123233995736777100E-017, 1.000000000000000000, -0.0000000000000000000 ) ) ;
#19 = COLOUR_RGB ( '',0.7921568627450980000, 0.8196078431372548800, 0.9333333333333333500 ) ;
#20 = CIRCLE ( 'NONE', #59, 4.250000000000000000 ) ;
#21 = ORIENTED_EDGE ( 'NONE', *, *, #103, .T. ) ;
#22 = DIRECTION ( 'NONE',  ( -1.000000000000000000, 5.102127870520020600E-017, 0.0000000000000000000 ) ) ;
#23 = CIRCLE ( 'NONE', #244, 4.250000000000000000 ) ;
#24 = CARTESIAN_POINT ( 'NONE',  ( 4.250000000000000000, 0.9999999999999988900, 5.204748896376250700E-016 ) ) ;
#25 = CARTESIAN_POINT ( 'NONE',  ( 6.123233995736772200E-017, 0.9999999999999991100, 0.0000000000000000000 ) ) ;
#26 = SURFACE_STYLE_USAGE ( .BOTH. , #135 ) ;
#27 = AXIS2_PLACEMENT_3D ( 'NONE', #250, #234, #11 ) ;
#28 =( NAMED_UNIT ( * ) PLANE_ANGLE_UNIT ( ) SI_UNIT ( $, .RADIAN. ) );
#29 = AXIS2_PLACEMENT_3D ( 'NONE', #166, #52, #280 ) ;
#30 =( LENGTH_UNIT ( ) NAMED_UNIT ( * ) SI_UNIT ( .MILLI., .METRE. ) );
#31 = EDGE_LOOP ( 'NONE', ( #282, #99, #218, #83 ) ) ;
#32 = AXIS2_PLACEMENT_3D ( 'NONE', #134, #245, #202 ) ;
#33 = APPLICATION_CONTEXT ( 'automotive_design' ) ;
#34 = APPLICATION_PROTOCOL_DEFINITION ( 'draft international standard', 'automotive_design', 1998, #33 ) ;
#35 = VECTOR ( 'NONE', #240, 1000.000000000000000 ) ;
#36 = DIRECTION ( 'NONE',  ( -1.000000000000000000, 6.570922257487906300E-017, 0.0000000000000000000 ) ) ;
#37 = CIRCLE ( 'NONE', #15, 7.500000000000001800 ) ;
#38 = EDGE_LOOP ( 'NONE', ( #53, #243, #21, #162 ) ) ;
#39 = CARTESIAN_POINT ( 'NONE',  ( 4.250000000000000000, 0.9999999999999986700, 5.204748896376250700E-016 ) ) ;
#40 = CARTESIAN_POINT ( 'NONE',  ( -6.018531076210112000E-032, -8.673617379884035500E-016, 0.0000000000000000000 ) ) ;
#41 = EDGE_LOOP ( 'NONE', ( #216, #191, #253, #187 ) ) ;
#42 = CARTESIAN_POINT ( 'NONE',  ( -6.599999999999999600, 0.9999999999999991100, 0.0000000000000000000 ) ) ;
#43 = PRODUCT_RELATED_PRODUCT_CATEGORY ( 'part', '', ( #272 ) ) ;
#44 = DIRECTION ( 'NONE',  ( -1.000000000000000000, 0.0000000000000000000, 0.0000000000000000000 ) ) ;
#45 = SHAPE_DEFINITION_REPRESENTATION ( #96, #79 ) ;
#46 = DIRECTION ( 'NONE',  ( 1.000000000000000000, -6.123233995736777100E-017, 0.0000000000000000000 ) ) ;
#47 = EDGE_CURVE ( 'NONE', #285, #248, #57, .T. ) ;
#48 = DIRECTION ( 'NONE',  ( -1.000000000000000000, 5.102127870520020600E-017, 0.0000000000000000000 ) ) ;
#49 = CYLINDRICAL_SURFACE ( 'NONE', #205, 7.500000000000000900 ) ;
#50 = FACE_OUTER_BOUND ( 'NONE', #41, .T. ) ;
#51 = FILL_AREA_STYLE_COLOUR ( '', #157 ) ;
#52 = DIRECTION ( 'NONE',  ( 6.123233995736777100E-017, 1.000000000000000000, -0.0000000000000000000 ) ) ;
#53 = ORIENTED_EDGE ( 'NONE', *, *, #64, .F. ) ;
#54 = DIRECTION ( 'NONE',  ( 6.123233995736777100E-017, 1.000000000000000000, -0.0000000000000000000 ) ) ;
#55 = APPLICATION_CONTEXT ( 'automotive_design' ) ;
#56 = VERTEX_POINT ( 'NONE', #127 ) ;
#57 = CIRCLE ( 'NONE', #188, 7.500000000000000000 ) ;
#58 = CLOSED_SHELL ( 'NONE', ( #3, #184, #204, #179, #136, #160, #267, #89, #70 ) ) ;
#59 = AXIS2_PLACEMENT_3D ( 'NONE', #109, #266, #22 ) ;
#60 = CYLINDRICAL_SURFACE ( 'NONE', #215, 6.600000000000001400 ) ;
#61 = EDGE_LOOP ( 'NONE', ( #176, #146, #159, #249 ) ) ;
#62 = DIRECTION ( 'NONE',  ( 6.123233995736777100E-017, 1.000000000000000000, -0.0000000000000000000 ) ) ;
#63 = CARTESIAN_POINT ( 'NONE',  ( -6.600000000000001400, 0.9999999999999995600, 0.0000000000000000000 ) ) ;
#64 = EDGE_CURVE ( 'NONE', #137, #236, #149, .T. ) ;
#65 = VERTEX_POINT ( 'NONE', #262 ) ;
#66 = CARTESIAN_POINT ( 'NONE',  ( 6.599999999999999600, 0.9999999999999983300, 8.082668874372532000E-016 ) ) ;
#67 = FACE_OUTER_BOUND ( 'NONE', #228, .T. ) ;
#68 = DIRECTION ( 'NONE',  ( 6.123233995736777100E-017, 1.000000000000000000, 0.0000000000000000000 ) ) ;
#69 = DIRECTION ( 'NONE',  ( -1.000000000000000000, 0.0000000000000000000, 0.0000000000000000000 ) ) ;
#70 = ADVANCED_FACE ( 'NONE', ( #86, #210 ), #237, .T. ) ;
#71 = EDGE_LOOP ( 'NONE', ( #16, #213, #132, #203 ) ) ;
#72 = CARTESIAN_POINT ( 'NONE',  ( -4.250000000000000000, -2.831995723028255700E-016, 0.0000000000000000000 ) ) ;
#73 = EDGE_CURVE ( 'NONE', #248, #285, #105, .T. ) ;
#74 = DIRECTION ( 'NONE',  ( 6.123233995736777100E-017, 1.000000000000000000, -0.0000000000000000000 ) ) ;
#75 = ORIENTED_EDGE ( 'NONE', *, *, #275, .T. ) ;
#76 =( GEOMETRIC_REPRESENTATION_CONTEXT ( 3 ) GLOBAL_UNCERTAINTY_ASSIGNED_CONTEXT ( ( #183 ) ) GLOBAL_UNIT_ASSIGNED_CONTEXT ( ( #90, #4, #209 ) ) REPRESENTATION_CONTEXT ( 'NONE', 'WORKASPACE' ) );
#77 = CARTESIAN_POINT ( 'NONE',  ( -7.500000000000000000, -4.081191883081451600E-016, 9.184850993605149900E-016 ) ) ;
#78 = STYLED_ITEM ( 'NONE', ( #206 ), #233 ) ;
#79 = ADVANCED_BREP_SHAPE_REPRESENTATION ( 'trigger_wheel_acier_base', ( #233, #27 ), #152 ) ;
#80 = ORIENTED_EDGE ( 'NONE', *, *, #64, .T. ) ;
#81 = FACE_OUTER_BOUND ( 'NONE', #231, .T. ) ;
#82 = CIRCLE ( 'NONE', #281, 6.600000000000000500 ) ;
#83 = ORIENTED_EDGE ( 'NONE', *, *, #286, .F. ) ;
#84 = DIRECTION ( 'NONE',  ( 3.668176120681002200E-017, -1.000000000000000000, 0.0000000000000000000 ) ) ;
#85 = DIRECTION ( 'NONE',  ( 6.123233995736777100E-017, 1.000000000000000000, -0.0000000000000000000 ) ) ;
#86 = FACE_OUTER_BOUND ( 'NONE', #122, .T. ) ;
#87 = DIRECTION ( 'NONE',  ( -1.000000000000000000, 6.123233995736777100E-017, 0.0000000000000000000 ) ) ;
#88 = CARTESIAN_POINT ( 'NONE',  ( -7.500000000000000900, 14.24999999999999500, 9.184850993605149900E-016 ) ) ;
#89 = ADVANCED_FACE ( 'NONE', ( #50 ), #278, .T. ) ;
#90 =( LENGTH_UNIT ( ) NAMED_UNIT ( * ) SI_UNIT ( .MILLI., .METRE. ) );
#91 = CARTESIAN_POINT ( 'NONE',  ( -4.497183923954908500E-016, 12.25999999999999800, 0.0000000000000000000 ) ) ;
#92 = CARTESIAN_POINT ( 'NONE',  ( 6.123233995736772200E-017, 0.9999999999999991100, 0.0000000000000000000 ) ) ;
#93 = CIRCLE ( 'NONE', #123, 6.600000000000000500 ) ;
#94 = VERTEX_POINT ( 'NONE', #88 ) ;
#95 = AXIS2_PLACEMENT_3D ( 'NONE', #287, #197, #36 ) ;
#96 = PRODUCT_DEFINITION_SHAPE ( 'NONE', 'NONE',  #271 ) ;
#97 = CIRCLE ( 'NONE', #230, 4.250000000000000000 ) ;
#98 = AXIS2_PLACEMENT_3D ( 'NONE', #195, #291, #14 ) ;
#99 = ORIENTED_EDGE ( 'NONE', *, *, #222, .T. ) ;
#100 = PRESENTATION_STYLE_ASSIGNMENT (( #169 ) ) ;
#101 = EDGE_CURVE ( 'NONE', #113, #248, #142, .T. ) ;
#102 = CARTESIAN_POINT ( 'NONE',  ( -7.500000000000001800, 12.25999999999999800, 9.184850993605149900E-016 ) ) ;
#103 = EDGE_CURVE ( 'NONE', #56, #150, #178, .T. ) ;
#104 = SURFACE_STYLE_FILL_AREA ( #7 ) ;
#105 = CIRCLE ( 'NONE', #177, 7.500000000000000000 ) ;
#106 = CARTESIAN_POINT ( 'NONE',  ( -6.018531076210112000E-032, -8.673617379884035500E-016, 0.0000000000000000000 ) ) ;
#107 = CARTESIAN_POINT ( 'NONE',  ( 6.123233995736772200E-017, 0.9999999999999991100, 0.0000000000000000000 ) ) ;
#108 = EDGE_CURVE ( 'NONE', #56, #137, #257, .T. ) ;
#109 = CARTESIAN_POINT ( 'NONE',  ( 6.123233995736771000E-017, 0.9999999999999988900, 0.0000000000000000000 ) ) ;
#110 = ORIENTED_EDGE ( 'NONE', *, *, #292, .F. ) ;
#111 = ORIENTED_EDGE ( 'NONE', *, *, #73, .F. ) ;
#112 = DIRECTION ( 'NONE',  ( -1.000000000000000000, 6.570922257487906300E-017, 0.0000000000000000000 ) ) ;
#113 = VERTEX_POINT ( 'NONE', #181 ) ;
#114 = CARTESIAN_POINT ( 'NONE',  ( -1.203706215242022400E-032, -2.168404344971008900E-016, 0.0000000000000000000 ) ) ;
#115 = AXIS2_PLACEMENT_3D ( 'NONE', #259, #180, #129 ) ;
#116 = CARTESIAN_POINT ( 'NONE',  ( 8.725608443924904900E-016, 14.24999999999999500, 0.0000000000000000000 ) ) ;
#117 =( NAMED_UNIT ( * ) SI_UNIT ( $, .STERADIAN. ) SOLID_ANGLE_UNIT ( ) );
#118 = ORIENTED_EDGE ( 'NONE', *, *, #247, .T. ) ;
#119 = UNCERTAINTY_MEASURE_WITH_UNIT (LENGTH_MEASURE( 1.000000000000000100E-005 ), #30, 'distance_accuracy_value', 'NONE');
#120 = EDGE_CURVE ( 'NONE', #94, #113, #13, .T. ) ;
#121 = PRODUCT_CONTEXT ( 'NONE', #33, 'mechanical' ) ;
#122 = EDGE_LOOP ( 'NONE', ( #154, #264 ) ) ;
#123 = AXIS2_PLACEMENT_3D ( 'NONE', #270, #139, #69 ) ;
#124 = CIRCLE ( 'NONE', #95, 6.599999999999999600 ) ;
#125 = PRODUCT_DEFINITION_CONTEXT ( 'detailed design', #55, 'design' ) ;
#126 = UNCERTAINTY_MEASURE_WITH_UNIT (LENGTH_MEASURE( 1.000000000000000100E-005 ), #284, 'distance_accuracy_value', 'NONE');
#127 = CARTESIAN_POINT ( 'NONE',  ( -6.599999999999999600, 0.9999999999999991100, 0.0000000000000000000 ) ) ;
#128 = VECTOR ( 'NONE', #84, 1000.000000000000000 ) ;
#129 = DIRECTION ( 'NONE',  ( -1.000000000000000000, 6.123233995736777100E-017, 0.0000000000000000000 ) ) ;
#130 = AXIS2_PLACEMENT_3D ( 'NONE', #72, #161, #46 ) ;
#131 = DIRECTION ( 'NONE',  ( -1.000000000000000000, 6.123233995736777100E-017, 0.0000000000000000000 ) ) ;
#132 = ORIENTED_EDGE ( 'NONE', *, *, #47, .T. ) ;
#133 = DIRECTION ( 'NONE',  ( 6.123233995736777100E-017, 1.000000000000000000, -0.0000000000000000000 ) ) ;
#134 = CARTESIAN_POINT ( 'NONE',  ( -4.497183923954908500E-016, 12.25999999999999800, 0.0000000000000000000 ) ) ;
#135 = SURFACE_SIDE_STYLE ('',( #104 ) ) ;
#136 = ADVANCED_FACE ( 'NONE', ( #246 ), #193, .F. ) ;
#137 = VERTEX_POINT ( 'NONE', #66 ) ;
#138 = AXIS2_PLACEMENT_3D ( 'NONE', #25, #225, #48 ) ;
#139 = DIRECTION ( 'NONE',  ( 6.123233995736777100E-017, 1.000000000000000000, 0.0000000000000000000 ) ) ;
#140 = PLANE ( 'NONE',  #130 ) ;
#141 = DIRECTION ( 'NONE',  ( 6.123233995736777100E-017, 1.000000000000000000, -0.0000000000000000000 ) ) ;
#142 = LINE ( 'NONE', #219, #128 ) ;
#143 = EDGE_CURVE ( 'NONE', #239, #6, #20, .T. ) ;
#144 = DIRECTION ( 'NONE',  ( -1.000000000000000000, 6.570922257487903800E-017, 0.0000000000000000000 ) ) ;
#145 = FACE_OUTER_BOUND ( 'NONE', #38, .T. ) ;
#146 = ORIENTED_EDGE ( 'NONE', *, *, #275, .F. ) ;
#147 = DIRECTION ( 'NONE',  ( 6.123233995736777100E-017, 1.000000000000000000, -0.0000000000000000000 ) ) ;
#148 = AXIS2_PLACEMENT_3D ( 'NONE', #107, #18, #268 ) ;
#149 = LINE ( 'NONE', #290, #238 ) ;
#150 = VERTEX_POINT ( 'NONE', #158 ) ;
#151 = LINE ( 'NONE', #24, #269 ) ;
#152 =( GEOMETRIC_REPRESENTATION_CONTEXT ( 3 ) GLOBAL_UNCERTAINTY_ASSIGNED_CONTEXT ( ( #126 ) ) GLOBAL_UNIT_ASSIGNED_CONTEXT ( ( #284, #28, #283 ) ) REPRESENTATION_CONTEXT ( 'NONE', 'WORKASPACE' ) );
#153 = DIRECTION ( 'NONE',  ( 6.123233995736777100E-017, 1.000000000000000000, -0.0000000000000000000 ) ) ;
#154 = ORIENTED_EDGE ( 'NONE', *, *, #174, .T. ) ;
#155 = DIRECTION ( 'NONE',  ( 6.123233995736777100E-017, 1.000000000000000000, -0.0000000000000000000 ) ) ;
#156 = PRESENTATION_LAYER_ASSIGNMENT (  '', '', ( #78 ) ) ;
#157 = COLOUR_RGB ( '',0.7921568627450980000, 0.8196078431372548800, 0.9333333333333333500 ) ;
#158 = CARTESIAN_POINT ( 'NONE',  ( -6.599999999999999600, 14.24999999999999500, 0.0000000000000000000 ) ) ;
#159 = ORIENTED_EDGE ( 'NONE', *, *, #286, .T. ) ;
#160 = ADVANCED_FACE ( 'NONE', ( #81, #10 ), #294, .T. ) ;
#161 = DIRECTION ( 'NONE',  ( -6.123233995736777100E-017, -1.000000000000000000, 0.0000000000000000000 ) ) ;
#162 = ORIENTED_EDGE ( 'NONE', *, *, #192, .T. ) ;
#163 = ORIENTED_EDGE ( 'NONE', *, *, #2, .T. ) ;
#164 = AXIS2_PLACEMENT_3D ( 'NONE', #42, #133, #87 ) ;
#165 = DIRECTION ( 'NONE',  ( -1.000000000000000000, 0.0000000000000000000, 0.0000000000000000000 ) ) ;
#166 = CARTESIAN_POINT ( 'NONE',  ( 6.123233995736771000E-017, 0.9999999999999988900, 0.0000000000000000000 ) ) ;
#167 = ORIENTED_EDGE ( 'NONE', *, *, #143, .F. ) ;
#168 = FILL_AREA_STYLE ('',( #189 ) ) ;
#169 = SURFACE_STYLE_USAGE ( .BOTH. , #211 ) ;
#170 = STYLED_ITEM ( 'NONE', ( #100 ), #79 ) ;
#171 = CARTESIAN_POINT ( 'NONE',  ( -4.250000000000000000, 0.9999999999999993300, 0.0000000000000000000 ) ) ;
#172 = FACE_BOUND ( 'NONE', #293, .T. ) ;
#173 = VERTEX_POINT ( 'NONE', #221 ) ;
#174 = EDGE_CURVE ( 'NONE', #113, #94, #37, .T. ) ;
#175 = ORIENTED_EDGE ( 'NONE', *, *, #192, .F. ) ;
#176 = ORIENTED_EDGE ( 'NONE', *, *, #222, .F. ) ;
#177 = AXIS2_PLACEMENT_3D ( 'NONE', #106, #85, #131 ) ;
#178 = LINE ( 'NONE', #63, #194 ) ;
#179 = ADVANCED_FACE ( 'NONE', ( #172, #260 ), #140, .T. ) ;
#180 = DIRECTION ( 'NONE',  ( 6.123233995736777100E-017, 1.000000000000000000, 0.0000000000000000000 ) ) ;
#181 = CARTESIAN_POINT ( 'NONE',  ( 7.500000000000003600, 14.24999999999999500, 0.0000000000000000000 ) ) ;
#182 = DIRECTION ( 'NONE',  ( 3.668176120681002200E-017, -1.000000000000000000, 0.0000000000000000000 ) ) ;
#183 = UNCERTAINTY_MEASURE_WITH_UNIT (LENGTH_MEASURE( 1.000000000000000100E-005 ), #90, 'distance_accuracy_value', 'NONE');
#184 = ADVANCED_FACE ( 'NONE', ( #227 ), #5, .F. ) ;
#185 = PRESENTATION_LAYER_ASSIGNMENT (  '', '', ( #170 ) ) ;
#186 = EDGE_LOOP ( 'NONE', ( #111, #224 ) ) ;
#187 = ORIENTED_EDGE ( 'NONE', *, *, #73, .T. ) ;
#188 = AXIS2_PLACEMENT_3D ( 'NONE', #40, #289, #199 ) ;
#189 = FILL_AREA_STYLE_COLOUR ( '', #19 ) ;
#190 = APPLICATION_PROTOCOL_DEFINITION ( 'draft international standard', 'automotive_design', 1998, #55 ) ;
#191 = ORIENTED_EDGE ( 'NONE', *, *, #174, .F. ) ;
#192 = EDGE_CURVE ( 'NONE', #150, #236, #93, .T. ) ;
#193 = CYLINDRICAL_SURFACE ( 'NONE', #148, 4.250000000000000000 ) ;
#194 = VECTOR ( 'NONE', #153, 1000.000000000000000 ) ;
#195 = CARTESIAN_POINT ( 'NONE',  ( 6.123233995736772200E-017, 0.9999999999999991100, 0.0000000000000000000 ) ) ;
#196 = PRODUCT_DEFINITION_FORMATION_WITH_SPECIFIED_SOURCE ( 'ANY', '', #272, .NOT_KNOWN. ) ;
#197 = DIRECTION ( 'NONE',  ( 6.123233995736777100E-017, 1.000000000000000000, -0.0000000000000000000 ) ) ;
#198 = MECHANICAL_DESIGN_GEOMETRIC_PRESENTATION_REPRESENTATION (  '', ( #170 ), #17 ) ;
#199 = DIRECTION ( 'NONE',  ( -1.000000000000000000, 6.123233995736777100E-017, 0.0000000000000000000 ) ) ;
#200 = DIRECTION ( 'NONE',  ( 6.123233995736777100E-017, 1.000000000000000000, 0.0000000000000000000 ) ) ;
#201 = EDGE_LOOP ( 'NONE', ( #167, #258 ) ) ;
#202 = DIRECTION ( 'NONE',  ( 1.000000000000000000, 0.0000000000000000000, 0.0000000000000000000 ) ) ;
#203 = ORIENTED_EDGE ( 'NONE', *, *, #101, .F. ) ;
#204 = ADVANCED_FACE ( 'NONE', ( #208 ), #49, .T. ) ;
#205 = AXIS2_PLACEMENT_3D ( 'NONE', #91, #182, #279 ) ;
#206 = PRESENTATION_STYLE_ASSIGNMENT (( #26 ) ) ;
#207 = CARTESIAN_POINT ( 'NONE',  ( -4.250000000000000000, 0.9999999999999991100, 0.0000000000000000000 ) ) ;
#208 = FACE_OUTER_BOUND ( 'NONE', #71, .T. ) ;
#209 =( NAMED_UNIT ( * ) SI_UNIT ( $, .STERADIAN. ) SOLID_ANGLE_UNIT ( ) );
#210 = FACE_BOUND ( 'NONE', #1, .T. ) ;
#211 = SURFACE_SIDE_STYLE ('',( #235 ) ) ;
#212 = DIRECTION ( 'NONE',  ( -1.000000000000000000, 6.123233995736777100E-017, 0.0000000000000000000 ) ) ;
#213 = ORIENTED_EDGE ( 'NONE', *, *, #8, .T. ) ;
#214 = CARTESIAN_POINT ( 'NONE',  ( -1.203706215242022400E-032, -2.168404344971008900E-016, 0.0000000000000000000 ) ) ;
#215 = AXIS2_PLACEMENT_3D ( 'NONE', #92, #229, #144 ) ;
#216 = ORIENTED_EDGE ( 'NONE', *, *, #8, .F. ) ;
#217 = MECHANICAL_DESIGN_GEOMETRIC_PRESENTATION_REPRESENTATION (  '', ( #78 ), #76 ) ;
#218 = ORIENTED_EDGE ( 'NONE', *, *, #255, .T. ) ;
#219 = CARTESIAN_POINT ( 'NONE',  ( 7.500000000000000000, 12.25999999999999800, 0.0000000000000000000 ) ) ;
#220 = LINE ( 'NONE', #102, #35 ) ;
#221 = CARTESIAN_POINT ( 'NONE',  ( -4.250000000000000000, 4.339701032171215400E-017, 0.0000000000000000000 ) ) ;
#222 = EDGE_CURVE ( 'NONE', #65, #6, #151, .T. ) ;
#223 = CARTESIAN_POINT ( 'NONE',  ( 8.725608443924904900E-016, 14.24999999999999500, 0.0000000000000000000 ) ) ;
#224 = ORIENTED_EDGE ( 'NONE', *, *, #47, .F. ) ;
#225 = DIRECTION ( 'NONE',  ( 6.123233995736777100E-017, 1.000000000000000000, -0.0000000000000000000 ) ) ;
#226 = AXIS2_PLACEMENT_3D ( 'NONE', #223, #200, #44 ) ;
#227 = FACE_OUTER_BOUND ( 'NONE', #31, .T. ) ;
#228 = EDGE_LOOP ( 'NONE', ( #241, #80, #288, #12 ) ) ;
#229 = DIRECTION ( 'NONE',  ( 6.123233995736777100E-017, 1.000000000000000000, -0.0000000000000000000 ) ) ;
#230 = AXIS2_PLACEMENT_3D ( 'NONE', #114, #74, #277 ) ;
#231 = EDGE_LOOP ( 'NONE', ( #261, #163 ) ) ;
#232 = DIRECTION ( 'NONE',  ( -1.000000000000000000, 0.0000000000000000000, 0.0000000000000000000 ) ) ;
#233 = MANIFOLD_SOLID_BREP ( 'Boss.-Extru.1', #58 ) ;
#234 = DIRECTION ( 'NONE',  ( 0.0000000000000000000, 0.0000000000000000000, 1.000000000000000000 ) ) ;
#235 = SURFACE_STYLE_FILL_AREA ( #168 ) ;
#236 = VERTEX_POINT ( 'NONE', #273 ) ;
#237 = PLANE ( 'NONE',  #115 ) ;
#238 = VECTOR ( 'NONE', #62, 1000.000000000000000 ) ;
#239 = VERTEX_POINT ( 'NONE', #207 ) ;
#240 = DIRECTION ( 'NONE',  ( 3.668176120681002200E-017, -1.000000000000000000, 0.0000000000000000000 ) ) ;
#241 = ORIENTED_EDGE ( 'NONE', *, *, #2, .F. ) ;
#242 = CARTESIAN_POINT ( 'NONE',  ( 6.123233995736769700E-017, 0.9999999999999986700, 0.0000000000000000000 ) ) ;
#243 = ORIENTED_EDGE ( 'NONE', *, *, #108, .F. ) ;
#244 = AXIS2_PLACEMENT_3D ( 'NONE', #214, #147, #212 ) ;
#245 = DIRECTION ( 'NONE',  ( 3.668176120681002200E-017, -1.000000000000000000, 0.0000000000000000000 ) ) ;
#246 = FACE_OUTER_BOUND ( 'NONE', #61, .T. ) ;
#247 = EDGE_CURVE ( 'NONE', #65, #173, #97, .T. ) ;
#248 = VERTEX_POINT ( 'NONE', #274 ) ;
#249 = ORIENTED_EDGE ( 'NONE', *, *, #143, .T. ) ;
#250 = CARTESIAN_POINT ( 'NONE',  ( 0.0000000000000000000, 0.0000000000000000000, 0.0000000000000000000 ) ) ;
#251 =( NAMED_UNIT ( * ) PLANE_ANGLE_UNIT ( ) SI_UNIT ( $, .RADIAN. ) );
#252 = VECTOR ( 'NONE', #54, 1000.000000000000000 ) ;
#253 = ORIENTED_EDGE ( 'NONE', *, *, #101, .T. ) ;
#254 = DIRECTION ( 'NONE',  ( 6.123233995736777100E-017, 1.000000000000000000, 0.0000000000000000000 ) ) ;
#255 = EDGE_CURVE ( 'NONE', #6, #239, #256, .T. ) ;
#256 = CIRCLE ( 'NONE', #29, 4.250000000000000000 ) ;
#257 = CIRCLE ( 'NONE', #265, 6.599999999999999600 ) ;
#258 = ORIENTED_EDGE ( 'NONE', *, *, #255, .F. ) ;
#259 = CARTESIAN_POINT ( 'NONE',  ( 8.725608443924904900E-016, 14.24999999999999500, 0.0000000000000000000 ) ) ;
#260 = FACE_OUTER_BOUND ( 'NONE', #186, .T. ) ;
#261 = ORIENTED_EDGE ( 'NONE', *, *, #108, .T. ) ;
#262 = CARTESIAN_POINT ( 'NONE',  ( 4.250000000000000000, -4.770778793159139600E-016, 5.204748896376250700E-016 ) ) ;
#263 = CYLINDRICAL_SURFACE ( 'NONE', #98, 6.600000000000001400 ) ;
#264 = ORIENTED_EDGE ( 'NONE', *, *, #120, .T. ) ;
#265 = AXIS2_PLACEMENT_3D ( 'NONE', #242, #155, #112 ) ;
#266 = DIRECTION ( 'NONE',  ( 6.123233995736777100E-017, 1.000000000000000000, -0.0000000000000000000 ) ) ;
#267 = ADVANCED_FACE ( 'NONE', ( #145 ), #60, .F. ) ;
#268 = DIRECTION ( 'NONE',  ( -1.000000000000000000, 5.102127870520020600E-017, 0.0000000000000000000 ) ) ;
#269 = VECTOR ( 'NONE', #141, 1000.000000000000000 ) ;
#270 = CARTESIAN_POINT ( 'NONE',  ( 8.725608443924904900E-016, 14.24999999999999500, 0.0000000000000000000 ) ) ;
#271 = PRODUCT_DEFINITION ( 'UNKNOWN', '', #196, #125 ) ;
#272 = PRODUCT ( 'trigger_wheel_acier_base', 'trigger_wheel_acier_base', '', ( #121 ) ) ;
#273 = CARTESIAN_POINT ( 'NONE',  ( 6.600000000000001400, 14.24999999999999500, 8.082668874372533000E-016 ) ) ;
#274 = CARTESIAN_POINT ( 'NONE',  ( 7.500000000000000000, -1.326604287668661700E-015, 0.0000000000000000000 ) ) ;
#275 = EDGE_CURVE ( 'NONE', #173, #65, #23, .T. ) ;
#276 = LINE ( 'NONE', #171, #252 ) ;
#277 = DIRECTION ( 'NONE',  ( -1.000000000000000000, 6.123233995736777100E-017, 0.0000000000000000000 ) ) ;
#278 = CYLINDRICAL_SURFACE ( 'NONE', #32, 7.500000000000000900 ) ;
#279 = DIRECTION ( 'NONE',  ( 1.000000000000000000, 0.0000000000000000000, 0.0000000000000000000 ) ) ;
#280 = DIRECTION ( 'NONE',  ( -1.000000000000000000, 5.102127870520020600E-017, 0.0000000000000000000 ) ) ;
#281 = AXIS2_PLACEMENT_3D ( 'NONE', #9, #254, #232 ) ;
#282 = ORIENTED_EDGE ( 'NONE', *, *, #247, .F. ) ;
#283 =( NAMED_UNIT ( * ) SI_UNIT ( $, .STERADIAN. ) SOLID_ANGLE_UNIT ( ) );
#284 =( LENGTH_UNIT ( ) NAMED_UNIT ( * ) SI_UNIT ( .MILLI., .METRE. ) );
#285 = VERTEX_POINT ( 'NONE', #77 ) ;
#286 = EDGE_CURVE ( 'NONE', #173, #239, #276, .T. ) ;
#287 = CARTESIAN_POINT ( 'NONE',  ( 6.123233995736769700E-017, 0.9999999999999986700, 0.0000000000000000000 ) ) ;
#288 = ORIENTED_EDGE ( 'NONE', *, *, #292, .T. ) ;
#289 = DIRECTION ( 'NONE',  ( 6.123233995736777100E-017, 1.000000000000000000, -0.0000000000000000000 ) ) ;
#290 = CARTESIAN_POINT ( 'NONE',  ( 6.600000000000001400, 0.9999999999999986700, 8.082668874372533000E-016 ) ) ;
#291 = DIRECTION ( 'NONE',  ( 6.123233995736777100E-017, 1.000000000000000000, -0.0000000000000000000 ) ) ;
#292 = EDGE_CURVE ( 'NONE', #236, #150, #82, .T. ) ;
#293 = EDGE_LOOP ( 'NONE', ( #75, #118 ) ) ;
#294 = PLANE ( 'NONE',  #164 ) ;
ENDSEC;
END-ISO-10303-21;
