ISO-10303-21;
HEADER;
FILE_DESCRIPTION (( 'STEP AP214' ),
    '1' );
FILE_NAME ('entretoise cale pied.STEP',
    '2018-11-25T14:35:36',
    ( '' ),
    ( '' ),
    'SwSTEP 2.0',
    'SolidWorks 2016',
    '' );
FILE_SCHEMA (( 'AUTOMOTIVE_DESIGN' ));
ENDSEC;

DATA;
#1 = PRESENTATION_STYLE_ASSIGNMENT (( #158 ) ) ;
#2 = LINE ( 'NONE', #215, #262 ) ;
#3 = DIRECTION ( 'NONE',  ( 1.000000000000000000, -0.0000000000000000000, -0.0000000000000000000 ) ) ;
#4 = EDGE_LOOP ( 'NONE', ( #36, #8 ) ) ;
#5 = APPLICATION_CONTEXT ( 'automotive_design' ) ;
#6 = EDGE_CURVE ( 'NONE', #106, #61, #210, .T. ) ;
#7 = VECTOR ( 'NONE', #142, 1000.000000000000000 ) ;
#8 = ORIENTED_EDGE ( 'NONE', *, *, #145, .F. ) ;
#9 = DIRECTION ( 'NONE',  ( 1.000000000000000000, -0.0000000000000000000, -0.0000000000000000000 ) ) ;
#10 = ADVANCED_FACE ( 'NONE', ( #231 ), #152, .F. ) ;
#11 = CARTESIAN_POINT ( 'NONE',  ( 2.500000000000000000, 0.0000000000000000000, 0.0000000000000000000 ) ) ;
#12 = DIRECTION ( 'NONE',  ( 1.000000000000000000, -0.0000000000000000000, -0.0000000000000000000 ) ) ;
#13 = EDGE_LOOP ( 'NONE', ( #200, #91, #74, #283 ) ) ;
#14 = DIRECTION ( 'NONE',  ( 0.0000000000000000000, 0.0000000000000000000, -1.000000000000000000 ) ) ;
#15 = EDGE_CURVE ( 'NONE', #70, #367, #83, .T. ) ;
#16 = PLANE ( 'NONE',  #165 ) ;
#17 = CARTESIAN_POINT ( 'NONE',  ( -14.50000000000000000, 0.0000000000000000000, 0.0000000000000000000 ) ) ;
#18 = AXIS2_PLACEMENT_3D ( 'NONE', #189, #253, #317 ) ;
#19 = FILL_AREA_STYLE ('',( #211 ) ) ;
#20 = EDGE_CURVE ( 'NONE', #64, #338, #274, .T. ) ;
#21 = VERTEX_POINT ( 'NONE', #173 ) ;
#22 = CARTESIAN_POINT ( 'NONE',  ( -2.200000000000000600, 0.0000000000000000000, 0.0000000000000000000 ) ) ;
#23 = SURFACE_SIDE_STYLE ('',( #160 ) ) ;
#24 = DIRECTION ( 'NONE',  ( 1.000000000000000000, -0.0000000000000000000, -0.0000000000000000000 ) ) ;
#25 = ORIENTED_EDGE ( 'NONE', *, *, #20, .T. ) ;
#26 = LINE ( 'NONE', #218, #351 ) ;
#27 = ORIENTED_EDGE ( 'NONE', *, *, #212, .T. ) ;
#28 = ORIENTED_EDGE ( 'NONE', *, *, #358, .T. ) ;
#29 = EDGE_CURVE ( 'NONE', #156, #81, #52, .T. ) ;
#30 = PRODUCT_DEFINITION_SHAPE ( 'NONE', 'NONE',  #216 ) ;
#31 = ORIENTED_EDGE ( 'NONE', *, *, #15, .F. ) ;
#32 = FACE_BOUND ( 'NONE', #333, .T. ) ;
#33 = ORIENTED_EDGE ( 'NONE', *, *, #228, .T. ) ;
#34 = DIRECTION ( 'NONE',  ( 1.000000000000000000, -0.0000000000000000000, -0.0000000000000000000 ) ) ;
#35 = AXIS2_PLACEMENT_3D ( 'NONE', #126, #157, #238 ) ;
#36 = ORIENTED_EDGE ( 'NONE', *, *, #321, .F. ) ;
#37 = FACE_OUTER_BOUND ( 'NONE', #372, .T. ) ;
#38 = DIRECTION ( 'NONE',  ( 1.000000000000000000, -0.0000000000000000000, -0.0000000000000000000 ) ) ;
#39 = CARTESIAN_POINT ( 'NONE',  ( -14.50000000000000000, 1.347111479062088200E-015, 10.99999999999999800 ) ) ;
#40 = EDGE_CURVE ( 'NONE', #64, #156, #356, .T. ) ;
#41 =( NAMED_UNIT ( * ) PLANE_ANGLE_UNIT ( ) SI_UNIT ( $, .RADIAN. ) );
#42 = CARTESIAN_POINT ( 'NONE',  ( -2.200000000000000600, 0.0000000000000000000, 0.0000000000000000000 ) ) ;
#43 = COLOUR_RGB ( '',0.8980392156862745400, 0.9176470588235293700, 0.9294117647058823800 ) ;
#44 = EDGE_LOOP ( 'NONE', ( #350, #349 ) ) ;
#45 = DIRECTION ( 'NONE',  ( 1.000000000000000000, -0.0000000000000000000, -0.0000000000000000000 ) ) ;
#46 = PRESENTATION_LAYER_ASSIGNMENT (  '', '', ( #57 ) ) ;
#47 = DIRECTION ( 'NONE',  ( 1.000000000000000000, -0.0000000000000000000, -0.0000000000000000000 ) ) ;
#48 = EDGE_CURVE ( 'NONE', #156, #64, #193, .T. ) ;
#49 = DIRECTION ( 'NONE',  ( 0.0000000000000000000, 0.0000000000000000000, -1.000000000000000000 ) ) ;
#50 = DIRECTION ( 'NONE',  ( 1.000000000000000000, -0.0000000000000000000, -0.0000000000000000000 ) ) ;
#51 = CIRCLE ( 'NONE', #130, 4.249999999999998200 ) ;
#52 = LINE ( 'NONE', #227, #183 ) ;
#53 = DIRECTION ( 'NONE',  ( 0.0000000000000000000, 0.0000000000000000000, -1.000000000000000000 ) ) ;
#54 = EDGE_CURVE ( 'NONE', #21, #119, #112, .T. ) ;
#55 = ORIENTED_EDGE ( 'NONE', *, *, #321, .T. ) ;
#56 = CIRCLE ( 'NONE', #87, 4.250000000000000000 ) ;
#57 = STYLED_ITEM ( 'NONE', ( #209 ), #280 ) ;
#58 = DIRECTION ( 'NONE',  ( 1.000000000000000000, -0.0000000000000000000, -0.0000000000000000000 ) ) ;
#59 = PRODUCT_DEFINITION_CONTEXT ( 'detailed design', #5, 'design' ) ;
#60 = EDGE_CURVE ( 'NONE', #61, #106, #362, .T. ) ;
#61 = VERTEX_POINT ( 'NONE', #67 ) ;
#62 = PRODUCT ( 'entretoise cale pied', 'entretoise cale pied', '', ( #219 ) ) ;
#63 = PRESENTATION_LAYER_ASSIGNMENT (  '', '', ( #195 ) ) ;
#64 = VERTEX_POINT ( 'NONE', #122 ) ;
#65 = CARTESIAN_POINT ( 'NONE',  ( -14.50000000000000000, 0.0000000000000000000, 0.0000000000000000000 ) ) ;
#66 = EDGE_CURVE ( 'NONE', #119, #162, #56, .T. ) ;
#67 = CARTESIAN_POINT ( 'NONE',  ( 2.500000000000000000, 9.491012693391987800E-016, 7.750000000000000000 ) ) ;
#68 = DIRECTION ( 'NONE',  ( 1.000000000000000000, -0.0000000000000000000, -0.0000000000000000000 ) ) ;
#69 = FACE_OUTER_BOUND ( 'NONE', #246, .T. ) ;
#70 = VERTEX_POINT ( 'NONE', #92 ) ;
#71 = MECHANICAL_DESIGN_GEOMETRIC_PRESENTATION_REPRESENTATION (  '', ( #57 ), #136 ) ;
#72 = EDGE_CURVE ( 'NONE', #314, #21, #51, .T. ) ;
#73 = DIRECTION ( 'NONE',  ( 1.000000000000000000, -0.0000000000000000000, -0.0000000000000000000 ) ) ;
#74 = ORIENTED_EDGE ( 'NONE', *, *, #54, .T. ) ;
#75 = DIRECTION ( 'NONE',  ( 1.000000000000000000, -0.0000000000000000000, -0.0000000000000000000 ) ) ;
#76 = APPLICATION_PROTOCOL_DEFINITION ( 'draft international standard', 'automotive_design', 1998, #5 ) ;
#77 = COLOUR_RGB ( '',0.8980392156862745400, 0.9176470588235293700, 0.9294117647058823800 ) ;
#78 = VERTEX_POINT ( 'NONE', #301 ) ;
#79 = DIRECTION ( 'NONE',  ( 1.000000000000000000, -0.0000000000000000000, -0.0000000000000000000 ) ) ;
#80 =( NAMED_UNIT ( * ) PLANE_ANGLE_UNIT ( ) SI_UNIT ( $, .RADIAN. ) );
#81 = VERTEX_POINT ( 'NONE', #270 ) ;
#82 = VECTOR ( 'NONE', #293, 1000.000000000000000 ) ;
#83 = CIRCLE ( 'NONE', #167, 7.750000000000000000 ) ;
#84 = EDGE_LOOP ( 'NONE', ( #141, #25, #174, #172 ) ) ;
#85 = DIRECTION ( 'NONE',  ( 0.0000000000000000000, 0.0000000000000000000, 1.000000000000000000 ) ) ;
#86 = CARTESIAN_POINT ( 'NONE',  ( 0.0000000000000000000, 0.0000000000000000000, 0.0000000000000000000 ) ) ;
#87 = AXIS2_PLACEMENT_3D ( 'NONE', #180, #266, #265 ) ;
#88 = DIRECTION ( 'NONE',  ( -0.0000000000000000000, 0.0000000000000000000, -1.000000000000000000 ) ) ;
#89 = VERTEX_POINT ( 'NONE', #39 ) ;
#90 = CYLINDRICAL_SURFACE ( 'NONE', #285, 10.99999999999999800 ) ;
#91 = ORIENTED_EDGE ( 'NONE', *, *, #318, .F. ) ;
#92 = CARTESIAN_POINT ( 'NONE',  ( 0.0000000000000000000, 9.491012693391987800E-016, 7.750000000000000000 ) ) ;
#93 = DIRECTION ( 'NONE',  ( -0.0000000000000000000, 0.0000000000000000000, -1.000000000000000000 ) ) ;
#94 = CARTESIAN_POINT ( 'NONE',  ( -2.200000000000000600, 10.99999999999999800, 0.0000000000000000000 ) ) ;
#95 = FACE_OUTER_BOUND ( 'NONE', #4, .T. ) ;
#96 = ORIENTED_EDGE ( 'NONE', *, *, #145, .T. ) ;
#97 = CARTESIAN_POINT ( 'NONE',  ( 0.0000000000000000000, 0.0000000000000000000, -10.99999999999999800 ) ) ;
#98 = EDGE_CURVE ( 'NONE', #367, #70, #151, .T. ) ;
#99 = SURFACE_STYLE_FILL_AREA ( #131 ) ;
#100 = ORIENTED_EDGE ( 'NONE', *, *, #366, .F. ) ;
#101 = FACE_OUTER_BOUND ( 'NONE', #44, .T. ) ;
#102 = CARTESIAN_POINT ( 'NONE',  ( 0.0000000000000000000, 0.0000000000000000000, 0.0000000000000000000 ) ) ;
#103 = CARTESIAN_POINT ( 'NONE',  ( -14.50000000000000000, 5.204748896376249700E-016, 4.249999999999998200 ) ) ;
#104 = ORIENTED_EDGE ( 'NONE', *, *, #72, .T. ) ;
#105 = AXIS2_PLACEMENT_3D ( 'NONE', #11, #114, #198 ) ;
#106 = VERTEX_POINT ( 'NONE', #148 ) ;
#107 = FACE_OUTER_BOUND ( 'NONE', #214, .T. ) ;
#108 = ORIENTED_EDGE ( 'NONE', *, *, #98, .F. ) ;
#109 = CARTESIAN_POINT ( 'NONE',  ( 0.0000000000000000000, 0.0000000000000000000, 0.0000000000000000000 ) ) ;
#110 = CYLINDRICAL_SURFACE ( 'NONE', #354, 4.249999999999999100 ) ;
#111 = DIRECTION ( 'NONE',  ( 0.0000000000000000000, 0.0000000000000000000, -1.000000000000000000 ) ) ;
#112 = LINE ( 'NONE', #291, #82 ) ;
#113 = ADVANCED_FACE ( 'NONE', ( #37 ), #199, .F. ) ;
#114 = DIRECTION ( 'NONE',  ( 1.000000000000000000, -0.0000000000000000000, -0.0000000000000000000 ) ) ;
#115 = UNCERTAINTY_MEASURE_WITH_UNIT (LENGTH_MEASURE( 1.000000000000000100E-005 ), #128, 'distance_accuracy_value', 'NONE');
#116 = DIRECTION ( 'NONE',  ( 0.0000000000000000000, 0.0000000000000000000, -1.000000000000000000 ) ) ;
#117 = AXIS2_PLACEMENT_3D ( 'NONE', #360, #38, #335 ) ;
#118 = DIRECTION ( 'NONE',  ( 0.0000000000000000000, 0.0000000000000000000, -1.000000000000000000 ) ) ;
#119 = VERTEX_POINT ( 'NONE', #150 ) ;
#120 = VECTOR ( 'NONE', #79, 1000.000000000000000 ) ;
#121 = ORIENTED_EDGE ( 'NONE', *, *, #358, .F. ) ;
#122 = CARTESIAN_POINT ( 'NONE',  ( -2.200000000000000600, 1.169537693185722400E-015, 9.549999999999998900 ) ) ;
#123 = VECTOR ( 'NONE', #34, 1000.000000000000000 ) ;
#124 = CARTESIAN_POINT ( 'NONE',  ( 0.0000000000000000000, 0.0000000000000000000, 0.0000000000000000000 ) ) ;
#125 = CARTESIAN_POINT ( 'NONE',  ( 2.499999999999999600, 9.549999999999998900, 0.0000000000000000000 ) ) ;
#126 = CARTESIAN_POINT ( 'NONE',  ( 0.0000000000000000000, 0.0000000000000000000, 0.0000000000000000000 ) ) ;
#127 = ORIENTED_EDGE ( 'NONE', *, *, #6, .T. ) ;
#128 =( LENGTH_UNIT ( ) NAMED_UNIT ( * ) SI_UNIT ( .MILLI., .METRE. ) );
#129 = DIRECTION ( 'NONE',  ( 1.000000000000000000, -0.0000000000000000000, -0.0000000000000000000 ) ) ;
#130 = AXIS2_PLACEMENT_3D ( 'NONE', #17, #232, #14 ) ;
#131 = FILL_AREA_STYLE ('',( #281 ) ) ;
#132 = LINE ( 'NONE', #204, #123 ) ;
#133 = ORIENTED_EDGE ( 'NONE', *, *, #267, .F. ) ;
#134 = CARTESIAN_POINT ( 'NONE',  ( -2.200000000000000600, 1.347111479062088200E-015, 10.99999999999999800 ) ) ;
#135 = EDGE_CURVE ( 'NONE', #338, #81, #187, .T. ) ;
#136 =( GEOMETRIC_REPRESENTATION_CONTEXT ( 3 ) GLOBAL_UNCERTAINTY_ASSIGNED_CONTEXT ( ( #115 ) ) GLOBAL_UNIT_ASSIGNED_CONTEXT ( ( #128, #41, #237 ) ) REPRESENTATION_CONTEXT ( 'NONE', 'WORKASPACE' ) );
#137 = ORIENTED_EDGE ( 'NONE', *, *, #297, .F. ) ;
#138 = ADVANCED_BREP_SHAPE_REPRESENTATION ( 'entretoise cale pied', ( #280, #18 ), #341 ) ;
#139 = ADVANCED_FACE ( 'NONE', ( #323, #328 ), #16, .T. ) ;
#140 = CIRCLE ( 'NONE', #277, 10.99999999999999800 ) ;
#141 = ORIENTED_EDGE ( 'NONE', *, *, #48, .T. ) ;
#142 = DIRECTION ( 'NONE',  ( 1.000000000000000000, -0.0000000000000000000, -0.0000000000000000000 ) ) ;
#143 = DIRECTION ( 'NONE',  ( 0.0000000000000000000, 0.0000000000000000000, -1.000000000000000000 ) ) ;
#144 = DIRECTION ( 'NONE',  ( 1.000000000000000000, -0.0000000000000000000, -0.0000000000000000000 ) ) ;
#145 = EDGE_CURVE ( 'NONE', #89, #78, #304, .T. ) ;
#146 = ORIENTED_EDGE ( 'NONE', *, *, #15, .T. ) ;
#147 = EDGE_LOOP ( 'NONE', ( #217, #104 ) ) ;
#148 = CARTESIAN_POINT ( 'NONE',  ( 2.500000000000000000, 0.0000000000000000000, -7.750000000000000000 ) ) ;
#149 = AXIS2_PLACEMENT_3D ( 'NONE', #65, #144, #303 ) ;
#150 = CARTESIAN_POINT ( 'NONE',  ( 4.336808689942017700E-016, 0.0000000000000000000, -4.250000000000000000 ) ) ;
#151 = CIRCLE ( 'NONE', #272, 7.750000000000000000 ) ;
#152 = CYLINDRICAL_SURFACE ( 'NONE', #221, 4.249999999999999100 ) ;
#153 = CARTESIAN_POINT ( 'NONE',  ( 0.0000000000000000000, 9.491012693391987800E-016, 7.750000000000000000 ) ) ;
#154 = DIRECTION ( 'NONE',  ( -0.0000000000000000000, 0.0000000000000000000, -1.000000000000000000 ) ) ;
#155 = ORIENTED_EDGE ( 'NONE', *, *, #48, .F. ) ;
#156 = VERTEX_POINT ( 'NONE', #202 ) ;
#157 = DIRECTION ( 'NONE',  ( 1.000000000000000000, -0.0000000000000000000, -0.0000000000000000000 ) ) ;
#158 = SURFACE_STYLE_USAGE ( .BOTH. , #284 ) ;
#159 = CARTESIAN_POINT ( 'NONE',  ( 4.336808689942017700E-016, 0.0000000000000000000, 0.0000000000000000000 ) ) ;
#160 = SURFACE_STYLE_FILL_AREA ( #19 ) ;
#161 = DIRECTION ( 'NONE',  ( 0.0000000000000000000, 0.0000000000000000000, -1.000000000000000000 ) ) ;
#162 = VERTEX_POINT ( 'NONE', #175 ) ;
#163 = DIRECTION ( 'NONE',  ( 1.000000000000000000, -0.0000000000000000000, -0.0000000000000000000 ) ) ;
#164 = DIRECTION ( 'NONE',  ( 0.0000000000000000000, 0.0000000000000000000, -1.000000000000000000 ) ) ;
#165 = AXIS2_PLACEMENT_3D ( 'NONE', #206, #236, #88 ) ;
#166 = ORIENTED_EDGE ( 'NONE', *, *, #228, .F. ) ;
#167 = AXIS2_PLACEMENT_3D ( 'NONE', #224, #9, #327 ) ;
#168 = ADVANCED_FACE ( 'NONE', ( #279, #95 ), #365, .T. ) ;
#169 = AXIS2_PLACEMENT_3D ( 'NONE', #282, #163, #49 ) ;
#170 = ORIENTED_EDGE ( 'NONE', *, *, #6, .F. ) ;
#171 = FACE_OUTER_BOUND ( 'NONE', #342, .T. ) ;
#172 = ORIENTED_EDGE ( 'NONE', *, *, #29, .F. ) ;
#173 = CARTESIAN_POINT ( 'NONE',  ( -14.50000000000000000, 0.0000000000000000000, -4.249999999999998200 ) ) ;
#174 = ORIENTED_EDGE ( 'NONE', *, *, #205, .F. ) ;
#175 = CARTESIAN_POINT ( 'NONE',  ( 4.336808689942017700E-016, 5.204748896376250700E-016, 4.250000000000000000 ) ) ;
#176 = CARTESIAN_POINT ( 'NONE',  ( 2.500000000000000000, 0.0000000000000000000, 0.0000000000000000000 ) ) ;
#177 = DIRECTION ( 'NONE',  ( 1.000000000000000000, -0.0000000000000000000, -0.0000000000000000000 ) ) ;
#178 = ORIENTED_EDGE ( 'NONE', *, *, #60, .F. ) ;
#179 = CIRCLE ( 'NONE', #201, 9.549999999999998900 ) ;
#180 = CARTESIAN_POINT ( 'NONE',  ( 4.336808689942017700E-016, 0.0000000000000000000, 0.0000000000000000000 ) ) ;
#181 = DIRECTION ( 'NONE',  ( 1.000000000000000000, 0.0000000000000000000, -0.0000000000000000000 ) ) ;
#182 = CIRCLE ( 'NONE', #222, 10.99999999999999800 ) ;
#183 = VECTOR ( 'NONE', #58, 1000.000000000000000 ) ;
#184 = DIRECTION ( 'NONE',  ( 1.000000000000000000, -0.0000000000000000000, -0.0000000000000000000 ) ) ;
#185 = AXIS2_PLACEMENT_3D ( 'NONE', #296, #353, #143 ) ;
#186 = APPLICATION_PROTOCOL_DEFINITION ( 'draft international standard', 'automotive_design', 1998, #347 ) ;
#187 = CIRCLE ( 'NONE', #117, 9.549999999999998900 ) ;
#188 = ORIENTED_EDGE ( 'NONE', *, *, #54, .F. ) ;
#189 = CARTESIAN_POINT ( 'NONE',  ( 0.0000000000000000000, 0.0000000000000000000, 0.0000000000000000000 ) ) ;
#190 = PRODUCT_RELATED_PRODUCT_CATEGORY ( 'part', '', ( #62 ) ) ;
#191 =( LENGTH_UNIT ( ) NAMED_UNIT ( * ) SI_UNIT ( .MILLI., .METRE. ) );
#192 = LINE ( 'NONE', #153, #234 ) ;
#193 = CIRCLE ( 'NONE', #243, 9.549999999999998900 ) ;
#194 = EDGE_CURVE ( 'NONE', #314, #162, #132, .T. ) ;
#195 = STYLED_ITEM ( 'NONE', ( #1 ), #138 ) ;
#196 = ORIENTED_EDGE ( 'NONE', *, *, #194, .T. ) ;
#197 = CYLINDRICAL_SURFACE ( 'NONE', #352, 9.549999999999998900 ) ;
#198 = DIRECTION ( 'NONE',  ( 0.0000000000000000000, 0.0000000000000000000, -1.000000000000000000 ) ) ;
#199 = CYLINDRICAL_SURFACE ( 'NONE', #290, 7.750000000000000000 ) ;
#200 = ORIENTED_EDGE ( 'NONE', *, *, #194, .F. ) ;
#201 = AXIS2_PLACEMENT_3D ( 'NONE', #337, #184, #275 ) ;
#202 = CARTESIAN_POINT ( 'NONE',  ( -2.200000000000000600, 0.0000000000000000000, -9.549999999999998900 ) ) ;
#203 = ADVANCED_FACE ( 'NONE', ( #268 ), #355, .F. ) ;
#204 = CARTESIAN_POINT ( 'NONE',  ( 0.0000000000000000000, 5.204748896376249700E-016, 4.249999999999999100 ) ) ;
#205 = EDGE_CURVE ( 'NONE', #81, #338, #179, .T. ) ;
#206 = CARTESIAN_POINT ( 'NONE',  ( 2.168404344971008900E-016, 7.750000000000000000, 0.0000000000000000000 ) ) ;
#207 = CARTESIAN_POINT ( 'NONE',  ( 0.0000000000000000000, 0.0000000000000000000, 0.0000000000000000000 ) ) ;
#208 = CARTESIAN_POINT ( 'NONE',  ( 0.0000000000000000000, 0.0000000000000000000, 0.0000000000000000000 ) ) ;
#209 = PRESENTATION_STYLE_ASSIGNMENT (( #244 ) ) ;
#210 = CIRCLE ( 'NONE', #105, 7.750000000000000000 ) ;
#211 = FILL_AREA_STYLE_COLOUR ( '', #43 ) ;
#212 = EDGE_CURVE ( 'NONE', #294, #258, #140, .T. ) ;
#213 = DIRECTION ( 'NONE',  ( 1.000000000000000000, -0.0000000000000000000, -0.0000000000000000000 ) ) ;
#214 = EDGE_LOOP ( 'NONE', ( #330, #250, #263, #344 ) ) ;
#215 = CARTESIAN_POINT ( 'NONE',  ( 0.0000000000000000000, 1.347111479062088200E-015, 10.99999999999999800 ) ) ;
#216 = PRODUCT_DEFINITION ( 'UNKNOWN', '', #233, #59 ) ;
#217 = ORIENTED_EDGE ( 'NONE', *, *, #318, .T. ) ;
#218 = CARTESIAN_POINT ( 'NONE',  ( 0.0000000000000000000, 0.0000000000000000000, -7.750000000000000000 ) ) ;
#219 = PRODUCT_CONTEXT ( 'NONE', #347, 'mechanical' ) ;
#220 = ORIENTED_EDGE ( 'NONE', *, *, #98, .T. ) ;
#221 = AXIS2_PLACEMENT_3D ( 'NONE', #109, #326, #111 ) ;
#222 = AXIS2_PLACEMENT_3D ( 'NONE', #42, #213, #309 ) ;
#223 = ADVANCED_FACE ( 'NONE', ( #101, #32 ), #242, .T. ) ;
#224 = CARTESIAN_POINT ( 'NONE',  ( 0.0000000000000000000, 0.0000000000000000000, 0.0000000000000000000 ) ) ;
#225 = FACE_OUTER_BOUND ( 'NONE', #84, .T. ) ;
#226 = ORIENTED_EDGE ( 'NONE', *, *, #297, .T. ) ;
#227 = CARTESIAN_POINT ( 'NONE',  ( 0.0000000000000000000, 0.0000000000000000000, -9.549999999999998900 ) ) ;
#228 = EDGE_CURVE ( 'NONE', #70, #61, #192, .T. ) ;
#229 = SHAPE_DEFINITION_REPRESENTATION ( #30, #138 ) ;
#230 = DIRECTION ( 'NONE',  ( -1.000000000000000000, 0.0000000000000000000, 0.0000000000000000000 ) ) ;
#231 = FACE_OUTER_BOUND ( 'NONE', #305, .T. ) ;
#232 = DIRECTION ( 'NONE',  ( 1.000000000000000000, -0.0000000000000000000, -0.0000000000000000000 ) ) ;
#233 = PRODUCT_DEFINITION_FORMATION_WITH_SPECIFIED_SOURCE ( 'ANY', '', #62, .NOT_KNOWN. ) ;
#234 = VECTOR ( 'NONE', #45, 1000.000000000000000 ) ;
#235 = ORIENTED_EDGE ( 'NONE', *, *, #40, .F. ) ;
#236 = DIRECTION ( 'NONE',  ( 1.000000000000000000, 0.0000000000000000000, -0.0000000000000000000 ) ) ;
#237 =( NAMED_UNIT ( * ) SI_UNIT ( $, .STERADIAN. ) SOLID_ANGLE_UNIT ( ) );
#238 = DIRECTION ( 'NONE',  ( 0.0000000000000000000, 0.0000000000000000000, -1.000000000000000000 ) ) ;
#239 = PLANE ( 'NONE',  #295 ) ;
#240 = AXIS2_PLACEMENT_3D ( 'NONE', #340, #129, #161 ) ;
#241 = ORIENTED_EDGE ( 'NONE', *, *, #366, .T. ) ;
#242 = PLANE ( 'NONE',  #320 ) ;
#243 = AXIS2_PLACEMENT_3D ( 'NONE', #302, #357, #118 ) ;
#244 = SURFACE_STYLE_USAGE ( .BOTH. , #23 ) ;
#245 = DIRECTION ( 'NONE',  ( 0.0000000000000000000, 0.0000000000000000000, -1.000000000000000000 ) ) ;
#246 = EDGE_LOOP ( 'NONE', ( #278, #27 ) ) ;
#247 = CIRCLE ( 'NONE', #316, 4.250000000000000000 ) ;
#248 =( NAMED_UNIT ( * ) PLANE_ANGLE_UNIT ( ) SI_UNIT ( $, .RADIAN. ) );
#249 =( GEOMETRIC_REPRESENTATION_CONTEXT ( 3 ) GLOBAL_UNCERTAINTY_ASSIGNED_CONTEXT ( ( #315 ) ) GLOBAL_UNIT_ASSIGNED_CONTEXT ( ( #346, #248, #251 ) ) REPRESENTATION_CONTEXT ( 'NONE', 'WORKASPACE' ) );
#250 = ORIENTED_EDGE ( 'NONE', *, *, #40, .T. ) ;
#251 =( NAMED_UNIT ( * ) SI_UNIT ( $, .STERADIAN. ) SOLID_ANGLE_UNIT ( ) );
#252 = AXIS2_PLACEMENT_3D ( 'NONE', #374, #24, #53 ) ;
#253 = DIRECTION ( 'NONE',  ( 0.0000000000000000000, 0.0000000000000000000, 1.000000000000000000 ) ) ;
#254 = CARTESIAN_POINT ( 'NONE',  ( 2.499999999999999600, 1.169537693185722400E-015, 9.549999999999998900 ) ) ;
#255 = FACE_BOUND ( 'NONE', #324, .T. ) ;
#256 = EDGE_CURVE ( 'NONE', #258, #294, #182, .T. ) ;
#257 = ORIENTED_EDGE ( 'NONE', *, *, #256, .F. ) ;
#258 = VERTEX_POINT ( 'NONE', #306 ) ;
#259 = CIRCLE ( 'NONE', #240, 10.99999999999999800 ) ;
#260 = ADVANCED_FACE ( 'NONE', ( #69, #255 ), #239, .T. ) ;
#261 = ADVANCED_FACE ( 'NONE', ( #292 ), #348, .T. ) ;
#262 = VECTOR ( 'NONE', #47, 1000.000000000000000 ) ;
#263 = ORIENTED_EDGE ( 'NONE', *, *, #29, .T. ) ;
#264 = ADVANCED_FACE ( 'NONE', ( #273 ), #110, .F. ) ;
#265 = DIRECTION ( 'NONE',  ( 0.0000000000000000000, 0.0000000000000000000, -1.000000000000000000 ) ) ;
#266 = DIRECTION ( 'NONE',  ( 1.000000000000000000, -0.0000000000000000000, -0.0000000000000000000 ) ) ;
#267 = EDGE_CURVE ( 'NONE', #89, #294, #2, .T. ) ;
#268 = FACE_OUTER_BOUND ( 'NONE', #322, .T. ) ;
#269 = EDGE_LOOP ( 'NONE', ( #287, #100 ) ) ;
#270 = CARTESIAN_POINT ( 'NONE',  ( 2.499999999999999600, 0.0000000000000000000, -9.549999999999998900 ) ) ;
#271 = DIRECTION ( 'NONE',  ( 0.0000000000000000000, 0.0000000000000000000, -1.000000000000000000 ) ) ;
#272 = AXIS2_PLACEMENT_3D ( 'NONE', #86, #12, #300 ) ;
#273 = FACE_OUTER_BOUND ( 'NONE', #13, .T. ) ;
#274 = LINE ( 'NONE', #329, #7 ) ;
#275 = DIRECTION ( 'NONE',  ( 0.0000000000000000000, 0.0000000000000000000, -1.000000000000000000 ) ) ;
#276 = DIRECTION ( 'NONE',  ( 0.0000000000000000000, 0.0000000000000000000, -1.000000000000000000 ) ) ;
#277 = AXIS2_PLACEMENT_3D ( 'NONE', #22, #307, #336 ) ;
#278 = ORIENTED_EDGE ( 'NONE', *, *, #256, .T. ) ;
#279 = FACE_BOUND ( 'NONE', #147, .T. ) ;
#280 = MANIFOLD_SOLID_BREP ( 'Révolution1', #299 ) ;
#281 = FILL_AREA_STYLE_COLOUR ( '', #77 ) ;
#282 = CARTESIAN_POINT ( 'NONE',  ( 0.0000000000000000000, 0.0000000000000000000, 0.0000000000000000000 ) ) ;
#283 = ORIENTED_EDGE ( 'NONE', *, *, #66, .T. ) ;
#284 = SURFACE_SIDE_STYLE ('',( #99 ) ) ;
#285 = AXIS2_PLACEMENT_3D ( 'NONE', #102, #373, #164 ) ;
#286 = EDGE_LOOP ( 'NONE', ( #55, #288, #257, #137 ) ) ;
#287 = ORIENTED_EDGE ( 'NONE', *, *, #66, .F. ) ;
#288 = ORIENTED_EDGE ( 'NONE', *, *, #267, .T. ) ;
#289 = ADVANCED_FACE ( 'NONE', ( #107 ), #197, .T. ) ;
#290 = AXIS2_PLACEMENT_3D ( 'NONE', #207, #177, #364 ) ;
#291 = CARTESIAN_POINT ( 'NONE',  ( 0.0000000000000000000, 0.0000000000000000000, -4.249999999999999100 ) ) ;
#292 = FACE_OUTER_BOUND ( 'NONE', #286, .T. ) ;
#293 = DIRECTION ( 'NONE',  ( 1.000000000000000000, -0.0000000000000000000, -0.0000000000000000000 ) ) ;
#294 = VERTEX_POINT ( 'NONE', #134 ) ;
#295 = AXIS2_PLACEMENT_3D ( 'NONE', #94, #181, #154 ) ;
#296 = CARTESIAN_POINT ( 'NONE',  ( -2.200000000000000600, 0.0000000000000000000, 0.0000000000000000000 ) ) ;
#297 = EDGE_CURVE ( 'NONE', #78, #258, #313, .T. ) ;
#298 = ORIENTED_EDGE ( 'NONE', *, *, #212, .F. ) ;
#299 = CLOSED_SHELL ( 'NONE', ( #203, #325, #261, #10, #139, #264, #168, #359, #260, #289, #223, #113 ) ) ;
#300 = DIRECTION ( 'NONE',  ( 0.0000000000000000000, 0.0000000000000000000, -1.000000000000000000 ) ) ;
#301 = CARTESIAN_POINT ( 'NONE',  ( -14.50000000000000000, 0.0000000000000000000, -10.99999999999999800 ) ) ;
#302 = CARTESIAN_POINT ( 'NONE',  ( -2.200000000000000600, 0.0000000000000000000, 0.0000000000000000000 ) ) ;
#303 = DIRECTION ( 'NONE',  ( 0.0000000000000000000, 0.0000000000000000000, -1.000000000000000000 ) ) ;
#304 = CIRCLE ( 'NONE', #149, 10.99999999999999800 ) ;
#305 = EDGE_LOOP ( 'NONE', ( #319, #196, #241, #188 ) ) ;
#306 = CARTESIAN_POINT ( 'NONE',  ( -2.200000000000000600, 0.0000000000000000000, -10.99999999999999800 ) ) ;
#307 = DIRECTION ( 'NONE',  ( 1.000000000000000000, -0.0000000000000000000, -0.0000000000000000000 ) ) ;
#308 = EDGE_LOOP ( 'NONE', ( #220, #146 ) ) ;
#309 = DIRECTION ( 'NONE',  ( 0.0000000000000000000, 0.0000000000000000000, -1.000000000000000000 ) ) ;
#310 = CARTESIAN_POINT ( 'NONE',  ( 0.0000000000000000000, 0.0000000000000000000, -7.750000000000000000 ) ) ;
#311 =( NAMED_UNIT ( * ) SI_UNIT ( $, .STERADIAN. ) SOLID_ANGLE_UNIT ( ) );
#312 = AXIS2_PLACEMENT_3D ( 'NONE', #371, #368, #369 ) ;
#313 = LINE ( 'NONE', #97, #120 ) ;
#314 = VERTEX_POINT ( 'NONE', #103 ) ;
#315 = UNCERTAINTY_MEASURE_WITH_UNIT (LENGTH_MEASURE( 1.000000000000000100E-005 ), #346, 'distance_accuracy_value', 'NONE');
#316 = AXIS2_PLACEMENT_3D ( 'NONE', #159, #3, #245 ) ;
#317 = DIRECTION ( 'NONE',  ( 1.000000000000000000, 0.0000000000000000000, 0.0000000000000000000 ) ) ;
#318 = EDGE_CURVE ( 'NONE', #21, #314, #343, .T. ) ;
#319 = ORIENTED_EDGE ( 'NONE', *, *, #72, .F. ) ;
#320 = AXIS2_PLACEMENT_3D ( 'NONE', #125, #339, #93 ) ;
#321 = EDGE_CURVE ( 'NONE', #78, #89, #259, .T. ) ;
#322 = EDGE_LOOP ( 'NONE', ( #31, #33, #361, #121 ) ) ;
#323 = FACE_OUTER_BOUND ( 'NONE', #308, .T. ) ;
#324 = EDGE_LOOP ( 'NONE', ( #155, #235 ) ) ;
#325 = ADVANCED_FACE ( 'NONE', ( #225 ), #332, .T. ) ;
#326 = DIRECTION ( 'NONE',  ( 1.000000000000000000, -0.0000000000000000000, -0.0000000000000000000 ) ) ;
#327 = DIRECTION ( 'NONE',  ( 0.0000000000000000000, 0.0000000000000000000, -1.000000000000000000 ) ) ;
#328 = FACE_BOUND ( 'NONE', #269, .T. ) ;
#329 = CARTESIAN_POINT ( 'NONE',  ( 0.0000000000000000000, 1.169537693185722400E-015, 9.549999999999998900 ) ) ;
#330 = ORIENTED_EDGE ( 'NONE', *, *, #20, .F. ) ;
#331 = CARTESIAN_POINT ( 'NONE',  ( -14.50000000000000000, 4.249999999999998200, 0.0000000000000000000 ) ) ;
#332 = CYLINDRICAL_SURFACE ( 'NONE', #169, 9.549999999999998900 ) ;
#333 = EDGE_LOOP ( 'NONE', ( #170, #178 ) ) ;
#334 = AXIS2_PLACEMENT_3D ( 'NONE', #331, #230, #85 ) ;
#335 = DIRECTION ( 'NONE',  ( 0.0000000000000000000, 0.0000000000000000000, -1.000000000000000000 ) ) ;
#336 = DIRECTION ( 'NONE',  ( 0.0000000000000000000, 0.0000000000000000000, -1.000000000000000000 ) ) ;
#337 = CARTESIAN_POINT ( 'NONE',  ( 2.499999999999999600, 0.0000000000000000000, 0.0000000000000000000 ) ) ;
#338 = VERTEX_POINT ( 'NONE', #254 ) ;
#339 = DIRECTION ( 'NONE',  ( 1.000000000000000000, 0.0000000000000000000, -0.0000000000000000000 ) ) ;
#340 = CARTESIAN_POINT ( 'NONE',  ( -14.50000000000000000, 0.0000000000000000000, 0.0000000000000000000 ) ) ;
#341 =( GEOMETRIC_REPRESENTATION_CONTEXT ( 3 ) GLOBAL_UNCERTAINTY_ASSIGNED_CONTEXT ( ( #345 ) ) GLOBAL_UNIT_ASSIGNED_CONTEXT ( ( #191, #80, #311 ) ) REPRESENTATION_CONTEXT ( 'NONE', 'WORKASPACE' ) );
#342 = EDGE_LOOP ( 'NONE', ( #133, #96, #226, #298 ) ) ;
#343 = CIRCLE ( 'NONE', #252, 4.249999999999998200 ) ;
#344 = ORIENTED_EDGE ( 'NONE', *, *, #135, .F. ) ;
#345 = UNCERTAINTY_MEASURE_WITH_UNIT (LENGTH_MEASURE( 1.000000000000000100E-005 ), #191, 'distance_accuracy_value', 'NONE');
#346 =( LENGTH_UNIT ( ) NAMED_UNIT ( * ) SI_UNIT ( .MILLI., .METRE. ) );
#347 = APPLICATION_CONTEXT ( 'automotive_design' ) ;
#348 = CYLINDRICAL_SURFACE ( 'NONE', #35, 10.99999999999999800 ) ;
#349 = ORIENTED_EDGE ( 'NONE', *, *, #135, .T. ) ;
#350 = ORIENTED_EDGE ( 'NONE', *, *, #205, .T. ) ;
#351 = VECTOR ( 'NONE', #50, 1000.000000000000000 ) ;
#352 = AXIS2_PLACEMENT_3D ( 'NONE', #208, #73, #271 ) ;
#353 = DIRECTION ( 'NONE',  ( 1.000000000000000000, -0.0000000000000000000, -0.0000000000000000000 ) ) ;
#354 = AXIS2_PLACEMENT_3D ( 'NONE', #124, #75, #276 ) ;
#355 = CYLINDRICAL_SURFACE ( 'NONE', #312, 7.750000000000000000 ) ;
#356 = CIRCLE ( 'NONE', #185, 9.549999999999998900 ) ;
#357 = DIRECTION ( 'NONE',  ( 1.000000000000000000, -0.0000000000000000000, -0.0000000000000000000 ) ) ;
#358 = EDGE_CURVE ( 'NONE', #367, #106, #26, .T. ) ;
#359 = ADVANCED_FACE ( 'NONE', ( #171 ), #90, .T. ) ;
#360 = CARTESIAN_POINT ( 'NONE',  ( 2.499999999999999600, 0.0000000000000000000, 0.0000000000000000000 ) ) ;
#361 = ORIENTED_EDGE ( 'NONE', *, *, #60, .T. ) ;
#362 = CIRCLE ( 'NONE', #363, 7.750000000000000000 ) ;
#363 = AXIS2_PLACEMENT_3D ( 'NONE', #176, #68, #116 ) ;
#364 = DIRECTION ( 'NONE',  ( 0.0000000000000000000, 0.0000000000000000000, -1.000000000000000000 ) ) ;
#365 = PLANE ( 'NONE',  #334 ) ;
#366 = EDGE_CURVE ( 'NONE', #162, #119, #247, .T. ) ;
#367 = VERTEX_POINT ( 'NONE', #310 ) ;
#368 = DIRECTION ( 'NONE',  ( 1.000000000000000000, -0.0000000000000000000, -0.0000000000000000000 ) ) ;
#369 = DIRECTION ( 'NONE',  ( 0.0000000000000000000, 0.0000000000000000000, -1.000000000000000000 ) ) ;
#370 = MECHANICAL_DESIGN_GEOMETRIC_PRESENTATION_REPRESENTATION (  '', ( #195 ), #249 ) ;
#371 = CARTESIAN_POINT ( 'NONE',  ( 0.0000000000000000000, 0.0000000000000000000, 0.0000000000000000000 ) ) ;
#372 = EDGE_LOOP ( 'NONE', ( #166, #108, #28, #127 ) ) ;
#373 = DIRECTION ( 'NONE',  ( 1.000000000000000000, -0.0000000000000000000, -0.0000000000000000000 ) ) ;
#374 = CARTESIAN_POINT ( 'NONE',  ( -14.50000000000000000, 0.0000000000000000000, 0.0000000000000000000 ) ) ;
ENDSEC;
END-ISO-10303-21;
