ISO-10303-21;
HEADER;
FILE_DESCRIPTION(('CATIA V5 STEP Exchange'),'2;1');

FILE_NAME('Z:\\R&D et test\\catiaParts\\m200 coque elec para\\correctif\\armv3STEP.stp','2018-11-09T08:08:17+00:00',('none'),('none'),'CATIA Version 5 Release 21 GA (IN-10)','CATIA V5 STEP AP203','none');

FILE_SCHEMA(('CONFIG_CONTROL_DESIGN'));

ENDSEC;
/* file written by CATIA V5R21 */
DATA;
#5=PRODUCT('arm','','',(#2)) ;
#1=APPLICATION_CONTEXT('configuration controlled 3D design of mechanical parts and assemblies') ;
#14=PRODUCT_DEFINITION('',' ',#6,#3) ;
#16=SECURITY_CLASSIFICATION(' ',' ',#15) ;
#15=SECURITY_CLASSIFICATION_LEVEL('unclassified') ;
#47=CARTESIAN_POINT(' ',(0.,0.,0.)) ;
#52=CARTESIAN_POINT('Axis2P3D Location',(0.,0.,0.)) ;
#57=CARTESIAN_POINT('Line Origine',(11.9292479935,-9.4372703851,0.)) ;
#61=CARTESIAN_POINT('Vertex',(-4.30944169239E-012,-12.9999999999,0.)) ;
#63=CARTESIAN_POINT('Vertex',(23.8584959871,-5.87454077031,0.)) ;
#66=CARTESIAN_POINT('Axis2P3D Location',(23.,-3.,0.)) ;
#70=CARTESIAN_POINT('Vertex',(23.4903889229,-0.0403515911012,0.)) ;
#73=CARTESIAN_POINT('Line Origine',(9.43681422456,2.28820788863,0.)) ;
#77=CARTESIAN_POINT('Vertex',(-4.61676047379,4.61676736836,0.)) ;
#80=CARTESIAN_POINT('Axis2P3D Location',(23.,4.21884749358E-015,0.)) ;
#84=CARTESIAN_POINT('Vertex',(-3.51414716716,-8.9999999999,0.)) ;
#87=CARTESIAN_POINT('Line Origine',(-1.75707358359,-8.9999999999,0.)) ;
#91=CARTESIAN_POINT('Vertex',(-2.81469292318E-011,-8.9999999999,0.)) ;
#94=CARTESIAN_POINT('Line Origine',(1.39209859928E-015,-10.9999999999,0.)) ;
#107=CARTESIAN_POINT('Axis2P3D Location',(23.,-3.,0.)) ;
#111=CARTESIAN_POINT('Vertex',(21.3,-3.,0.)) ;
#113=CARTESIAN_POINT('Vertex',(24.7,-3.,0.)) ;
#116=CARTESIAN_POINT('Axis2P3D Location',(23.,-3.,0.)) ;
#126=CARTESIAN_POINT('Axis2P3D Location',(0.,0.,-6.)) ;
#131=CARTESIAN_POINT('Line Origine',(6.0435627904,2.85044119679,-6.)) ;
#135=CARTESIAN_POINT('Vertex',(6.53716670793,2.76865516683,-6.)) ;
#137=CARTESIAN_POINT('Vertex',(5.54995887288,2.93222722675,-6.)) ;
#140=CARTESIAN_POINT('Axis2P3D Location',(0.6538518972,3.94619787853,-6.)) ;
#144=CARTESIAN_POINT('Vertex',(2.63100042767,-1.71868373439,-6.)) ;
#147=CARTESIAN_POINT('Axis2P3D Location',(0.6538518972,3.94619787853,-6.)) ;
#151=CARTESIAN_POINT('Vertex',(-4.9430954824,1.78421267275,-6.)) ;
#154=CARTESIAN_POINT('Axis2P3D Location',(23.,4.21884749358E-015,-6.)) ;
#158=CARTESIAN_POINT('Vertex',(-4.61676047379,4.61676736836,-6.)) ;
#161=CARTESIAN_POINT('Line Origine',(-4.46220037099,4.59115805541,-6.)) ;
#165=CARTESIAN_POINT('Vertex',(-4.3076402682,4.56554874246,-6.)) ;
#168=CARTESIAN_POINT('Axis2P3D Location',(0.6538518972,3.94619787853,-6.)) ;
#172=CARTESIAN_POINT('Vertex',(2.30147567259,-0.774536798907,-6.)) ;
#175=CARTESIAN_POINT('Axis2P3D Location',(0.6538518972,3.94619787853,-6.)) ;
#190=CARTESIAN_POINT('Axis2P3D Location',(23.,-3.,-3.)) ;
#195=CARTESIAN_POINT('Axis2P3D Location',(23.,-3.,-5.)) ;
#199=CARTESIAN_POINT('Vertex',(24.7,-3.,-5.)) ;
#201=CARTESIAN_POINT('Vertex',(21.3,-3.,-5.)) ;
#204=CARTESIAN_POINT('Line Origine',(24.7,-3.,-3.)) ;
#209=CARTESIAN_POINT('Line Origine',(21.3,-3.,-3.)) ;
#221=CARTESIAN_POINT('Axis2P3D Location',(23.,-3.,-5.)) ;
#233=CARTESIAN_POINT('Axis2P3D Location',(1.14576786569E-015,-8.9999999999,0.)) ;
#238=CARTESIAN_POINT('Line Origine',(1.39209859928E-015,-10.9999999999,-5.)) ;
#242=CARTESIAN_POINT('Vertex',(-2.81468182095E-011,-8.9999999999,-5.)) ;
#244=CARTESIAN_POINT('Vertex',(-4.30944169239E-012,-12.9999999999,-5.)) ;
#247=CARTESIAN_POINT('Line Origine',(1.63842933287E-015,-12.9999999999,-2.5)) ;
#252=CARTESIAN_POINT('Line Origine',(1.14576786569E-015,-8.9999999999,-2.5)) ;
#264=CARTESIAN_POINT('Axis2P3D Location',(-3.51414716716,-8.9999999999,0.)) ;
#269=CARTESIAN_POINT('Line Origine',(-1.75707358359,-8.9999999999,-5.)) ;
#273=CARTESIAN_POINT('Vertex',(-3.51414716716,-8.9999999999,-5.)) ;
#276=CARTESIAN_POINT('Line Origine',(-3.51414716716,-8.9999999999,-2.5)) ;
#288=CARTESIAN_POINT('Axis2P3D Location',(23.,4.21884749358E-015,-3.)) ;
#293=CARTESIAN_POINT('Line Origine',(-4.61676047379,4.61676736836,-3.)) ;
#299=CARTESIAN_POINT('Control Point',(-4.9430954824,1.78421267275,-6.)) ;
#300=CARTESIAN_POINT('Control Point',(-4.96976788016,1.36648816672,-5.69619880541)) ;
#301=CARTESIAN_POINT('Control Point',(-4.98608703746,0.964621375245,-5.35739769536)) ;
#302=CARTESIAN_POINT('Control Point',(-4.99408726697,0.575393855544,-5.)) ;
#303=CARTESIAN_POINT('Vertex',(-4.99408726697,0.575393855544,-5.)) ;
#306=CARTESIAN_POINT('Axis2P3D Location',(23.,4.21884749358E-015,-5.)) ;
#320=CARTESIAN_POINT('Axis2P3D Location',(23.4903889229,-0.0403515911012,0.)) ;
#325=CARTESIAN_POINT('Line Origine',(23.4903889229,-0.0403515911012,-2.5)) ;
#329=CARTESIAN_POINT('Vertex',(23.4903889229,-0.0403515911012,-5.)) ;
#332=CARTESIAN_POINT('Line Origine',(15.2987145563,1.31694015927,-5.)) ;
#336=CARTESIAN_POINT('Vertex',(7.10704018963,2.67423190964,-5.)) ;
#340=CARTESIAN_POINT('Control Point',(6.53716670793,2.76865516683,-6.)) ;
#341=CARTESIAN_POINT('Control Point',(6.65114481079,2.74976995096,-5.8000037857)) ;
#342=CARTESIAN_POINT('Control Point',(6.76512108315,2.73088503839,-5.6000054318)) ;
#343=CARTESIAN_POINT('Control Point',(6.87909574962,2.7120003919,-5.40000505906)) ;
#344=CARTESIAN_POINT('Control Point',(6.99306871764,2.69311602683,-5.20000324784)) ;
#345=CARTESIAN_POINT('Control Point',(7.10704018963,2.67423190964,-5.)) ;
#348=CARTESIAN_POINT('Control Point',(0.728950188662,3.73102793864,-1.22789878546)) ;
#349=CARTESIAN_POINT('Control Point',(0.756049594824,3.72653779428,-1.24106806668)) ;
#350=CARTESIAN_POINT('Control Point',(0.786946016426,3.7214185163,-1.25926997329)) ;
#351=CARTESIAN_POINT('Control Point',(0.824567173769,3.71518500601,-1.28484568204)) ;
#352=CARTESIAN_POINT('Control Point',(0.891883874273,3.70403119323,-1.33684877543)) ;
#353=CARTESIAN_POINT('Control Point',(0.998401855344,3.68638205698,-1.43111663221)) ;
#354=CARTESIAN_POINT('Control Point',(1.03292874497,3.6806612409,-1.4624123638)) ;
#355=CARTESIAN_POINT('Control Point',(1.14620524136,3.66189227534,-1.56728677446)) ;
#356=CARTESIAN_POINT('Control Point',(1.28745431877,3.63848848767,-1.70346986898)) ;
#357=CARTESIAN_POINT('Control Point',(1.3907051913,3.62138068392,-1.8047529156)) ;
#358=CARTESIAN_POINT('Control Point',(1.67141273645,3.57486979759,-2.08214853818)) ;
#359=CARTESIAN_POINT('Control Point',(1.96101201501,3.5268856256,-2.372439278)) ;
#360=CARTESIAN_POINT('Control Point',(2.13598611569,3.49789388438,-2.54820668346)) ;
#361=CARTESIAN_POINT('Control Point',(2.62119071192,3.41749955152,-3.03670170561)) ;
#362=CARTESIAN_POINT('Control Point',(3.10655909786,3.33707808008,-3.52707009758)) ;
#363=CARTESIAN_POINT('Control Point',(3.39043920852,3.29004152625,-3.8140425502)) ;
#364=CARTESIAN_POINT('Control Point',(4.00332853104,3.18849090496,-4.4339899103)) ;
#365=CARTESIAN_POINT('Control Point',(4.61598829064,3.08697832032,-5.05418643524)) ;
#366=CARTESIAN_POINT('Control Point',(4.92538958064,3.03571312108,-5.36746213099)) ;
#367=CARTESIAN_POINT('Control Point',(5.23768658593,2.98396812611,-5.68372354482)) ;
#368=CARTESIAN_POINT('Control Point',(5.54995887288,2.93222722675,-6.)) ;
#369=CARTESIAN_POINT('Vertex',(0.728950188662,3.73102793864,-1.22789878546)) ;
#373=CARTESIAN_POINT('Control Point',(0.728950188662,3.73102793864,-1.22789878546)) ;
#374=CARTESIAN_POINT('Control Point',(0.696710722812,3.73636974778,-1.21223163064)) ;
#375=CARTESIAN_POINT('Control Point',(0.669844867417,3.74082119473,-1.20368679996)) ;
#376=CARTESIAN_POINT('Control Point',(0.645090172884,3.74492284003,-1.1991976024)) ;
#377=CARTESIAN_POINT('Control Point',(0.608622298127,3.75096526107,-1.1979513664)) ;
#378=CARTESIAN_POINT('Control Point',(0.569836911758,3.75739167436,-1.20605717837)) ;
#379=CARTESIAN_POINT('Control Point',(0.556480293201,3.75960475405,-1.20985212047)) ;
#380=CARTESIAN_POINT('Control Point',(0.518679383368,3.76586804782,-1.22339566653)) ;
#381=CARTESIAN_POINT('Control Point',(0.472926331793,3.7734489448,-1.24825712948)) ;
#382=CARTESIAN_POINT('Control Point',(0.438969776237,3.77907526131,-1.27001629043)) ;
#383=CARTESIAN_POINT('Control Point',(0.378373878156,3.78911549349,-1.31439215163)) ;
#384=CARTESIAN_POINT('Control Point',(0.282314808594,3.8050316758,-1.39697146097)) ;
#385=CARTESIAN_POINT('Control Point',(0.24909494237,3.81053592907,-1.42638304195)) ;
#386=CARTESIAN_POINT('Control Point',(0.142455158922,3.82820524694,-1.52340296465)) ;
#387=CARTESIAN_POINT('Control Point',(0.00333401623364,3.85125645367,-1.656343264)) ;
#388=CARTESIAN_POINT('Control Point',(-0.0983491917535,3.86810450856,-1.75563012276)) ;
#389=CARTESIAN_POINT('Control Point',(-0.373078962855,3.91362492786,-2.02627594249)) ;
#390=CARTESIAN_POINT('Control Point',(-0.659061878705,3.96100989887,-2.31263823634)) ;
#391=CARTESIAN_POINT('Control Point',(-0.830489329116,3.98941398988,-2.48470788448)) ;
#392=CARTESIAN_POINT('Control Point',(-1.31178868082,4.06916125647,-2.96899628464)) ;
#393=CARTESIAN_POINT('Control Point',(-1.79339486069,4.14895936191,-3.45548098856)) ;
#394=CARTESIAN_POINT('Control Point',(-2.07560609044,4.19571939617,-3.74072132515)) ;
#395=CARTESIAN_POINT('Control Point',(-2.70353987975,4.29976275945,-4.3758224634)) ;
#396=CARTESIAN_POINT('Control Point',(-3.33122296139,4.40376458257,-5.01120871267)) ;
#397=CARTESIAN_POINT('Control Point',(-3.65415942537,4.45727244664,-5.33818365282)) ;
#398=CARTESIAN_POINT('Control Point',(-3.98091337661,4.51141283633,-5.66908359338)) ;
#399=CARTESIAN_POINT('Control Point',(-4.3076402682,4.56554874246,-6.)) ;
#413=CARTESIAN_POINT('Axis2P3D Location',(23.,-3.,-3.)) ;
#418=CARTESIAN_POINT('Line Origine',(23.8584959871,-5.87454077031,-3.)) ;
#422=CARTESIAN_POINT('Vertex',(23.8584959871,-5.87454077031,-5.)) ;
#425=CARTESIAN_POINT('Axis2P3D Location',(23.,-3.,-5.)) ;
#437=CARTESIAN_POINT('Axis2P3D Location',(-4.30944169239E-012,-12.9999999999,0.)) ;
#442=CARTESIAN_POINT('Line Origine',(11.9292479935,-9.4372703851,-5.)) ;
#454=CARTESIAN_POINT('Axis2P3D Location',(-0.421301340815,-2.54268354113,-5.)) ;
#459=CARTESIAN_POINT('Axis2P3D Location',(0.6538518972,3.94619787853,-5.)) ;
#463=CARTESIAN_POINT('Vertex',(2.82125163372,-2.26378722175,-5.)) ;
#466=CARTESIAN_POINT('Axis2P3D Location',(0.6538518972,3.94619787853,-5.)) ;
#486=CARTESIAN_POINT('Axis2P3D Location',(0.6538518972,3.94619787853,-6.)) ;
#491=CARTESIAN_POINT('Line Origine',(2.72612603069,-1.99123547807,-5.5)) ;
#510=CARTESIAN_POINT('Axis2P3D Location',(0.6538518972,3.94619787853,-1.)) ;
#515=CARTESIAN_POINT('Line Origine',(1.4776637849,1.58583053981,-3.5)) ;
#535=CARTESIAN_POINT('Axis2P3D Location',(0.,0.,0.)) ;
#53=DIRECTION('Axis2P3D Direction',(0.,0.,1.)) ;
#54=DIRECTION('Axis2P3D XDirection',(1.,0.,0.)) ;
#58=DIRECTION('Vector Direction',(0.95818025677,0.286165329026,0.)) ;
#67=DIRECTION('Axis2P3D Direction',(0.,0.,1.)) ;
#74=DIRECTION('Vector Direction',(-0.986549469633,0.1634629743,0.)) ;
#81=DIRECTION('Axis2P3D Direction',(0.,0.,1.)) ;
#88=DIRECTION('Vector Direction',(1.,0.,0.)) ;
#95=DIRECTION('Vector Direction',(1.23165366794E-016,-1.,0.)) ;
#108=DIRECTION('Axis2P3D Direction',(0.,0.,1.)) ;
#117=DIRECTION('Axis2P3D Direction',(0.,0.,1.)) ;
#127=DIRECTION('Axis2P3D Direction',(0.,0.,1.)) ;
#128=DIRECTION('Axis2P3D XDirection',(1.,0.,0.)) ;
#132=DIRECTION('Vector Direction',(-0.986549469633,0.1634629743,0.)) ;
#141=DIRECTION('Axis2P3D Direction',(0.,0.,1.)) ;
#148=DIRECTION('Axis2P3D Direction',(0.,0.,1.)) ;
#155=DIRECTION('Axis2P3D Direction',(0.,0.,1.)) ;
#162=DIRECTION('Vector Direction',(-0.986549469633,0.1634629743,0.)) ;
#169=DIRECTION('Axis2P3D Direction',(0.,0.,1.)) ;
#176=DIRECTION('Axis2P3D Direction',(0.,0.,1.)) ;
#191=DIRECTION('Axis2P3D Direction',(0.,0.,1.)) ;
#192=DIRECTION('Axis2P3D XDirection',(1.,0.,0.)) ;
#196=DIRECTION('Axis2P3D Direction',(0.,0.,1.)) ;
#205=DIRECTION('Vector Direction',(0.,0.,1.)) ;
#210=DIRECTION('Vector Direction',(0.,0.,1.)) ;
#222=DIRECTION('Axis2P3D Direction',(0.,0.,1.)) ;
#234=DIRECTION('Axis2P3D Direction',(1.,1.23165366794E-016,0.)) ;
#235=DIRECTION('Axis2P3D XDirection',(1.23165366794E-016,-1.,0.)) ;
#239=DIRECTION('Vector Direction',(1.23165366794E-016,-1.,0.)) ;
#248=DIRECTION('Vector Direction',(0.,0.,-1.)) ;
#253=DIRECTION('Vector Direction',(0.,0.,-1.)) ;
#265=DIRECTION('Axis2P3D Direction',(-0.,1.,0.)) ;
#266=DIRECTION('Axis2P3D XDirection',(1.,0.,0.)) ;
#270=DIRECTION('Vector Direction',(1.,0.,0.)) ;
#277=DIRECTION('Vector Direction',(0.,0.,-1.)) ;
#289=DIRECTION('Axis2P3D Direction',(0.,0.,1.)) ;
#290=DIRECTION('Axis2P3D XDirection',(-0.986312874064,0.16488454887,0.)) ;
#294=DIRECTION('Vector Direction',(0.,0.,1.)) ;
#307=DIRECTION('Axis2P3D Direction',(0.,0.,1.)) ;
#321=DIRECTION('Axis2P3D Direction',(-0.1634629743,-0.986549469633,-0.)) ;
#322=DIRECTION('Axis2P3D XDirection',(-0.986549469633,0.1634629743,0.)) ;
#326=DIRECTION('Vector Direction',(0.,0.,-1.)) ;
#333=DIRECTION('Vector Direction',(-0.986549469633,0.1634629743,0.)) ;
#414=DIRECTION('Axis2P3D Direction',(0.,0.,1.)) ;
#415=DIRECTION('Axis2P3D XDirection',(0.286165329026,-0.95818025677,0.)) ;
#419=DIRECTION('Vector Direction',(0.,0.,1.)) ;
#426=DIRECTION('Axis2P3D Direction',(0.,0.,1.)) ;
#438=DIRECTION('Axis2P3D Direction',(-0.286165329026,0.95818025677,0.)) ;
#439=DIRECTION('Axis2P3D XDirection',(0.95818025677,0.286165329026,0.)) ;
#443=DIRECTION('Vector Direction',(0.95818025677,0.286165329026,0.)) ;
#455=DIRECTION('Axis2P3D Direction',(0.,0.,1.)) ;
#456=DIRECTION('Axis2P3D XDirection',(1.,0.,0.)) ;
#460=DIRECTION('Axis2P3D Direction',(0.,0.,1.)) ;
#467=DIRECTION('Axis2P3D Direction',(0.,0.,1.)) ;
#487=DIRECTION('Axis2P3D Direction',(0.,0.,1.)) ;
#488=DIRECTION('Axis2P3D XDirection',(0.329524755078,-0.944146935488,0.)) ;
#492=DIRECTION('Vector Direction',(0.164762377539,-0.472073467744,0.866025403784)) ;
#511=DIRECTION('Axis2P3D Direction',(-0.,-0.,-1.)) ;
#512=DIRECTION('Axis2P3D XDirection',(0.329524755078,-0.944146935488,0.)) ;
#516=DIRECTION('Vector Direction',(0.233009188885,-0.66761270052,-0.707106781187)) ;
#536=DIRECTION('Axis2P3D Direction',(0.,0.,1.)) ;
#537=DIRECTION('Axis2P3D XDirection',(1.,0.,0.)) ;
#48=AXIS2_PLACEMENT_3D(' ',#47,$,$) ;
#55=AXIS2_PLACEMENT_3D('Plane Axis2P3D',#52,#53,#54) ;
#68=AXIS2_PLACEMENT_3D('Circle Axis2P3D',#66,#67,$) ;
#82=AXIS2_PLACEMENT_3D('Circle Axis2P3D',#80,#81,$) ;
#109=AXIS2_PLACEMENT_3D('Circle Axis2P3D',#107,#108,$) ;
#118=AXIS2_PLACEMENT_3D('Circle Axis2P3D',#116,#117,$) ;
#129=AXIS2_PLACEMENT_3D('Plane Axis2P3D',#126,#127,#128) ;
#142=AXIS2_PLACEMENT_3D('Circle Axis2P3D',#140,#141,$) ;
#149=AXIS2_PLACEMENT_3D('Circle Axis2P3D',#147,#148,$) ;
#156=AXIS2_PLACEMENT_3D('Circle Axis2P3D',#154,#155,$) ;
#170=AXIS2_PLACEMENT_3D('Circle Axis2P3D',#168,#169,$) ;
#177=AXIS2_PLACEMENT_3D('Circle Axis2P3D',#175,#176,$) ;
#193=AXIS2_PLACEMENT_3D('Cylinder Axis2P3D',#190,#191,#192) ;
#197=AXIS2_PLACEMENT_3D('Circle Axis2P3D',#195,#196,$) ;
#223=AXIS2_PLACEMENT_3D('Circle Axis2P3D',#221,#222,$) ;
#236=AXIS2_PLACEMENT_3D('Plane Axis2P3D',#233,#234,#235) ;
#267=AXIS2_PLACEMENT_3D('Plane Axis2P3D',#264,#265,#266) ;
#291=AXIS2_PLACEMENT_3D('Cylinder Axis2P3D',#288,#289,#290) ;
#308=AXIS2_PLACEMENT_3D('Circle Axis2P3D',#306,#307,$) ;
#323=AXIS2_PLACEMENT_3D('Plane Axis2P3D',#320,#321,#322) ;
#416=AXIS2_PLACEMENT_3D('Cylinder Axis2P3D',#413,#414,#415) ;
#427=AXIS2_PLACEMENT_3D('Circle Axis2P3D',#425,#426,$) ;
#440=AXIS2_PLACEMENT_3D('Plane Axis2P3D',#437,#438,#439) ;
#457=AXIS2_PLACEMENT_3D('Plane Axis2P3D',#454,#455,#456) ;
#461=AXIS2_PLACEMENT_3D('Circle Axis2P3D',#459,#460,$) ;
#468=AXIS2_PLACEMENT_3D('Circle Axis2P3D',#466,#467,$) ;
#489=AXIS2_PLACEMENT_3D('Cone Axis2P3D',#486,#487,#488) ;
#513=AXIS2_PLACEMENT_3D('Cone Axis2P3D',#510,#511,#512) ;
#538=AXIS2_PLACEMENT_3D('Rep\X2\00E8\X0\re absolu',#535,#536,#537) ;
#40=PRODUCT_DEFINITION_SHAPE(' ',' ',#14) ;
#31=APPROVAL_PERSON_ORGANIZATION(#25,#21,#19) ;
#25=PERSON_AND_ORGANIZATION(#22,#23) ;
#22=PERSON(' ',' ',' ',$,$,$) ;
#23=ORGANIZATION(' ',' ',' ') ;
#21=APPROVAL(#20,' ') ;
#20=APPROVAL_STATUS('not_yet_approved') ;
#19=APPROVAL_ROLE('APPROVER') ;
#13=DATE_AND_TIME(#11,#12) ;
#12=LOCAL_TIME(9,8,16.,#10) ;
#10=COORDINATED_UNIVERSAL_TIME_OFFSET(0,0,.AHEAD.) ;
#100=ORIENTED_EDGE('',*,*,#65,.T.) ;
#101=ORIENTED_EDGE('',*,*,#72,.T.) ;
#102=ORIENTED_EDGE('',*,*,#79,.T.) ;
#103=ORIENTED_EDGE('',*,*,#86,.T.) ;
#104=ORIENTED_EDGE('',*,*,#93,.T.) ;
#105=ORIENTED_EDGE('',*,*,#98,.T.) ;
#122=ORIENTED_EDGE('',*,*,#115,.F.) ;
#123=ORIENTED_EDGE('',*,*,#120,.F.) ;
#181=ORIENTED_EDGE('',*,*,#139,.F.) ;
#182=ORIENTED_EDGE('',*,*,#146,.F.) ;
#183=ORIENTED_EDGE('',*,*,#153,.F.) ;
#184=ORIENTED_EDGE('',*,*,#160,.F.) ;
#185=ORIENTED_EDGE('',*,*,#167,.F.) ;
#186=ORIENTED_EDGE('',*,*,#174,.T.) ;
#187=ORIENTED_EDGE('',*,*,#179,.T.) ;
#215=ORIENTED_EDGE('',*,*,#203,.F.) ;
#216=ORIENTED_EDGE('',*,*,#208,.F.) ;
#217=ORIENTED_EDGE('',*,*,#120,.T.) ;
#218=ORIENTED_EDGE('',*,*,#213,.T.) ;
#227=ORIENTED_EDGE('',*,*,#225,.F.) ;
#228=ORIENTED_EDGE('',*,*,#213,.F.) ;
#229=ORIENTED_EDGE('',*,*,#115,.T.) ;
#230=ORIENTED_EDGE('',*,*,#208,.T.) ;
#258=ORIENTED_EDGE('',*,*,#246,.T.) ;
#259=ORIENTED_EDGE('',*,*,#251,.F.) ;
#260=ORIENTED_EDGE('',*,*,#98,.F.) ;
#261=ORIENTED_EDGE('',*,*,#256,.T.) ;
#282=ORIENTED_EDGE('',*,*,#275,.T.) ;
#283=ORIENTED_EDGE('',*,*,#256,.F.) ;
#284=ORIENTED_EDGE('',*,*,#93,.F.) ;
#285=ORIENTED_EDGE('',*,*,#280,.T.) ;
#312=ORIENTED_EDGE('',*,*,#280,.F.) ;
#313=ORIENTED_EDGE('',*,*,#86,.F.) ;
#314=ORIENTED_EDGE('',*,*,#297,.T.) ;
#315=ORIENTED_EDGE('',*,*,#160,.T.) ;
#316=ORIENTED_EDGE('',*,*,#305,.T.) ;
#317=ORIENTED_EDGE('',*,*,#310,.T.) ;
#402=ORIENTED_EDGE('',*,*,#167,.T.) ;
#403=ORIENTED_EDGE('',*,*,#297,.F.) ;
#404=ORIENTED_EDGE('',*,*,#79,.F.) ;
#405=ORIENTED_EDGE('',*,*,#331,.T.) ;
#406=ORIENTED_EDGE('',*,*,#338,.T.) ;
#407=ORIENTED_EDGE('',*,*,#346,.F.) ;
#408=ORIENTED_EDGE('',*,*,#139,.T.) ;
#409=ORIENTED_EDGE('',*,*,#371,.F.) ;
#410=ORIENTED_EDGE('',*,*,#400,.T.) ;
#431=ORIENTED_EDGE('',*,*,#331,.F.) ;
#432=ORIENTED_EDGE('',*,*,#72,.F.) ;
#433=ORIENTED_EDGE('',*,*,#424,.T.) ;
#434=ORIENTED_EDGE('',*,*,#429,.T.) ;
#448=ORIENTED_EDGE('',*,*,#446,.T.) ;
#449=ORIENTED_EDGE('',*,*,#424,.F.) ;
#450=ORIENTED_EDGE('',*,*,#65,.F.) ;
#451=ORIENTED_EDGE('',*,*,#251,.T.) ;
#472=ORIENTED_EDGE('',*,*,#338,.F.) ;
#473=ORIENTED_EDGE('',*,*,#429,.F.) ;
#474=ORIENTED_EDGE('',*,*,#446,.F.) ;
#475=ORIENTED_EDGE('',*,*,#246,.F.) ;
#476=ORIENTED_EDGE('',*,*,#275,.F.) ;
#477=ORIENTED_EDGE('',*,*,#310,.F.) ;
#478=ORIENTED_EDGE('',*,*,#465,.T.) ;
#479=ORIENTED_EDGE('',*,*,#470,.T.) ;
#482=ORIENTED_EDGE('',*,*,#203,.T.) ;
#483=ORIENTED_EDGE('',*,*,#225,.T.) ;
#497=ORIENTED_EDGE('',*,*,#470,.F.) ;
#498=ORIENTED_EDGE('',*,*,#495,.F.) ;
#499=ORIENTED_EDGE('',*,*,#146,.T.) ;
#500=ORIENTED_EDGE('',*,*,#346,.T.) ;
#504=ORIENTED_EDGE('',*,*,#153,.T.) ;
#505=ORIENTED_EDGE('',*,*,#495,.T.) ;
#506=ORIENTED_EDGE('',*,*,#465,.F.) ;
#507=ORIENTED_EDGE('',*,*,#305,.F.) ;
#521=ORIENTED_EDGE('',*,*,#400,.F.) ;
#522=ORIENTED_EDGE('',*,*,#519,.F.) ;
#523=ORIENTED_EDGE('',*,*,#174,.F.) ;
#527=ORIENTED_EDGE('',*,*,#371,.T.) ;
#528=ORIENTED_EDGE('',*,*,#179,.F.) ;
#529=ORIENTED_EDGE('',*,*,#519,.T.) ;
#124=FACE_BOUND('',#121,.T.) ;
#484=FACE_BOUND('',#481,.T.) ;
#51=CLOSED_SHELL('Closed Shell',(#125,#189,#220,#232,#263,#287,#319,#412,#436,#453,#485,#502,#509,#525,#531)) ;
#59=VECTOR('Line Direction',#58,1.) ;
#75=VECTOR('Line Direction',#74,1.) ;
#89=VECTOR('Line Direction',#88,1.) ;
#96=VECTOR('Line Direction',#95,1.) ;
#133=VECTOR('Line Direction',#132,1.) ;
#163=VECTOR('Line Direction',#162,1.) ;
#206=VECTOR('Line Direction',#205,1.) ;
#211=VECTOR('Line Direction',#210,1.) ;
#240=VECTOR('Line Direction',#239,1.) ;
#249=VECTOR('Line Direction',#248,1.) ;
#254=VECTOR('Line Direction',#253,1.) ;
#271=VECTOR('Line Direction',#270,1.) ;
#278=VECTOR('Line Direction',#277,1.) ;
#295=VECTOR('Line Direction',#294,1.) ;
#327=VECTOR('Line Direction',#326,1.) ;
#334=VECTOR('Line Direction',#333,1.) ;
#420=VECTOR('Line Direction',#419,1.) ;
#444=VECTOR('Line Direction',#443,1.) ;
#493=VECTOR('Line Direction',#492,1.) ;
#517=VECTOR('Line Direction',#516,1.) ;
#533=ADVANCED_BREP_SHAPE_REPRESENTATION('NONE',(#532),#46) ;
#49=SHAPE_REPRESENTATION(' ',(#48),#46) ;
#125=ADVANCED_FACE('Corps principal',(#106,#124),#56,.T.) ;
#189=ADVANCED_FACE('Corps principal',(#188),#130,.F.) ;
#220=ADVANCED_FACE('Corps principal',(#219),#194,.F.) ;
#232=ADVANCED_FACE('Corps principal',(#231),#194,.F.) ;
#263=ADVANCED_FACE('Corps principal',(#262),#237,.F.) ;
#287=ADVANCED_FACE('Corps principal',(#286),#268,.F.) ;
#319=ADVANCED_FACE('Corps principal',(#318),#292,.T.) ;
#412=ADVANCED_FACE('Corps principal',(#411),#324,.F.) ;
#436=ADVANCED_FACE('Corps principal',(#435),#417,.T.) ;
#453=ADVANCED_FACE('Corps principal',(#452),#441,.F.) ;
#485=ADVANCED_FACE('Corps principal',(#480,#484),#458,.F.) ;
#502=ADVANCED_FACE('Corps principal',(#501),#490,.T.) ;
#509=ADVANCED_FACE('Corps principal',(#508),#490,.T.) ;
#525=ADVANCED_FACE('Corps principal',(#524),#514,.F.) ;
#531=ADVANCED_FACE('Corps principal',(#530),#514,.F.) ;
#4=APPLICATION_PROTOCOL_DEFINITION('international standard','config_control_design',1994,#1) ;
#32=APPROVAL_DATE_TIME(#13,#21) ;
#298=B_SPLINE_CURVE_WITH_KNOTS('',3,(#299,#300,#301,#302),.UNSPECIFIED.,.F.,.U.,(4,4),(0.,2.22330929173),.UNSPECIFIED.) ;
#339=B_SPLINE_CURVE_WITH_KNOTS('',5,(#340,#341,#342,#343,#344,#345),.UNSPECIFIED.,.F.,.U.,(6,6),(0.,1.63320047382),.UNSPECIFIED.) ;
#347=B_SPLINE_CURVE_WITH_KNOTS('',5,(#348,#349,#350,#351,#352,#353,#354,#355,#356,#357,#358,#359,#360,#361,#362,#363,#364,#365,#366,#367,#368),.UNSPECIFIED.,.F.,.U.,(6,3,3,3,3,3,6),(0.,1.33419694336,1.87722834646,2.93085133055,4.79975705768,7.84096932723,11.0045257382),.UNSPECIFIED.) ;
#372=B_SPLINE_CURVE_WITH_KNOTS('',5,(#373,#374,#375,#376,#377,#378,#379,#380,#381,#382,#383,#384,#385,#386,#387,#388,#389,#390,#391,#392,#393,#394,#395,#396,#397,#398,#399),.UNSPECIFIED.,.F.,.U.,(6,3,3,3,3,3,3,3,6),(0.,1.58725975532,2.37604969868,3.70830243071,4.29088557241,5.35146674214,7.17607334844,10.2228807519,13.5328733312),.UNSPECIFIED.) ;
#532=MANIFOLD_SOLID_BREP('Corps principal',#51) ;
#11=CALENDAR_DATE(2018,9,11) ;
#30=CC_DESIGN_APPROVAL(#21,(#16,#6,#14)) ;
#18=CC_DESIGN_DATE_AND_TIME_ASSIGNMENT(#13,#17,(#16)) ;
#29=CC_DESIGN_DATE_AND_TIME_ASSIGNMENT(#13,#28,(#14)) ;
#17=DATE_TIME_ROLE('classification_date') ;
#28=DATE_TIME_ROLE('creation_date') ;
#27=CC_DESIGN_PERSON_AND_ORGANIZATION_ASSIGNMENT(#25,#26,(#16)) ;
#33=CC_DESIGN_PERSON_AND_ORGANIZATION_ASSIGNMENT(#25,#34,(#6)) ;
#35=CC_DESIGN_PERSON_AND_ORGANIZATION_ASSIGNMENT(#25,#36,(#6,#14)) ;
#37=CC_DESIGN_PERSON_AND_ORGANIZATION_ASSIGNMENT(#25,#38,(#5)) ;
#26=PERSON_AND_ORGANIZATION_ROLE('classification_officer') ;
#34=PERSON_AND_ORGANIZATION_ROLE('design_supplier') ;
#36=PERSON_AND_ORGANIZATION_ROLE('creator') ;
#38=PERSON_AND_ORGANIZATION_ROLE('design_owner') ;
#39=CC_DESIGN_SECURITY_CLASSIFICATION(#16,(#6)) ;
#69=CIRCLE('generated circle',#68,3.) ;
#83=CIRCLE('generated circle',#82,28.) ;
#110=CIRCLE('generated circle',#109,1.7) ;
#119=CIRCLE('generated circle',#118,1.7) ;
#143=CIRCLE('generated circle',#142,6.) ;
#150=CIRCLE('generated circle',#149,6.) ;
#157=CIRCLE('generated circle',#156,28.) ;
#171=CIRCLE('generated circle',#170,5.) ;
#178=CIRCLE('generated circle',#177,5.) ;
#198=CIRCLE('generated circle',#197,1.7) ;
#224=CIRCLE('generated circle',#223,1.7) ;
#309=CIRCLE('generated circle',#308,28.) ;
#428=CIRCLE('generated circle',#427,3.) ;
#462=CIRCLE('generated circle',#461,6.57735026919) ;
#469=CIRCLE('generated circle',#468,6.57735026919) ;
#490=CONICAL_SURFACE('Cone',#489,6.,0.523598775598) ;
#514=CONICAL_SURFACE('Cone',#513,0.,0.785398163397) ;
#534=SHAPE_REPRESENTATION_RELATIONSHIP(' ',' ',#49,#533) ;
#194=CYLINDRICAL_SURFACE('generated cylinder',#193,1.7) ;
#292=CYLINDRICAL_SURFACE('generated cylinder',#291,28.) ;
#417=CYLINDRICAL_SURFACE('generated cylinder',#416,3.) ;
#3=DESIGN_CONTEXT(' ',#1,'design') ;
#65=EDGE_CURVE('',#62,#64,#60,.T.) ;
#72=EDGE_CURVE('',#64,#71,#69,.T.) ;
#79=EDGE_CURVE('',#71,#78,#76,.T.) ;
#86=EDGE_CURVE('',#78,#85,#83,.T.) ;
#93=EDGE_CURVE('',#85,#92,#90,.T.) ;
#98=EDGE_CURVE('',#92,#62,#97,.T.) ;
#115=EDGE_CURVE('',#112,#114,#110,.T.) ;
#120=EDGE_CURVE('',#114,#112,#119,.T.) ;
#139=EDGE_CURVE('',#136,#138,#134,.T.) ;
#146=EDGE_CURVE('',#145,#136,#143,.T.) ;
#153=EDGE_CURVE('',#152,#145,#150,.T.) ;
#160=EDGE_CURVE('',#159,#152,#157,.T.) ;
#167=EDGE_CURVE('',#166,#159,#164,.T.) ;
#174=EDGE_CURVE('',#166,#173,#171,.T.) ;
#179=EDGE_CURVE('',#173,#138,#178,.T.) ;
#203=EDGE_CURVE('',#200,#202,#198,.T.) ;
#208=EDGE_CURVE('',#114,#200,#207,.F.) ;
#213=EDGE_CURVE('',#112,#202,#212,.F.) ;
#225=EDGE_CURVE('',#202,#200,#224,.T.) ;
#246=EDGE_CURVE('',#243,#245,#241,.T.) ;
#251=EDGE_CURVE('',#62,#245,#250,.T.) ;
#256=EDGE_CURVE('',#92,#243,#255,.T.) ;
#275=EDGE_CURVE('',#274,#243,#272,.T.) ;
#280=EDGE_CURVE('',#85,#274,#279,.T.) ;
#297=EDGE_CURVE('',#78,#159,#296,.F.) ;
#305=EDGE_CURVE('',#152,#304,#298,.T.) ;
#310=EDGE_CURVE('',#304,#274,#309,.T.) ;
#331=EDGE_CURVE('',#71,#330,#328,.T.) ;
#338=EDGE_CURVE('',#330,#337,#335,.T.) ;
#346=EDGE_CURVE('',#136,#337,#339,.T.) ;
#371=EDGE_CURVE('',#370,#138,#347,.T.) ;
#400=EDGE_CURVE('',#370,#166,#372,.T.) ;
#424=EDGE_CURVE('',#64,#423,#421,.F.) ;
#429=EDGE_CURVE('',#423,#330,#428,.T.) ;
#446=EDGE_CURVE('',#245,#423,#445,.T.) ;
#465=EDGE_CURVE('',#304,#464,#462,.T.) ;
#470=EDGE_CURVE('',#464,#337,#469,.T.) ;
#495=EDGE_CURVE('',#145,#464,#494,.T.) ;
#519=EDGE_CURVE('',#173,#370,#518,.F.) ;
#99=EDGE_LOOP('',(#100,#101,#102,#103,#104,#105)) ;
#121=EDGE_LOOP('',(#122,#123)) ;
#180=EDGE_LOOP('',(#181,#182,#183,#184,#185,#186,#187)) ;
#214=EDGE_LOOP('',(#215,#216,#217,#218)) ;
#226=EDGE_LOOP('',(#227,#228,#229,#230)) ;
#257=EDGE_LOOP('',(#258,#259,#260,#261)) ;
#281=EDGE_LOOP('',(#282,#283,#284,#285)) ;
#311=EDGE_LOOP('',(#312,#313,#314,#315,#316,#317)) ;
#401=EDGE_LOOP('',(#402,#403,#404,#405,#406,#407,#408,#409,#410)) ;
#430=EDGE_LOOP('',(#431,#432,#433,#434)) ;
#447=EDGE_LOOP('',(#448,#449,#450,#451)) ;
#471=EDGE_LOOP('',(#472,#473,#474,#475,#476,#477,#478,#479)) ;
#481=EDGE_LOOP('',(#482,#483)) ;
#496=EDGE_LOOP('',(#497,#498,#499,#500)) ;
#503=EDGE_LOOP('',(#504,#505,#506,#507)) ;
#520=EDGE_LOOP('',(#521,#522,#523)) ;
#526=EDGE_LOOP('',(#527,#528,#529)) ;
#106=FACE_OUTER_BOUND('',#99,.T.) ;
#188=FACE_OUTER_BOUND('',#180,.T.) ;
#219=FACE_OUTER_BOUND('',#214,.T.) ;
#231=FACE_OUTER_BOUND('',#226,.T.) ;
#262=FACE_OUTER_BOUND('',#257,.T.) ;
#286=FACE_OUTER_BOUND('',#281,.T.) ;
#318=FACE_OUTER_BOUND('',#311,.T.) ;
#411=FACE_OUTER_BOUND('',#401,.T.) ;
#435=FACE_OUTER_BOUND('',#430,.T.) ;
#452=FACE_OUTER_BOUND('',#447,.T.) ;
#480=FACE_OUTER_BOUND('',#471,.T.) ;
#501=FACE_OUTER_BOUND('',#496,.T.) ;
#508=FACE_OUTER_BOUND('',#503,.T.) ;
#524=FACE_OUTER_BOUND('',#520,.T.) ;
#530=FACE_OUTER_BOUND('',#526,.T.) ;
#45=UNCERTAINTY_MEASURE_WITH_UNIT(LENGTH_MEASURE(0.005),#41,'distance_accuracy_value','CONFUSED CURVE UNCERTAINTY') ;
#60=LINE('Line',#57,#59) ;
#76=LINE('Line',#73,#75) ;
#90=LINE('Line',#87,#89) ;
#97=LINE('Line',#94,#96) ;
#134=LINE('Line',#131,#133) ;
#164=LINE('Line',#161,#163) ;
#207=LINE('Line',#204,#206) ;
#212=LINE('Line',#209,#211) ;
#241=LINE('Line',#238,#240) ;
#250=LINE('Line',#247,#249) ;
#255=LINE('Line',#252,#254) ;
#272=LINE('Line',#269,#271) ;
#279=LINE('Line',#276,#278) ;
#296=LINE('Line',#293,#295) ;
#328=LINE('Line',#325,#327) ;
#335=LINE('Line',#332,#334) ;
#421=LINE('Line',#418,#420) ;
#445=LINE('Line',#442,#444) ;
#494=LINE('Line',#491,#493) ;
#518=LINE('Line',#515,#517) ;
#2=MECHANICAL_CONTEXT(' ',#1,'mechanical') ;
#24=PERSONAL_ADDRESS(' ',' ',' ',' ',' ',' ',' ',' ',' ',' ',' ',' ',(#22),' ') ;
#56=PLANE('',#55) ;
#130=PLANE('',#129) ;
#237=PLANE('',#236) ;
#268=PLANE('',#267) ;
#324=PLANE('',#323) ;
#441=PLANE('',#440) ;
#458=PLANE('',#457) ;
#43=PLANE_ANGLE_MEASURE_WITH_UNIT(PLANE_ANGLE_MEASURE(0.0174532925199),#42) ;
#7=PRODUCT_CATEGORY('part',$) ;
#9=PRODUCT_CATEGORY_RELATIONSHIP(' ',' ',#7,#8) ;
#6=PRODUCT_DEFINITION_FORMATION_WITH_SPECIFIED_SOURCE('',' ',#5,.NOT_KNOWN.) ;
#8=PRODUCT_RELATED_PRODUCT_CATEGORY('detail',$,(#5)) ;
#50=SHAPE_DEFINITION_REPRESENTATION(#40,#49) ;
#62=VERTEX_POINT('',#61) ;
#64=VERTEX_POINT('',#63) ;
#71=VERTEX_POINT('',#70) ;
#78=VERTEX_POINT('',#77) ;
#85=VERTEX_POINT('',#84) ;
#92=VERTEX_POINT('',#91) ;
#112=VERTEX_POINT('',#111) ;
#114=VERTEX_POINT('',#113) ;
#136=VERTEX_POINT('',#135) ;
#138=VERTEX_POINT('',#137) ;
#145=VERTEX_POINT('',#144) ;
#152=VERTEX_POINT('',#151) ;
#159=VERTEX_POINT('',#158) ;
#166=VERTEX_POINT('',#165) ;
#173=VERTEX_POINT('',#172) ;
#200=VERTEX_POINT('',#199) ;
#202=VERTEX_POINT('',#201) ;
#243=VERTEX_POINT('',#242) ;
#245=VERTEX_POINT('',#244) ;
#274=VERTEX_POINT('',#273) ;
#304=VERTEX_POINT('',#303) ;
#330=VERTEX_POINT('',#329) ;
#337=VERTEX_POINT('',#336) ;
#370=VERTEX_POINT('',#369) ;
#423=VERTEX_POINT('',#422) ;
#464=VERTEX_POINT('',#463) ;
#41=(LENGTH_UNIT()NAMED_UNIT(*)SI_UNIT(.MILLI.,.METRE.)) ;
#42=(NAMED_UNIT(*)PLANE_ANGLE_UNIT()SI_UNIT($,.RADIAN.)) ;
#44=(NAMED_UNIT(*)SI_UNIT($,.STERADIAN.)SOLID_ANGLE_UNIT()) ;
#46=(GEOMETRIC_REPRESENTATION_CONTEXT(3)GLOBAL_UNCERTAINTY_ASSIGNED_CONTEXT((#45))GLOBAL_UNIT_ASSIGNED_CONTEXT((#41,#42,#44))REPRESENTATION_CONTEXT(' ',' ')) ;
ENDSEC;
END-ISO-10303-21;
