ISO-10303-21;
HEADER;
FILE_DESCRIPTION(('CATIA V5 STEP Exchange'),'2;1');

FILE_NAME('C:\\Users\\Nicolas\\Desktop\\Galet.stp','2018-10-24T19:51:27+00:00',('none'),('none'),'CATIA Version 5 Release 19 GA (IN-10)','CATIA V5 STEP AP203','none');

FILE_SCHEMA(('CONFIG_CONTROL_DESIGN'));

ENDSEC;
/* file written by CATIA V5R19 */
DATA;
#5=PRODUCT('galet haut','','',(#2)) ;
#1=APPLICATION_CONTEXT('configuration controlled 3D design of mechanical parts and assemblies') ;
#14=PRODUCT_DEFINITION('',' ',#6,#3) ;
#16=SECURITY_CLASSIFICATION(' ',' ',#15) ;
#15=SECURITY_CLASSIFICATION_LEVEL('unclassified') ;
#47=CARTESIAN_POINT(' ',(0.,0.,0.)) ;
#52=CARTESIAN_POINT('Axis2P3D Location',(0.,-69.,0.)) ;
#57=CARTESIAN_POINT('Axis2P3D Location',(0.,-69.,25.)) ;
#61=CARTESIAN_POINT('Vertex',(4.79425538604,-69.,33.7758256189)) ;
#63=CARTESIAN_POINT('Vertex',(-4.79425538604,-69.,16.2241743811)) ;
#66=CARTESIAN_POINT('Axis2P3D Location',(0.,-69.,25.)) ;
#76=CARTESIAN_POINT('Axis2P3D Location',(0.,21.,25.)) ;
#81=CARTESIAN_POINT('Line Origine',(-4.79425538604,91.,16.2241743811)) ;
#85=CARTESIAN_POINT('Vertex',(-4.79425538604,-29.,16.2241743811)) ;
#88=CARTESIAN_POINT('Line Origine',(4.79425538604,91.,33.7758256189)) ;
#92=CARTESIAN_POINT('Vertex',(4.79425538604,-29.,33.7758256189)) ;
#95=CARTESIAN_POINT('Axis2P3D Location',(0.,-29.,25.)) ;
#107=CARTESIAN_POINT('Axis2P3D Location',(0.,-29.,25.)) ;
#119=CARTESIAN_POINT('Axis2P3D Location',(0.,111.,0.)) ;
#124=CARTESIAN_POINT('Axis2P3D Location',(0.,111.,25.)) ;
#128=CARTESIAN_POINT('Vertex',(-4.79425538604,111.,16.2241743811)) ;
#130=CARTESIAN_POINT('Vertex',(4.79425538604,111.,33.7758256189)) ;
#133=CARTESIAN_POINT('Axis2P3D Location',(0.,111.,25.)) ;
#143=CARTESIAN_POINT('Line Origine',(4.79425538604,91.,33.7758256189)) ;
#147=CARTESIAN_POINT('Vertex',(4.79425538604,71.,33.7758256189)) ;
#150=CARTESIAN_POINT('Line Origine',(-4.79425538604,91.,16.2241743811)) ;
#154=CARTESIAN_POINT('Vertex',(-4.79425538604,71.,16.2241743811)) ;
#157=CARTESIAN_POINT('Axis2P3D Location',(0.,71.,25.)) ;
#169=CARTESIAN_POINT('Axis2P3D Location',(0.,71.,25.)) ;
#182=CARTESIAN_POINT('Control Point',(0.,14.4999981215,6.99308812252)) ;
#183=CARTESIAN_POINT('Control Point',(0.,28.6787003367,6.7398249282)) ;
#184=CARTESIAN_POINT('Control Point',(0.,42.,1.59872115546E-014)) ;
#185=CARTESIAN_POINT('Axis1P Location',(0.,21.,25.)) ;
#189=CARTESIAN_POINT('Axis2P3D Location',(0.,42.,25.)) ;
#193=CARTESIAN_POINT('Vertex',(-11.9856384651,42.,3.06043595274)) ;
#195=CARTESIAN_POINT('Vertex',(11.9856384651,42.,46.9395640473)) ;
#199=CARTESIAN_POINT('Control Point',(-8.63297342546,14.4999981215,9.19744814283)) ;
#200=CARTESIAN_POINT('Control Point',(-8.75439426881,28.6787003367,8.97518877992)) ;
#201=CARTESIAN_POINT('Control Point',(-11.9856384651,42.,3.06043595274)) ;
#202=CARTESIAN_POINT('Vertex',(-8.63297342546,14.4999981215,9.19744814283)) ;
#205=CARTESIAN_POINT('Axis2P3D Location',(0.,14.4999981215,25.)) ;
#209=CARTESIAN_POINT('Vertex',(8.63297342546,14.4999981215,40.8025518572)) ;
#213=CARTESIAN_POINT('Control Point',(8.63297342546,14.4999981215,40.8025518572)) ;
#214=CARTESIAN_POINT('Control Point',(8.75439426881,28.6787003367,41.0248112201)) ;
#215=CARTESIAN_POINT('Control Point',(11.9856384651,42.,46.9395640473)) ;
#225=CARTESIAN_POINT('Control Point',(0.,14.4999981215,6.99308812252)) ;
#226=CARTESIAN_POINT('Control Point',(0.,28.6787003367,6.7398249282)) ;
#227=CARTESIAN_POINT('Control Point',(0.,42.,1.59872115546E-014)) ;
#228=CARTESIAN_POINT('Axis1P Location',(0.,21.,25.)) ;
#232=CARTESIAN_POINT('Axis2P3D Location',(0.,42.,25.)) ;
#237=CARTESIAN_POINT('Axis2P3D Location',(0.,14.4999981215,25.)) ;
#250=CARTESIAN_POINT('Control Point',(0.,14.4999981215,6.99308812252)) ;
#251=CARTESIAN_POINT('Control Point',(0.,10.0046171878,7.07338563619)) ;
#252=CARTESIAN_POINT('Control Point',(0.,5.44013884754,6.25414588815)) ;
#253=CARTESIAN_POINT('Control Point',(0.,1.80102347183,4.49906603937)) ;
#254=CARTESIAN_POINT('Control Point',(0.,3.88578058619E-015,2.24833882998)) ;
#255=CARTESIAN_POINT('Control Point',(0.,0.,8.881784197E-016)) ;
#256=CARTESIAN_POINT('Axis1P Location',(0.,21.,25.)) ;
#261=CARTESIAN_POINT('Control Point',(-8.63297342546,14.4999981215,9.19744814283)) ;
#262=CARTESIAN_POINT('Control Point',(-8.59447674672,10.0046171878,9.26791584059)) ;
#263=CARTESIAN_POINT('Control Point',(-8.98724120417,5.44013884754,8.5489653237)) ;
#264=CARTESIAN_POINT('Control Point',(-9.82867130597,1.80102347183,7.00873785368)) ;
#265=CARTESIAN_POINT('Control Point',(-10.9077274106,7.24605560739E-015,5.03353890315)) ;
#266=CARTESIAN_POINT('Control Point',(-11.9856384651,-8.881784197E-016,3.06043595274)) ;
#267=CARTESIAN_POINT('Vertex',(-11.9856384651,0.,3.06043595274)) ;
#270=CARTESIAN_POINT('Axis2P3D Location',(0.,0.,25.)) ;
#274=CARTESIAN_POINT('Vertex',(11.9856384651,0.,46.9395640473)) ;
#278=CARTESIAN_POINT('Control Point',(8.63297342546,14.4999981215,40.8025518572)) ;
#279=CARTESIAN_POINT('Control Point',(8.59447674672,10.0046171878,40.7320841594)) ;
#280=CARTESIAN_POINT('Control Point',(8.98724120417,5.44013884754,41.4510346763)) ;
#281=CARTESIAN_POINT('Control Point',(9.82867130597,1.80102347183,42.9912621463)) ;
#282=CARTESIAN_POINT('Control Point',(10.9077274106,7.24605560739E-015,44.9664610968)) ;
#283=CARTESIAN_POINT('Control Point',(11.9856384651,-8.881784197E-016,46.9395640473)) ;
#292=CARTESIAN_POINT('Axis2P3D Location',(0.,21.,25.)) ;
#297=CARTESIAN_POINT('Axis2P3D Location',(0.,71.,25.)) ;
#301=CARTESIAN_POINT('Vertex',(-11.9856384651,71.,3.06043595274)) ;
#303=CARTESIAN_POINT('Vertex',(11.9856384651,71.,46.9395640473)) ;
#306=CARTESIAN_POINT('Line Origine',(-11.9856384651,-14.5,3.06043595274)) ;
#311=CARTESIAN_POINT('Line Origine',(11.9856384651,-14.5,46.9395640473)) ;
#324=CARTESIAN_POINT('Control Point',(0.,14.4999981215,6.99308812252)) ;
#325=CARTESIAN_POINT('Control Point',(0.,10.0046171878,7.07338563619)) ;
#326=CARTESIAN_POINT('Control Point',(0.,5.44013884754,6.25414588815)) ;
#327=CARTESIAN_POINT('Control Point',(0.,1.80102347183,4.49906603937)) ;
#328=CARTESIAN_POINT('Control Point',(0.,3.88578058619E-015,2.24833882998)) ;
#329=CARTESIAN_POINT('Control Point',(0.,0.,8.881784197E-016)) ;
#330=CARTESIAN_POINT('Axis1P Location',(0.,21.,25.)) ;
#334=CARTESIAN_POINT('Axis2P3D Location',(0.,0.,25.)) ;
#346=CARTESIAN_POINT('Axis2P3D Location',(0.,71.,25.)) ;
#358=CARTESIAN_POINT('Line Origine',(-11.9856384651,-14.5,3.06043595274)) ;
#362=CARTESIAN_POINT('Vertex',(-11.9856384651,-29.,3.06043595274)) ;
#365=CARTESIAN_POINT('Axis2P3D Location',(0.,-29.,25.)) ;
#369=CARTESIAN_POINT('Vertex',(11.9856384651,-29.,46.9395640473)) ;
#372=CARTESIAN_POINT('Line Origine',(11.9856384651,-14.5,46.9395640473)) ;
#384=CARTESIAN_POINT('Axis2P3D Location',(0.,71.,0.)) ;
#398=CARTESIAN_POINT('Axis2P3D Location',(0.,-29.,25.)) ;
#410=CARTESIAN_POINT('Axis2P3D Location',(0.,-29.,15.)) ;
#53=DIRECTION('Axis2P3D Direction',(0.,1.,-0.)) ;
#54=DIRECTION('Axis2P3D XDirection',(-1.,0.,0.)) ;
#58=DIRECTION('Axis2P3D Direction',(0.,1.,-0.)) ;
#67=DIRECTION('Axis2P3D Direction',(0.,1.,-0.)) ;
#77=DIRECTION('Axis2P3D Direction',(0.,1.,-0.)) ;
#78=DIRECTION('Axis2P3D XDirection',(0.479425538604,0.,0.87758256189)) ;
#82=DIRECTION('Vector Direction',(0.,1.,0.)) ;
#89=DIRECTION('Vector Direction',(0.,1.,0.)) ;
#96=DIRECTION('Axis2P3D Direction',(0.,1.,-0.)) ;
#108=DIRECTION('Axis2P3D Direction',(0.,1.,-0.)) ;
#120=DIRECTION('Axis2P3D Direction',(0.,1.,-0.)) ;
#121=DIRECTION('Axis2P3D XDirection',(-1.,0.,0.)) ;
#125=DIRECTION('Axis2P3D Direction',(0.,1.,-0.)) ;
#134=DIRECTION('Axis2P3D Direction',(0.,1.,-0.)) ;
#144=DIRECTION('Vector Direction',(0.,1.,0.)) ;
#151=DIRECTION('Vector Direction',(0.,1.,0.)) ;
#158=DIRECTION('Axis2P3D Direction',(0.,1.,-0.)) ;
#170=DIRECTION('Axis2P3D Direction',(0.,1.,-0.)) ;
#186=DIRECTION('Axis1P Direction',(0.,1.,0.)) ;
#190=DIRECTION('Axis2P3D Direction',(0.,1.,0.)) ;
#206=DIRECTION('Axis2P3D Direction',(0.,1.,0.)) ;
#229=DIRECTION('Axis1P Direction',(0.,1.,0.)) ;
#233=DIRECTION('Axis2P3D Direction',(0.,1.,0.)) ;
#238=DIRECTION('Axis2P3D Direction',(0.,1.,0.)) ;
#257=DIRECTION('Axis1P Direction',(0.,1.,0.)) ;
#271=DIRECTION('Axis2P3D Direction',(0.,1.,0.)) ;
#293=DIRECTION('Axis2P3D Direction',(0.,1.,0.)) ;
#294=DIRECTION('Axis2P3D XDirection',(0.479425538604,-0.,0.87758256189)) ;
#298=DIRECTION('Axis2P3D Direction',(0.,1.,0.)) ;
#307=DIRECTION('Vector Direction',(0.,1.,0.)) ;
#312=DIRECTION('Vector Direction',(0.,1.,0.)) ;
#331=DIRECTION('Axis1P Direction',(0.,1.,0.)) ;
#335=DIRECTION('Axis2P3D Direction',(0.,1.,0.)) ;
#347=DIRECTION('Axis2P3D Direction',(0.,1.,0.)) ;
#359=DIRECTION('Vector Direction',(0.,1.,0.)) ;
#366=DIRECTION('Axis2P3D Direction',(0.,1.,0.)) ;
#373=DIRECTION('Vector Direction',(0.,1.,0.)) ;
#385=DIRECTION('Axis2P3D Direction',(0.,1.,0.)) ;
#386=DIRECTION('Axis2P3D XDirection',(1.,-0.,0.)) ;
#399=DIRECTION('Axis2P3D Direction',(0.,1.,0.)) ;
#411=DIRECTION('Axis2P3D Direction',(0.,1.,0.)) ;
#412=DIRECTION('Axis2P3D XDirection',(1.,-0.,0.)) ;
#48=AXIS2_PLACEMENT_3D(' ',#47,$,$) ;
#55=AXIS2_PLACEMENT_3D('Plane Axis2P3D',#52,#53,#54) ;
#59=AXIS2_PLACEMENT_3D('Circle Axis2P3D',#57,#58,$) ;
#68=AXIS2_PLACEMENT_3D('Circle Axis2P3D',#66,#67,$) ;
#79=AXIS2_PLACEMENT_3D('Cylinder Axis2P3D',#76,#77,#78) ;
#97=AXIS2_PLACEMENT_3D('Circle Axis2P3D',#95,#96,$) ;
#109=AXIS2_PLACEMENT_3D('Circle Axis2P3D',#107,#108,$) ;
#122=AXIS2_PLACEMENT_3D('Plane Axis2P3D',#119,#120,#121) ;
#126=AXIS2_PLACEMENT_3D('Circle Axis2P3D',#124,#125,$) ;
#135=AXIS2_PLACEMENT_3D('Circle Axis2P3D',#133,#134,$) ;
#159=AXIS2_PLACEMENT_3D('Circle Axis2P3D',#157,#158,$) ;
#171=AXIS2_PLACEMENT_3D('Circle Axis2P3D',#169,#170,$) ;
#191=AXIS2_PLACEMENT_3D('Circle Axis2P3D',#189,#190,$) ;
#207=AXIS2_PLACEMENT_3D('Circle Axis2P3D',#205,#206,$) ;
#234=AXIS2_PLACEMENT_3D('Circle Axis2P3D',#232,#233,$) ;
#239=AXIS2_PLACEMENT_3D('Circle Axis2P3D',#237,#238,$) ;
#272=AXIS2_PLACEMENT_3D('Circle Axis2P3D',#270,#271,$) ;
#295=AXIS2_PLACEMENT_3D('Cylinder Axis2P3D',#292,#293,#294) ;
#299=AXIS2_PLACEMENT_3D('Circle Axis2P3D',#297,#298,$) ;
#336=AXIS2_PLACEMENT_3D('Circle Axis2P3D',#334,#335,$) ;
#348=AXIS2_PLACEMENT_3D('Circle Axis2P3D',#346,#347,$) ;
#367=AXIS2_PLACEMENT_3D('Circle Axis2P3D',#365,#366,$) ;
#387=AXIS2_PLACEMENT_3D('Plane Axis2P3D',#384,#385,#386) ;
#400=AXIS2_PLACEMENT_3D('Circle Axis2P3D',#398,#399,$) ;
#413=AXIS2_PLACEMENT_3D('Plane Axis2P3D',#410,#411,#412) ;
#40=PRODUCT_DEFINITION_SHAPE(' ',' ',#14) ;
#31=APPROVAL_PERSON_ORGANIZATION(#25,#21,#19) ;
#25=PERSON_AND_ORGANIZATION(#22,#23) ;
#22=PERSON(' ',' ',' ',$,$,$) ;
#23=ORGANIZATION(' ',' ',' ') ;
#21=APPROVAL(#20,' ') ;
#20=APPROVAL_STATUS('not_yet_approved') ;
#19=APPROVAL_ROLE('APPROVER') ;
#13=DATE_AND_TIME(#11,#12) ;
#12=LOCAL_TIME(21,51,27.,#10) ;
#10=COORDINATED_UNIVERSAL_TIME_OFFSET(0,0,.AHEAD.) ;
#72=ORIENTED_EDGE('',*,*,#65,.F.) ;
#73=ORIENTED_EDGE('',*,*,#70,.F.) ;
#101=ORIENTED_EDGE('',*,*,#87,.F.) ;
#102=ORIENTED_EDGE('',*,*,#70,.T.) ;
#103=ORIENTED_EDGE('',*,*,#94,.T.) ;
#104=ORIENTED_EDGE('',*,*,#99,.F.) ;
#113=ORIENTED_EDGE('',*,*,#94,.F.) ;
#114=ORIENTED_EDGE('',*,*,#65,.T.) ;
#115=ORIENTED_EDGE('',*,*,#87,.T.) ;
#116=ORIENTED_EDGE('',*,*,#111,.F.) ;
#139=ORIENTED_EDGE('',*,*,#132,.T.) ;
#140=ORIENTED_EDGE('',*,*,#137,.T.) ;
#163=ORIENTED_EDGE('',*,*,#149,.T.) ;
#164=ORIENTED_EDGE('',*,*,#132,.F.) ;
#165=ORIENTED_EDGE('',*,*,#156,.F.) ;
#166=ORIENTED_EDGE('',*,*,#161,.T.) ;
#175=ORIENTED_EDGE('',*,*,#156,.T.) ;
#176=ORIENTED_EDGE('',*,*,#137,.F.) ;
#177=ORIENTED_EDGE('',*,*,#149,.F.) ;
#178=ORIENTED_EDGE('',*,*,#173,.T.) ;
#218=ORIENTED_EDGE('',*,*,#197,.F.) ;
#219=ORIENTED_EDGE('',*,*,#204,.T.) ;
#220=ORIENTED_EDGE('',*,*,#211,.T.) ;
#221=ORIENTED_EDGE('',*,*,#216,.F.) ;
#243=ORIENTED_EDGE('',*,*,#236,.F.) ;
#244=ORIENTED_EDGE('',*,*,#216,.T.) ;
#245=ORIENTED_EDGE('',*,*,#241,.T.) ;
#246=ORIENTED_EDGE('',*,*,#204,.F.) ;
#286=ORIENTED_EDGE('',*,*,#211,.F.) ;
#287=ORIENTED_EDGE('',*,*,#269,.T.) ;
#288=ORIENTED_EDGE('',*,*,#276,.T.) ;
#289=ORIENTED_EDGE('',*,*,#284,.F.) ;
#317=ORIENTED_EDGE('',*,*,#305,.F.) ;
#318=ORIENTED_EDGE('',*,*,#310,.T.) ;
#319=ORIENTED_EDGE('',*,*,#197,.T.) ;
#320=ORIENTED_EDGE('',*,*,#315,.F.) ;
#340=ORIENTED_EDGE('',*,*,#241,.F.) ;
#341=ORIENTED_EDGE('',*,*,#284,.T.) ;
#342=ORIENTED_EDGE('',*,*,#338,.T.) ;
#343=ORIENTED_EDGE('',*,*,#269,.F.) ;
#352=ORIENTED_EDGE('',*,*,#350,.F.) ;
#353=ORIENTED_EDGE('',*,*,#315,.T.) ;
#354=ORIENTED_EDGE('',*,*,#236,.T.) ;
#355=ORIENTED_EDGE('',*,*,#310,.F.) ;
#378=ORIENTED_EDGE('',*,*,#276,.F.) ;
#379=ORIENTED_EDGE('',*,*,#364,.T.) ;
#380=ORIENTED_EDGE('',*,*,#371,.T.) ;
#381=ORIENTED_EDGE('',*,*,#376,.F.) ;
#390=ORIENTED_EDGE('',*,*,#350,.T.) ;
#391=ORIENTED_EDGE('',*,*,#305,.T.) ;
#394=ORIENTED_EDGE('',*,*,#161,.F.) ;
#395=ORIENTED_EDGE('',*,*,#173,.F.) ;
#404=ORIENTED_EDGE('',*,*,#338,.F.) ;
#405=ORIENTED_EDGE('',*,*,#376,.T.) ;
#406=ORIENTED_EDGE('',*,*,#402,.T.) ;
#407=ORIENTED_EDGE('',*,*,#364,.F.) ;
#416=ORIENTED_EDGE('',*,*,#371,.F.) ;
#417=ORIENTED_EDGE('',*,*,#402,.F.) ;
#420=ORIENTED_EDGE('',*,*,#111,.T.) ;
#421=ORIENTED_EDGE('',*,*,#99,.T.) ;
#396=FACE_BOUND('',#393,.T.) ;
#422=FACE_BOUND('',#419,.T.) ;
#51=CLOSED_SHELL('Closed Shell',(#75,#106,#118,#142,#168,#180,#223,#248,#291,#322,#345,#357,#383,#397,#409,#423)) ;
#83=VECTOR('Line Direction',#82,1.) ;
#90=VECTOR('Line Direction',#89,1.) ;
#145=VECTOR('Line Direction',#144,1.) ;
#152=VECTOR('Line Direction',#151,1.) ;
#308=VECTOR('Line Direction',#307,1.) ;
#313=VECTOR('Line Direction',#312,1.) ;
#360=VECTOR('Line Direction',#359,1.) ;
#374=VECTOR('Line Direction',#373,1.) ;
#425=ADVANCED_BREP_SHAPE_REPRESENTATION('NONE',(#424),#46) ;
#49=SHAPE_REPRESENTATION(' ',(#48),#46) ;
#75=ADVANCED_FACE('Corps principal',(#74),#56,.F.) ;
#106=ADVANCED_FACE('Corps principal',(#105),#80,.T.) ;
#118=ADVANCED_FACE('Corps principal',(#117),#80,.T.) ;
#142=ADVANCED_FACE('Corps principal',(#141),#123,.T.) ;
#168=ADVANCED_FACE('Corps principal',(#167),#80,.T.) ;
#180=ADVANCED_FACE('Corps principal',(#179),#80,.T.) ;
#223=ADVANCED_FACE('Corps principal',(#222),#188,.T.) ;
#248=ADVANCED_FACE('Corps principal',(#247),#231,.T.) ;
#291=ADVANCED_FACE('Corps principal',(#290),#259,.F.) ;
#322=ADVANCED_FACE('Corps principal',(#321),#296,.T.) ;
#345=ADVANCED_FACE('Corps principal',(#344),#333,.F.) ;
#357=ADVANCED_FACE('Corps principal',(#356),#296,.T.) ;
#383=ADVANCED_FACE('Corps principal',(#382),#296,.T.) ;
#397=ADVANCED_FACE('Corps principal',(#392,#396),#388,.T.) ;
#409=ADVANCED_FACE('Corps principal',(#408),#296,.T.) ;
#423=ADVANCED_FACE('Corps principal',(#418,#422),#414,.F.) ;
#4=APPLICATION_PROTOCOL_DEFINITION('international standard','config_control_design',1994,#1) ;
#32=APPROVAL_DATE_TIME(#13,#21) ;
#187=AXIS1_PLACEMENT('Revolution Surface Axis1P',#185,#186) ;
#230=AXIS1_PLACEMENT('Revolution Surface Axis1P',#228,#229) ;
#258=AXIS1_PLACEMENT('Revolution Surface Axis1P',#256,#257) ;
#332=AXIS1_PLACEMENT('Revolution Surface Axis1P',#330,#331) ;
#181=B_SPLINE_CURVE_WITH_KNOTS('',2,(#182,#183,#184),.UNSPECIFIED.,.F.,.U.,(3,3),(0.500045892514,28.8752707849),.UNSPECIFIED.) ;
#198=B_SPLINE_CURVE_WITH_KNOTS('',2,(#199,#200,#201),.UNSPECIFIED.,.F.,.U.,(3,3),(0.500045892514,28.8752707849),.UNSPECIFIED.) ;
#212=B_SPLINE_CURVE_WITH_KNOTS('',2,(#213,#214,#215),.UNSPECIFIED.,.F.,.U.,(3,3),(0.500045892514,28.8752707849),.UNSPECIFIED.) ;
#224=B_SPLINE_CURVE_WITH_KNOTS('',2,(#225,#226,#227),.UNSPECIFIED.,.F.,.U.,(3,3),(0.500045892514,28.8752707849),.UNSPECIFIED.) ;
#249=B_SPLINE_CURVE_WITH_KNOTS('',5,(#250,#251,#252,#253,#254,#255),.UNSPECIFIED.,.F.,.U.,(6,6),(24.0260375899,49.1702645828),.UNSPECIFIED.) ;
#260=B_SPLINE_CURVE_WITH_KNOTS('',5,(#261,#262,#263,#264,#265,#266),.UNSPECIFIED.,.F.,.U.,(6,6),(24.0260375899,49.1702645828),.UNSPECIFIED.) ;
#277=B_SPLINE_CURVE_WITH_KNOTS('',5,(#278,#279,#280,#281,#282,#283),.UNSPECIFIED.,.F.,.U.,(6,6),(24.0260375899,49.1702645828),.UNSPECIFIED.) ;
#323=B_SPLINE_CURVE_WITH_KNOTS('',5,(#324,#325,#326,#327,#328,#329),.UNSPECIFIED.,.F.,.U.,(6,6),(24.0260375899,49.1702645828),.UNSPECIFIED.) ;
#424=MANIFOLD_SOLID_BREP('Corps principal',#51) ;
#11=CALENDAR_DATE(2018,24,10) ;
#30=CC_DESIGN_APPROVAL(#21,(#16,#6,#14)) ;
#18=CC_DESIGN_DATE_AND_TIME_ASSIGNMENT(#13,#17,(#16)) ;
#29=CC_DESIGN_DATE_AND_TIME_ASSIGNMENT(#13,#28,(#14)) ;
#17=DATE_TIME_ROLE('classification_date') ;
#28=DATE_TIME_ROLE('creation_date') ;
#27=CC_DESIGN_PERSON_AND_ORGANIZATION_ASSIGNMENT(#25,#26,(#16)) ;
#33=CC_DESIGN_PERSON_AND_ORGANIZATION_ASSIGNMENT(#25,#34,(#6)) ;
#35=CC_DESIGN_PERSON_AND_ORGANIZATION_ASSIGNMENT(#25,#36,(#6,#14)) ;
#37=CC_DESIGN_PERSON_AND_ORGANIZATION_ASSIGNMENT(#25,#38,(#5)) ;
#26=PERSON_AND_ORGANIZATION_ROLE('classification_officer') ;
#34=PERSON_AND_ORGANIZATION_ROLE('design_supplier') ;
#36=PERSON_AND_ORGANIZATION_ROLE('creator') ;
#38=PERSON_AND_ORGANIZATION_ROLE('design_owner') ;
#39=CC_DESIGN_SECURITY_CLASSIFICATION(#16,(#6)) ;
#60=CIRCLE('generated circle',#59,10.) ;
#69=CIRCLE('generated circle',#68,10.) ;
#98=CIRCLE('generated circle',#97,10.) ;
#110=CIRCLE('generated circle',#109,10.) ;
#127=CIRCLE('generated circle',#126,10.) ;
#136=CIRCLE('generated circle',#135,10.) ;
#160=CIRCLE('generated circle',#159,10.) ;
#172=CIRCLE('generated circle',#171,10.) ;
#192=CIRCLE('generated circle',#191,25.) ;
#208=CIRCLE('generated circle',#207,18.0069118775) ;
#235=CIRCLE('generated circle',#234,25.) ;
#240=CIRCLE('generated circle',#239,18.0069118775) ;
#273=CIRCLE('generated circle',#272,25.) ;
#300=CIRCLE('generated circle',#299,25.) ;
#337=CIRCLE('generated circle',#336,25.) ;
#349=CIRCLE('generated circle',#348,25.) ;
#368=CIRCLE('generated circle',#367,25.) ;
#401=CIRCLE('generated circle',#400,25.) ;
#426=SHAPE_REPRESENTATION_RELATIONSHIP(' ',' ',#49,#425) ;
#80=CYLINDRICAL_SURFACE('generated cylinder',#79,10.) ;
#296=CYLINDRICAL_SURFACE('generated cylinder',#295,25.) ;
#3=DESIGN_CONTEXT(' ',#1,'design') ;
#65=EDGE_CURVE('',#62,#64,#60,.T.) ;
#70=EDGE_CURVE('',#64,#62,#69,.T.) ;
#87=EDGE_CURVE('',#64,#86,#84,.T.) ;
#94=EDGE_CURVE('',#62,#93,#91,.T.) ;
#99=EDGE_CURVE('',#86,#93,#98,.T.) ;
#111=EDGE_CURVE('',#93,#86,#110,.T.) ;
#132=EDGE_CURVE('',#129,#131,#127,.T.) ;
#137=EDGE_CURVE('',#131,#129,#136,.T.) ;
#149=EDGE_CURVE('',#148,#131,#146,.T.) ;
#156=EDGE_CURVE('',#155,#129,#153,.T.) ;
#161=EDGE_CURVE('',#155,#148,#160,.T.) ;
#173=EDGE_CURVE('',#148,#155,#172,.T.) ;
#197=EDGE_CURVE('',#194,#196,#192,.T.) ;
#204=EDGE_CURVE('',#194,#203,#198,.F.) ;
#211=EDGE_CURVE('',#203,#210,#208,.T.) ;
#216=EDGE_CURVE('',#196,#210,#212,.F.) ;
#236=EDGE_CURVE('',#196,#194,#235,.T.) ;
#241=EDGE_CURVE('',#210,#203,#240,.T.) ;
#269=EDGE_CURVE('',#203,#268,#260,.T.) ;
#276=EDGE_CURVE('',#268,#275,#273,.T.) ;
#284=EDGE_CURVE('',#210,#275,#277,.T.) ;
#305=EDGE_CURVE('',#302,#304,#300,.T.) ;
#310=EDGE_CURVE('',#302,#194,#309,.F.) ;
#315=EDGE_CURVE('',#304,#196,#314,.F.) ;
#338=EDGE_CURVE('',#275,#268,#337,.T.) ;
#350=EDGE_CURVE('',#304,#302,#349,.T.) ;
#364=EDGE_CURVE('',#268,#363,#361,.F.) ;
#371=EDGE_CURVE('',#363,#370,#368,.T.) ;
#376=EDGE_CURVE('',#275,#370,#375,.F.) ;
#402=EDGE_CURVE('',#370,#363,#401,.T.) ;
#71=EDGE_LOOP('',(#72,#73)) ;
#100=EDGE_LOOP('',(#101,#102,#103,#104)) ;
#112=EDGE_LOOP('',(#113,#114,#115,#116)) ;
#138=EDGE_LOOP('',(#139,#140)) ;
#162=EDGE_LOOP('',(#163,#164,#165,#166)) ;
#174=EDGE_LOOP('',(#175,#176,#177,#178)) ;
#217=EDGE_LOOP('',(#218,#219,#220,#221)) ;
#242=EDGE_LOOP('',(#243,#244,#245,#246)) ;
#285=EDGE_LOOP('',(#286,#287,#288,#289)) ;
#316=EDGE_LOOP('',(#317,#318,#319,#320)) ;
#339=EDGE_LOOP('',(#340,#341,#342,#343)) ;
#351=EDGE_LOOP('',(#352,#353,#354,#355)) ;
#377=EDGE_LOOP('',(#378,#379,#380,#381)) ;
#389=EDGE_LOOP('',(#390,#391)) ;
#393=EDGE_LOOP('',(#394,#395)) ;
#403=EDGE_LOOP('',(#404,#405,#406,#407)) ;
#415=EDGE_LOOP('',(#416,#417)) ;
#419=EDGE_LOOP('',(#420,#421)) ;
#74=FACE_OUTER_BOUND('',#71,.T.) ;
#105=FACE_OUTER_BOUND('',#100,.T.) ;
#117=FACE_OUTER_BOUND('',#112,.T.) ;
#141=FACE_OUTER_BOUND('',#138,.T.) ;
#167=FACE_OUTER_BOUND('',#162,.T.) ;
#179=FACE_OUTER_BOUND('',#174,.T.) ;
#222=FACE_OUTER_BOUND('',#217,.T.) ;
#247=FACE_OUTER_BOUND('',#242,.T.) ;
#290=FACE_OUTER_BOUND('',#285,.T.) ;
#321=FACE_OUTER_BOUND('',#316,.T.) ;
#344=FACE_OUTER_BOUND('',#339,.T.) ;
#356=FACE_OUTER_BOUND('',#351,.T.) ;
#382=FACE_OUTER_BOUND('',#377,.T.) ;
#392=FACE_OUTER_BOUND('',#389,.T.) ;
#408=FACE_OUTER_BOUND('',#403,.T.) ;
#418=FACE_OUTER_BOUND('',#415,.T.) ;
#45=UNCERTAINTY_MEASURE_WITH_UNIT(LENGTH_MEASURE(0.005),#41,'distance_accuracy_value','CONFUSED CURVE UNCERTAINTY') ;
#84=LINE('Line',#81,#83) ;
#91=LINE('Line',#88,#90) ;
#146=LINE('Line',#143,#145) ;
#153=LINE('Line',#150,#152) ;
#309=LINE('Line',#306,#308) ;
#314=LINE('Line',#311,#313) ;
#361=LINE('Line',#358,#360) ;
#375=LINE('Line',#372,#374) ;
#2=MECHANICAL_CONTEXT(' ',#1,'mechanical') ;
#24=PERSONAL_ADDRESS(' ',' ',' ',' ',' ',' ',' ',' ',' ',' ',' ',' ',(#22),' ') ;
#56=PLANE('Plane',#55) ;
#123=PLANE('Plane',#122) ;
#388=PLANE('Plane',#387) ;
#414=PLANE('Plane',#413) ;
#43=PLANE_ANGLE_MEASURE_WITH_UNIT(PLANE_ANGLE_MEASURE(0.0174532925199),#42) ;
#7=PRODUCT_CATEGORY('part',$) ;
#9=PRODUCT_CATEGORY_RELATIONSHIP(' ',' ',#7,#8) ;
#6=PRODUCT_DEFINITION_FORMATION_WITH_SPECIFIED_SOURCE('',' ',#5,.NOT_KNOWN.) ;
#8=PRODUCT_RELATED_PRODUCT_CATEGORY('detail',$,(#5)) ;
#50=SHAPE_DEFINITION_REPRESENTATION(#40,#49) ;
#188=SURFACE_OF_REVOLUTION('Surface of Revolution',#181,#187) ;
#231=SURFACE_OF_REVOLUTION('Surface of Revolution',#224,#230) ;
#259=SURFACE_OF_REVOLUTION('Surface of Revolution',#249,#258) ;
#333=SURFACE_OF_REVOLUTION('Surface of Revolution',#323,#332) ;
#62=VERTEX_POINT('',#61) ;
#64=VERTEX_POINT('',#63) ;
#86=VERTEX_POINT('',#85) ;
#93=VERTEX_POINT('',#92) ;
#129=VERTEX_POINT('',#128) ;
#131=VERTEX_POINT('',#130) ;
#148=VERTEX_POINT('',#147) ;
#155=VERTEX_POINT('',#154) ;
#194=VERTEX_POINT('',#193) ;
#196=VERTEX_POINT('',#195) ;
#203=VERTEX_POINT('',#202) ;
#210=VERTEX_POINT('',#209) ;
#268=VERTEX_POINT('',#267) ;
#275=VERTEX_POINT('',#274) ;
#302=VERTEX_POINT('',#301) ;
#304=VERTEX_POINT('',#303) ;
#363=VERTEX_POINT('',#362) ;
#370=VERTEX_POINT('',#369) ;
#41=(LENGTH_UNIT()NAMED_UNIT(*)SI_UNIT(.MILLI.,.METRE.)) ;
#42=(NAMED_UNIT(*)PLANE_ANGLE_UNIT()SI_UNIT($,.RADIAN.)) ;
#44=(NAMED_UNIT(*)SI_UNIT($,.STERADIAN.)SOLID_ANGLE_UNIT()) ;
#46=(GEOMETRIC_REPRESENTATION_CONTEXT(3)GLOBAL_UNCERTAINTY_ASSIGNED_CONTEXT((#45))GLOBAL_UNIT_ASSIGNED_CONTEXT((#41,#42,#44))REPRESENTATION_CONTEXT(' ',' ')) ;
ENDSEC;
END-ISO-10303-21;
