ISO-10303-21;
HEADER;
/* Generated by software containing ST-Developer
 * from STEP Tools, Inc. (www.steptools.com) 
 */

FILE_DESCRIPTION(
/* description */ (''),
/* implementation_level */ '2;1');

FILE_NAME(
/* name */ 'E:/OLIVIER/Perso QO/divers/speed/3D designs/clamp.step',
/* time_stamp */ '2018-10-23T16:52:17+02:00',
/* author */ ('olivier.quennesson'),
/* organization */ (''),
/* preprocessor_version */ 'ST-DEVELOPER v17.2',
/* originating_system */ 'Autodesk Translation Framework v7.6.0.251',
/* authorisation */ '');

FILE_SCHEMA (('AUTOMOTIVE_DESIGN { 1 0 10303 214 3 1 1 }'));
ENDSEC;

DATA;
#10=MECHANICAL_DESIGN_GEOMETRIC_PRESENTATION_REPRESENTATION('',(#13),#384);
#11=SHAPE_REPRESENTATION_RELATIONSHIP('SRR','None',#391,#12);
#12=ADVANCED_BREP_SHAPE_REPRESENTATION('',(#14),#383);
#13=STYLED_ITEM('',(#400),#14);
#14=MANIFOLD_SOLID_BREP('Body19',#230);
#15=CYLINDRICAL_SURFACE('',#249,28.4);
#16=FACE_OUTER_BOUND('',#28,.T.);
#17=FACE_OUTER_BOUND('',#29,.T.);
#18=FACE_OUTER_BOUND('',#30,.T.);
#19=FACE_OUTER_BOUND('',#31,.T.);
#20=FACE_OUTER_BOUND('',#32,.T.);
#21=FACE_OUTER_BOUND('',#33,.T.);
#22=FACE_OUTER_BOUND('',#34,.T.);
#23=FACE_OUTER_BOUND('',#35,.T.);
#24=FACE_OUTER_BOUND('',#36,.T.);
#25=FACE_OUTER_BOUND('',#37,.T.);
#26=FACE_OUTER_BOUND('',#38,.T.);
#27=FACE_OUTER_BOUND('',#39,.T.);
#28=EDGE_LOOP('',(#147,#148,#149,#150,#151));
#29=EDGE_LOOP('',(#152,#153,#154,#155));
#30=EDGE_LOOP('',(#156,#157,#158,#159,#160,#161));
#31=EDGE_LOOP('',(#162,#163,#164,#165,#166,#167));
#32=EDGE_LOOP('',(#168,#169,#170,#171));
#33=EDGE_LOOP('',(#172,#173,#174,#175));
#34=EDGE_LOOP('',(#176,#177,#178,#179));
#35=EDGE_LOOP('',(#180,#181,#182,#183));
#36=EDGE_LOOP('',(#184,#185,#186,#187));
#37=EDGE_LOOP('',(#188,#189,#190,#191,#192,#193,#194,#195));
#38=EDGE_LOOP('',(#196,#197,#198,#199,#200,#201));
#39=EDGE_LOOP('',(#202,#203,#204,#205,#206));
#40=CIRCLE('',#245,28.4);
#41=CIRCLE('',#248,28.4);
#42=CIRCLE('',#250,28.4);
#43=LINE('',#322,#70);
#44=LINE('',#324,#71);
#45=LINE('',#328,#72);
#46=LINE('',#329,#73);
#47=LINE('',#332,#74);
#48=LINE('',#334,#75);
#49=LINE('',#335,#76);
#50=LINE('',#338,#77);
#51=LINE('',#340,#78);
#52=LINE('',#342,#79);
#53=LINE('',#344,#80);
#54=LINE('',#348,#81);
#55=LINE('',#351,#82);
#56=LINE('',#354,#83);
#57=LINE('',#356,#84);
#58=LINE('',#357,#85);
#59=LINE('',#360,#86);
#60=LINE('',#362,#87);
#61=LINE('',#363,#88);
#62=LINE('',#366,#89);
#63=LINE('',#367,#90);
#64=LINE('',#369,#91);
#65=LINE('',#372,#92);
#66=LINE('',#373,#93);
#67=LINE('',#376,#94);
#68=LINE('',#377,#95);
#69=LINE('',#379,#96);
#70=VECTOR('',#263,10.);
#71=VECTOR('',#264,10.);
#72=VECTOR('',#267,10.);
#73=VECTOR('',#268,10.);
#74=VECTOR('',#271,10.);
#75=VECTOR('',#272,10.);
#76=VECTOR('',#273,10.);
#77=VECTOR('',#276,10.);
#78=VECTOR('',#277,10.);
#79=VECTOR('',#278,10.);
#80=VECTOR('',#279,10.);
#81=VECTOR('',#284,10.);
#82=VECTOR('',#287,10.);
#83=VECTOR('',#290,10.);
#84=VECTOR('',#291,10.);
#85=VECTOR('',#292,10.);
#86=VECTOR('',#295,10.);
#87=VECTOR('',#296,10.);
#88=VECTOR('',#297,10.);
#89=VECTOR('',#300,10.);
#90=VECTOR('',#301,10.);
#91=VECTOR('',#304,10.);
#92=VECTOR('',#307,10.);
#93=VECTOR('',#308,10.);
#94=VECTOR('',#311,10.);
#95=VECTOR('',#312,10.);
#96=VECTOR('',#315,10.);
#97=VERTEX_POINT('',#320);
#98=VERTEX_POINT('',#321);
#99=VERTEX_POINT('',#323);
#100=VERTEX_POINT('',#325);
#101=VERTEX_POINT('',#327);
#102=VERTEX_POINT('',#331);
#103=VERTEX_POINT('',#333);
#104=VERTEX_POINT('',#337);
#105=VERTEX_POINT('',#339);
#106=VERTEX_POINT('',#341);
#107=VERTEX_POINT('',#343);
#108=VERTEX_POINT('',#347);
#109=VERTEX_POINT('',#349);
#110=VERTEX_POINT('',#353);
#111=VERTEX_POINT('',#355);
#112=VERTEX_POINT('',#359);
#113=VERTEX_POINT('',#361);
#114=VERTEX_POINT('',#365);
#115=VERTEX_POINT('',#371);
#116=VERTEX_POINT('',#375);
#117=EDGE_CURVE('',#97,#98,#43,.T.);
#118=EDGE_CURVE('',#99,#98,#44,.T.);
#119=EDGE_CURVE('',#99,#100,#40,.T.);
#120=EDGE_CURVE('',#100,#101,#45,.T.);
#121=EDGE_CURVE('',#101,#97,#46,.T.);
#122=EDGE_CURVE('',#102,#98,#47,.T.);
#123=EDGE_CURVE('',#102,#103,#48,.T.);
#124=EDGE_CURVE('',#99,#103,#49,.T.);
#125=EDGE_CURVE('',#102,#104,#50,.T.);
#126=EDGE_CURVE('',#104,#105,#51,.T.);
#127=EDGE_CURVE('',#105,#106,#52,.T.);
#128=EDGE_CURVE('',#106,#107,#53,.T.);
#129=EDGE_CURVE('',#103,#107,#41,.T.);
#130=EDGE_CURVE('',#108,#107,#54,.T.);
#131=EDGE_CURVE('',#109,#108,#42,.T.);
#132=EDGE_CURVE('',#109,#100,#55,.T.);
#133=EDGE_CURVE('',#104,#110,#56,.T.);
#134=EDGE_CURVE('',#111,#110,#57,.T.);
#135=EDGE_CURVE('',#111,#105,#58,.T.);
#136=EDGE_CURVE('',#101,#112,#59,.T.);
#137=EDGE_CURVE('',#113,#112,#60,.T.);
#138=EDGE_CURVE('',#113,#97,#61,.T.);
#139=EDGE_CURVE('',#114,#111,#62,.T.);
#140=EDGE_CURVE('',#106,#114,#63,.T.);
#141=EDGE_CURVE('',#112,#109,#64,.T.);
#142=EDGE_CURVE('',#110,#115,#65,.T.);
#143=EDGE_CURVE('',#115,#114,#66,.T.);
#144=EDGE_CURVE('',#116,#113,#67,.T.);
#145=EDGE_CURVE('',#116,#115,#68,.T.);
#146=EDGE_CURVE('',#108,#116,#69,.T.);
#147=ORIENTED_EDGE('',*,*,#117,.T.);
#148=ORIENTED_EDGE('',*,*,#118,.F.);
#149=ORIENTED_EDGE('',*,*,#119,.T.);
#150=ORIENTED_EDGE('',*,*,#120,.T.);
#151=ORIENTED_EDGE('',*,*,#121,.T.);
#152=ORIENTED_EDGE('',*,*,#118,.T.);
#153=ORIENTED_EDGE('',*,*,#122,.F.);
#154=ORIENTED_EDGE('',*,*,#123,.T.);
#155=ORIENTED_EDGE('',*,*,#124,.F.);
#156=ORIENTED_EDGE('',*,*,#125,.T.);
#157=ORIENTED_EDGE('',*,*,#126,.T.);
#158=ORIENTED_EDGE('',*,*,#127,.T.);
#159=ORIENTED_EDGE('',*,*,#128,.T.);
#160=ORIENTED_EDGE('',*,*,#129,.F.);
#161=ORIENTED_EDGE('',*,*,#123,.F.);
#162=ORIENTED_EDGE('',*,*,#129,.T.);
#163=ORIENTED_EDGE('',*,*,#130,.F.);
#164=ORIENTED_EDGE('',*,*,#131,.F.);
#165=ORIENTED_EDGE('',*,*,#132,.T.);
#166=ORIENTED_EDGE('',*,*,#119,.F.);
#167=ORIENTED_EDGE('',*,*,#124,.T.);
#168=ORIENTED_EDGE('',*,*,#133,.T.);
#169=ORIENTED_EDGE('',*,*,#134,.F.);
#170=ORIENTED_EDGE('',*,*,#135,.T.);
#171=ORIENTED_EDGE('',*,*,#126,.F.);
#172=ORIENTED_EDGE('',*,*,#136,.T.);
#173=ORIENTED_EDGE('',*,*,#137,.F.);
#174=ORIENTED_EDGE('',*,*,#138,.T.);
#175=ORIENTED_EDGE('',*,*,#121,.F.);
#176=ORIENTED_EDGE('',*,*,#135,.F.);
#177=ORIENTED_EDGE('',*,*,#139,.F.);
#178=ORIENTED_EDGE('',*,*,#140,.F.);
#179=ORIENTED_EDGE('',*,*,#127,.F.);
#180=ORIENTED_EDGE('',*,*,#132,.F.);
#181=ORIENTED_EDGE('',*,*,#141,.F.);
#182=ORIENTED_EDGE('',*,*,#136,.F.);
#183=ORIENTED_EDGE('',*,*,#120,.F.);
#184=ORIENTED_EDGE('',*,*,#134,.T.);
#185=ORIENTED_EDGE('',*,*,#142,.T.);
#186=ORIENTED_EDGE('',*,*,#143,.T.);
#187=ORIENTED_EDGE('',*,*,#139,.T.);
#188=ORIENTED_EDGE('',*,*,#138,.F.);
#189=ORIENTED_EDGE('',*,*,#144,.F.);
#190=ORIENTED_EDGE('',*,*,#145,.T.);
#191=ORIENTED_EDGE('',*,*,#142,.F.);
#192=ORIENTED_EDGE('',*,*,#133,.F.);
#193=ORIENTED_EDGE('',*,*,#125,.F.);
#194=ORIENTED_EDGE('',*,*,#122,.T.);
#195=ORIENTED_EDGE('',*,*,#117,.F.);
#196=ORIENTED_EDGE('',*,*,#145,.F.);
#197=ORIENTED_EDGE('',*,*,#146,.F.);
#198=ORIENTED_EDGE('',*,*,#130,.T.);
#199=ORIENTED_EDGE('',*,*,#128,.F.);
#200=ORIENTED_EDGE('',*,*,#140,.T.);
#201=ORIENTED_EDGE('',*,*,#143,.F.);
#202=ORIENTED_EDGE('',*,*,#137,.T.);
#203=ORIENTED_EDGE('',*,*,#141,.T.);
#204=ORIENTED_EDGE('',*,*,#131,.T.);
#205=ORIENTED_EDGE('',*,*,#146,.T.);
#206=ORIENTED_EDGE('',*,*,#144,.T.);
#207=PLANE('',#244);
#208=PLANE('',#246);
#209=PLANE('',#247);
#210=PLANE('',#251);
#211=PLANE('',#252);
#212=PLANE('',#253);
#213=PLANE('',#254);
#214=PLANE('',#255);
#215=PLANE('',#256);
#216=PLANE('',#257);
#217=PLANE('',#258);
#218=ADVANCED_FACE('',(#16),#207,.F.);
#219=ADVANCED_FACE('',(#17),#208,.T.);
#220=ADVANCED_FACE('',(#18),#209,.F.);
#221=ADVANCED_FACE('',(#19),#15,.F.);
#222=ADVANCED_FACE('',(#20),#210,.T.);
#223=ADVANCED_FACE('',(#21),#211,.T.);
#224=ADVANCED_FACE('',(#22),#212,.T.);
#225=ADVANCED_FACE('',(#23),#213,.T.);
#226=ADVANCED_FACE('',(#24),#214,.T.);
#227=ADVANCED_FACE('',(#25),#215,.T.);
#228=ADVANCED_FACE('',(#26),#216,.T.);
#229=ADVANCED_FACE('',(#27),#217,.F.);
#230=CLOSED_SHELL('',(#218,#219,#220,#221,#222,#223,#224,#225,#226,#227,
#228,#229));
#231=DERIVED_UNIT_ELEMENT(#233,1.);
#232=DERIVED_UNIT_ELEMENT(#386,3.);
#233=(
MASS_UNIT()
NAMED_UNIT(*)
SI_UNIT(.KILO.,.GRAM.)
);
#234=DERIVED_UNIT((#231,#232));
#235=MEASURE_REPRESENTATION_ITEM('density measure',
POSITIVE_RATIO_MEASURE(7850.),#234);
#236=PROPERTY_DEFINITION_REPRESENTATION(#241,#238);
#237=PROPERTY_DEFINITION_REPRESENTATION(#242,#239);
#238=REPRESENTATION('material name',(#240),#383);
#239=REPRESENTATION('density',(#235),#383);
#240=DESCRIPTIVE_REPRESENTATION_ITEM('Steel','Steel');
#241=PROPERTY_DEFINITION('material property','material name',#393);
#242=PROPERTY_DEFINITION('material property','density of part',#393);
#243=AXIS2_PLACEMENT_3D('placement',#318,#259,#260);
#244=AXIS2_PLACEMENT_3D('',#319,#261,#262);
#245=AXIS2_PLACEMENT_3D('',#326,#265,#266);
#246=AXIS2_PLACEMENT_3D('',#330,#269,#270);
#247=AXIS2_PLACEMENT_3D('',#336,#274,#275);
#248=AXIS2_PLACEMENT_3D('',#345,#280,#281);
#249=AXIS2_PLACEMENT_3D('',#346,#282,#283);
#250=AXIS2_PLACEMENT_3D('',#350,#285,#286);
#251=AXIS2_PLACEMENT_3D('',#352,#288,#289);
#252=AXIS2_PLACEMENT_3D('',#358,#293,#294);
#253=AXIS2_PLACEMENT_3D('',#364,#298,#299);
#254=AXIS2_PLACEMENT_3D('',#368,#302,#303);
#255=AXIS2_PLACEMENT_3D('',#370,#305,#306);
#256=AXIS2_PLACEMENT_3D('',#374,#309,#310);
#257=AXIS2_PLACEMENT_3D('',#378,#313,#314);
#258=AXIS2_PLACEMENT_3D('',#380,#316,#317);
#259=DIRECTION('axis',(0.,0.,1.));
#260=DIRECTION('refdir',(1.,0.,0.));
#261=DIRECTION('center_axis',(0.,-1.,0.));
#262=DIRECTION('ref_axis',(-0.996620516086363,0.,-0.0821434532738355));
#263=DIRECTION('',(0.275637355817,0.,0.961261695938319));
#264=DIRECTION('',(-0.996620516086363,0.,-0.0821434532738355));
#265=DIRECTION('center_axis',(0.,-1.,0.));
#266=DIRECTION('ref_axis',(1.,0.,0.));
#267=DIRECTION('',(-0.275637355817,0.,-0.961261695938319));
#268=DIRECTION('',(-0.961261695938319,0.,0.275637355817));
#269=DIRECTION('center_axis',(0.0821434532738355,0.,-0.996620516086363));
#270=DIRECTION('ref_axis',(-0.996620516086363,0.,-0.0821434532738355));
#271=DIRECTION('',(0.,-1.,0.));
#272=DIRECTION('',(0.996620516086363,0.,0.0821434532738355));
#273=DIRECTION('',(0.,1.,0.));
#274=DIRECTION('center_axis',(0.,1.,0.));
#275=DIRECTION('ref_axis',(0.996620516086363,0.,0.0821434532738355));
#276=DIRECTION('',(-0.275637355817,0.,-0.961261695938319));
#277=DIRECTION('',(0.961261695938319,0.,-0.275637355817));
#278=DIRECTION('',(0.275637355817,0.,0.961261695938319));
#279=DIRECTION('',(-0.961261695938319,0.,0.275637355817));
#280=DIRECTION('center_axis',(0.,1.,0.));
#281=DIRECTION('ref_axis',(1.,0.,0.));
#282=DIRECTION('center_axis',(0.,-1.,0.));
#283=DIRECTION('ref_axis',(-0.972526789123112,0.,0.232790988738588));
#284=DIRECTION('',(0.,1.,0.));
#285=DIRECTION('center_axis',(0.,1.,0.));
#286=DIRECTION('ref_axis',(1.,0.,0.));
#287=DIRECTION('',(0.,1.,0.));
#288=DIRECTION('center_axis',(-0.275637355817,0.,-0.961261695938319));
#289=DIRECTION('ref_axis',(0.961261695938319,0.,-0.275637355817));
#290=DIRECTION('',(0.,1.,0.));
#291=DIRECTION('',(-0.961261695938319,0.,0.275637355817));
#292=DIRECTION('',(0.,-1.,0.));
#293=DIRECTION('center_axis',(-0.275637355817,0.,-0.961261695938319));
#294=DIRECTION('ref_axis',(0.961261695938319,0.,-0.275637355817));
#295=DIRECTION('',(0.,-1.,0.));
#296=DIRECTION('',(0.961261695938319,0.,-0.275637355817));
#297=DIRECTION('',(0.,1.,0.));
#298=DIRECTION('center_axis',(0.961261695938319,0.,-0.275637355817));
#299=DIRECTION('ref_axis',(0.275637355817,0.,0.961261695938319));
#300=DIRECTION('',(-0.275637355817,0.,-0.961261695938319));
#301=DIRECTION('',(0.,1.,0.));
#302=DIRECTION('center_axis',(0.961261695938319,0.,-0.275637355817));
#303=DIRECTION('ref_axis',(0.275637355817,0.,0.961261695938319));
#304=DIRECTION('',(0.275637355817,0.,0.961261695938319));
#305=DIRECTION('center_axis',(0.,1.,0.));
#306=DIRECTION('ref_axis',(1.,0.,0.));
#307=DIRECTION('',(0.275637355817,0.,0.961261695938319));
#308=DIRECTION('',(0.961261695938319,0.,-0.275637355817));
#309=DIRECTION('center_axis',(-0.961261695938319,0.,0.275637355817));
#310=DIRECTION('ref_axis',(-0.275637355817,0.,-0.961261695938319));
#311=DIRECTION('',(-0.275637355817,0.,-0.961261695938319));
#312=DIRECTION('',(0.,1.,0.));
#313=DIRECTION('center_axis',(0.275637355817,0.,0.961261695938319));
#314=DIRECTION('ref_axis',(-0.961261695938319,0.,0.275637355817));
#315=DIRECTION('',(-0.961261695938319,0.,0.275637355817));
#316=DIRECTION('center_axis',(0.,1.,0.));
#317=DIRECTION('ref_axis',(1.,0.,0.));
#318=CARTESIAN_POINT('',(0.,0.,0.));
#319=CARTESIAN_POINT('Origin',(-13.2967679578736,0.2,11.083054414244));
#320=CARTESIAN_POINT('',(-52.6328254117015,0.2,-7.15548402697694));
#321=CARTESIAN_POINT('',(-48.2285918450045,0.2,8.20390372757111));
#322=CARTESIAN_POINT('',(-43.8986362620864,0.2,23.3042533686291));
#323=CARTESIAN_POINT('',(-26.5858033210238,0.2,9.98774558025183));
#324=CARTESIAN_POINT('',(-25.1711447708636,0.2,10.1043445631524));
#325=CARTESIAN_POINT('',(-27.0523538928366,0.2,-8.644660135409));
#326=CARTESIAN_POINT('Origin',(0.,0.2,0.));
#327=CARTESIAN_POINT('',(-28.6012830132435,0.2,-14.0464179224019));
#328=CARTESIAN_POINT('',(-24.690747590426,0.2,-0.408760205716481));
#329=CARTESIAN_POINT('',(-36.8753321076051,0.2,-11.6738725230519));
#330=CARTESIAN_POINT('Origin',(-37.0455215838535,12.6,9.12563471206077));
#331=CARTESIAN_POINT('',(-48.2285918450045,25.1,8.20390372757111));
#332=CARTESIAN_POINT('',(-48.2285918450045,6.3,8.20390372757111));
#333=CARTESIAN_POINT('',(-26.5858033210238,25.1,9.98774558025183));
#334=CARTESIAN_POINT('',(-48.9198983968435,25.1,8.14692486096913));
#335=CARTESIAN_POINT('',(-26.5858033210238,0.,9.98774558025183));
#336=CARTESIAN_POINT('Origin',(-60.7942752098335,25.1,7.16821500987749));
#337=CARTESIAN_POINT('',(-52.6328254117015,25.1,-7.15548402697694));
#338=CARTESIAN_POINT('',(-46.2216076299645,25.1,15.2030894676622));
#339=CARTESIAN_POINT('',(-28.6012830132435,25.1,-14.0464179224019));
#340=CARTESIAN_POINT('',(-58.301114365707,25.1,-5.53012832426825));
#341=CARTESIAN_POINT('',(-18.9539755596485,25.1,19.5977414354392));
#342=CARTESIAN_POINT('',(-27.0137189583041,25.1,-8.50992410668342));
#343=CARTESIAN_POINT('',(-20.2061069687423,25.1,19.9567843393605));
#344=CARTESIAN_POINT('',(-18.9539755596485,25.1,19.5977414354392));
#345=CARTESIAN_POINT('Origin',(0.,25.1,0.));
#346=CARTESIAN_POINT('Origin',(0.,0.,0.));
#347=CARTESIAN_POINT('',(-20.2061069687423,-15.,19.9567843393605));
#348=CARTESIAN_POINT('',(-20.2061069687423,0.,19.9567843393605));
#349=CARTESIAN_POINT('',(-27.0523538928366,-15.,-8.644660135409));
#350=CARTESIAN_POINT('Origin',(0.,-15.,0.));
#351=CARTESIAN_POINT('',(-27.0523538928366,0.,-8.644660135409));
#352=CARTESIAN_POINT('Origin',(-52.6328254117015,0.,-7.15548402697694));
#353=CARTESIAN_POINT('',(-52.6328254117015,30.,-7.15548402697694));
#354=CARTESIAN_POINT('',(-52.6328254117015,0.,-7.15548402697694));
#355=CARTESIAN_POINT('',(-28.6012830132435,30.,-14.0464179224019));
#356=CARTESIAN_POINT('',(-52.6328254117015,30.,-7.15548402697694));
#357=CARTESIAN_POINT('',(-28.6012830132435,0.,-14.0464179224019));
#358=CARTESIAN_POINT('Origin',(-52.6328254117015,0.,-7.15548402697694));
#359=CARTESIAN_POINT('',(-28.6012830132435,-15.,-14.0464179224019));
#360=CARTESIAN_POINT('',(-28.6012830132435,0.,-14.0464179224019));
#361=CARTESIAN_POINT('',(-52.6328254117015,-15.,-7.15548402697694));
#362=CARTESIAN_POINT('',(-52.6328254117015,-15.,-7.15548402697694));
#363=CARTESIAN_POINT('',(-52.6328254117015,0.,-7.15548402697694));
#364=CARTESIAN_POINT('Origin',(-28.6012830132435,0.,-14.0464179224019));
#365=CARTESIAN_POINT('',(-18.9539755596485,30.,19.5977414354392));
#366=CARTESIAN_POINT('',(-28.6012830132435,30.,-14.0464179224019));
#367=CARTESIAN_POINT('',(-18.9539755596485,25.2,19.5977414354392));
#368=CARTESIAN_POINT('Origin',(-28.6012830132435,0.,-14.0464179224019));
#369=CARTESIAN_POINT('',(-28.6012830132435,-15.,-14.0464179224019));
#370=CARTESIAN_POINT('Origin',(-36.4194661902219,30.,6.22112870423114));
#371=CARTESIAN_POINT('',(-42.9855179581065,30.,26.4886753308642));
#372=CARTESIAN_POINT('',(-42.9855179581065,30.,26.4886753308642));
#373=CARTESIAN_POINT('',(-18.9539755596485,30.,19.5977414354392));
#374=CARTESIAN_POINT('Origin',(-42.9855179581065,0.,26.4886753308642));
#375=CARTESIAN_POINT('',(-42.9855179581065,-15.,26.4886753308642));
#376=CARTESIAN_POINT('',(-42.9855179581065,-15.,26.4886753308642));
#377=CARTESIAN_POINT('',(-42.9855179581065,0.,26.4886753308642));
#378=CARTESIAN_POINT('Origin',(-20.2061069687423,0.,19.9567843393605));
#379=CARTESIAN_POINT('',(-18.9539755596485,-15.,19.5977414354392));
#380=CARTESIAN_POINT('Origin',(-36.4194661902219,-15.,6.22112870423114));
#381=UNCERTAINTY_MEASURE_WITH_UNIT(LENGTH_MEASURE(0.01),#385,
'DISTANCE_ACCURACY_VALUE',
'Maximum model space distance between geometric entities at asserted c
onnectivities');
#382=UNCERTAINTY_MEASURE_WITH_UNIT(LENGTH_MEASURE(0.01),#385,
'DISTANCE_ACCURACY_VALUE',
'Maximum model space distance between geometric entities at asserted c
onnectivities');
#383=(
GEOMETRIC_REPRESENTATION_CONTEXT(3)
GLOBAL_UNCERTAINTY_ASSIGNED_CONTEXT((#381))
GLOBAL_UNIT_ASSIGNED_CONTEXT((#385,#387,#388))
REPRESENTATION_CONTEXT('','3D')
);
#384=(
GEOMETRIC_REPRESENTATION_CONTEXT(3)
GLOBAL_UNCERTAINTY_ASSIGNED_CONTEXT((#382))
GLOBAL_UNIT_ASSIGNED_CONTEXT((#385,#387,#388))
REPRESENTATION_CONTEXT('','3D')
);
#385=(
LENGTH_UNIT()
NAMED_UNIT(*)
SI_UNIT(.MILLI.,.METRE.)
);
#386=(
LENGTH_UNIT()
NAMED_UNIT(*)
SI_UNIT($,.METRE.)
);
#387=(
NAMED_UNIT(*)
PLANE_ANGLE_UNIT()
SI_UNIT($,.RADIAN.)
);
#388=(
NAMED_UNIT(*)
SI_UNIT($,.STERADIAN.)
SOLID_ANGLE_UNIT()
);
#389=SHAPE_DEFINITION_REPRESENTATION(#390,#391);
#390=PRODUCT_DEFINITION_SHAPE('',$,#393);
#391=SHAPE_REPRESENTATION('',(#243),#383);
#392=PRODUCT_DEFINITION_CONTEXT('part definition',#397,'design');
#393=PRODUCT_DEFINITION('column clamp','column clamp v26',#394,#392);
#394=PRODUCT_DEFINITION_FORMATION('',$,#399);
#395=PRODUCT_RELATED_PRODUCT_CATEGORY('column clamp v26',
'column clamp v26',(#399));
#396=APPLICATION_PROTOCOL_DEFINITION('international standard',
'automotive_design',2009,#397);
#397=APPLICATION_CONTEXT(
'Core Data for Automotive Mechanical Design Process');
#398=PRODUCT_CONTEXT('part definition',#397,'mechanical');
#399=PRODUCT('column clamp','column clamp v26',$,(#398));
#400=PRESENTATION_STYLE_ASSIGNMENT((#401));
#401=SURFACE_STYLE_USAGE(.BOTH.,#402);
#402=SURFACE_SIDE_STYLE('',(#403));
#403=SURFACE_STYLE_FILL_AREA(#404);
#404=FILL_AREA_STYLE('Steel - Satin',(#405));
#405=FILL_AREA_STYLE_COLOUR('Steel - Satin',#406);
#406=COLOUR_RGB('Steel - Satin',0.627450980392157,0.627450980392157,0.627450980392157);
ENDSEC;
END-ISO-10303-21;
