ISO-10303-21;
HEADER;
FILE_DESCRIPTION(('CATIA V5 STEP Exchange'),'2;1');

FILE_NAME('H:\\CRABE\\CRABE_PLATINE_ARR_SOUD.stp','2018-10-04T10:40:13+00:00',('none'),('SNECMA'),'CATIA Version 5 Release 19 SP 9 (IN-10)','CATIA V5 STEP AP214','none');

FILE_SCHEMA(('AUTOMOTIVE_DESIGN { 1 0 10303 214 1 1 1 1 }'));

ENDSEC;
/* file written by CATIA V5R19 */
DATA;
#5=PRODUCT('CRABE_PLATINE_ARR_SOUD','','',(#2)) ;
#2=PRODUCT_CONTEXT(' ',#1,'mechanical') ;
#1=APPLICATION_CONTEXT('automotive design') ;
#10=PRODUCT_DEFINITION('',' ',#6,#3) ;
#3=PRODUCT_DEFINITION_CONTEXT('part definition',#1,' ') ;
#11=PRODUCT_DEFINITION_SHAPE(' ',' ',#10) ;
#342=MECHANICAL_DESIGN_GEOMETRIC_PRESENTATION_REPRESENTATION(' ',(#30),#17) ;
#20=SHAPE_REPRESENTATION(' ',(#19),#17) ;
#19=AXIS2_PLACEMENT_3D(' ',#18,$,$) ;
#35=AXIS2_PLACEMENT_3D('Plane Axis2P3D',#32,#33,#34) ;
#75=AXIS2_PLACEMENT_3D('Plane Axis2P3D',#72,#73,#74) ;
#166=AXIS2_PLACEMENT_3D('Plane Axis2P3D',#163,#164,#165) ;
#197=AXIS2_PLACEMENT_3D('Plane Axis2P3D',#194,#195,#196) ;
#228=AXIS2_PLACEMENT_3D('Plane Axis2P3D',#225,#226,#227) ;
#250=AXIS2_PLACEMENT_3D('Cylinder Axis2P3D',#247,#248,#249) ;
#254=AXIS2_PLACEMENT_3D('Circle Axis2P3D',#252,#253,$) ;
#270=AXIS2_PLACEMENT_3D('Circle Axis2P3D',#268,#269,$) ;
#289=AXIS2_PLACEMENT_3D('Circle Axis2P3D',#287,#288,$) ;
#294=AXIS2_PLACEMENT_3D('Circle Axis2P3D',#292,#293,$) ;
#307=AXIS2_PLACEMENT_3D('Plane Axis2P3D',#304,#305,#306) ;
#325=AXIS2_PLACEMENT_3D('Plane Axis2P3D',#322,#323,#324) ;
#18=CARTESIAN_POINT(' ',(0.,0.,0.)) ;
#32=CARTESIAN_POINT('Axis2P3D Location',(0.,0.,0.)) ;
#37=CARTESIAN_POINT('Line Origine',(0.,-34.5,-8.)) ;
#41=CARTESIAN_POINT('Vertex',(3.5527136788E-015,-69.,-8.)) ;
#43=CARTESIAN_POINT('Vertex',(-3.5527136788E-015,0.,-8.)) ;
#46=CARTESIAN_POINT('Line Origine',(0.,0.,-4.)) ;
#50=CARTESIAN_POINT('Vertex',(-3.5527136788E-015,0.,0.)) ;
#53=CARTESIAN_POINT('Line Origine',(0.,-34.5,0.)) ;
#57=CARTESIAN_POINT('Vertex',(3.5527136788E-015,-69.,0.)) ;
#60=CARTESIAN_POINT('Line Origine',(0.,-69.,-4.)) ;
#72=CARTESIAN_POINT('Axis2P3D Location',(3.5527136788E-015,-69.,0.)) ;
#77=CARTESIAN_POINT('Line Origine',(-31.5,-110.05864708,-8.)) ;
#81=CARTESIAN_POINT('Vertex',(-63.,-151.117294159,-8.)) ;
#84=CARTESIAN_POINT('Line Origine',(-31.5,-110.05864708,0.)) ;
#88=CARTESIAN_POINT('Vertex',(-63.,-151.117294159,0.)) ;
#91=CARTESIAN_POINT('Line Origine',(-63.,-151.117294159,-4.)) ;
#104=CARTESIAN_POINT('Control Point',(-107.623491313,-163.,0.)) ;
#105=CARTESIAN_POINT('Control Point',(-107.154933115,-162.417686276,0.)) ;
#106=CARTESIAN_POINT('Control Point',(-106.669363328,-161.860206769,0.)) ;
#107=CARTESIAN_POINT('Control Point',(-106.166781952,-161.327561482,0.)) ;
#108=CARTESIAN_POINT('Control Point',(-102.180028456,-157.431208581,0.)) ;
#109=CARTESIAN_POINT('Control Point',(-97.2050007544,-154.981822702,0.)) ;
#110=CARTESIAN_POINT('Control Point',(-92.1977303213,-153.869913823,0.)) ;
#111=CARTESIAN_POINT('Control Point',(-83.0047575332,-152.665914746,0.)) ;
#112=CARTESIAN_POINT('Control Point',(-73.98892801,-152.026168017,0.)) ;
#113=CARTESIAN_POINT('Control Point',(-70.1872666611,-151.734889154,0.)) ;
#114=CARTESIAN_POINT('Control Point',(-66.5242906578,-151.431931201,0.)) ;
#115=CARTESIAN_POINT('Control Point',(-63.,-151.117294159,0.)) ;
#120=CARTESIAN_POINT('Control Point',(-107.623491313,-163.,-8.)) ;
#121=CARTESIAN_POINT('Control Point',(-107.154933115,-162.417686276,-8.)) ;
#122=CARTESIAN_POINT('Control Point',(-106.669363328,-161.860206769,-8.)) ;
#123=CARTESIAN_POINT('Control Point',(-106.166781952,-161.327561482,-8.)) ;
#124=CARTESIAN_POINT('Control Point',(-102.180028456,-157.431208581,-8.)) ;
#125=CARTESIAN_POINT('Control Point',(-97.2050007544,-154.981822702,-8.)) ;
#126=CARTESIAN_POINT('Control Point',(-92.1977303213,-153.869913823,-8.)) ;
#127=CARTESIAN_POINT('Control Point',(-83.0047575332,-152.665914746,-8.)) ;
#128=CARTESIAN_POINT('Control Point',(-73.98892801,-152.026168017,-8.)) ;
#129=CARTESIAN_POINT('Control Point',(-70.1872666611,-151.734889154,-8.)) ;
#130=CARTESIAN_POINT('Control Point',(-66.5242906578,-151.431931201,-8.)) ;
#131=CARTESIAN_POINT('Control Point',(-63.,-151.117294159,-8.)) ;
#132=CARTESIAN_POINT('Vertex',(-107.623491313,-163.,-8.)) ;
#136=CARTESIAN_POINT('Control Point',(-107.623491313,-163.,0.)) ;
#137=CARTESIAN_POINT('Control Point',(-107.154933115,-162.417686276,0.)) ;
#138=CARTESIAN_POINT('Control Point',(-106.669363328,-161.860206769,0.)) ;
#139=CARTESIAN_POINT('Control Point',(-106.166781952,-161.327561482,0.)) ;
#140=CARTESIAN_POINT('Control Point',(-102.180028456,-157.431208581,0.)) ;
#141=CARTESIAN_POINT('Control Point',(-97.2050007544,-154.981822702,0.)) ;
#142=CARTESIAN_POINT('Control Point',(-92.1977303213,-153.869913823,0.)) ;
#143=CARTESIAN_POINT('Control Point',(-83.0047575332,-152.665914746,0.)) ;
#144=CARTESIAN_POINT('Control Point',(-73.98892801,-152.026168017,0.)) ;
#145=CARTESIAN_POINT('Control Point',(-70.1872666611,-151.734889154,0.)) ;
#146=CARTESIAN_POINT('Control Point',(-66.5242906578,-151.431931201,0.)) ;
#147=CARTESIAN_POINT('Control Point',(-63.,-151.117294159,0.)) ;
#148=CARTESIAN_POINT('Vertex',(-107.623491313,-163.,0.)) ;
#151=CARTESIAN_POINT('Line Origine',(-107.623491313,-163.,-4.)) ;
#163=CARTESIAN_POINT('Axis2P3D Location',(-228.606961259,-165.,0.)) ;
#168=CARTESIAN_POINT('Line Origine',(-168.115226286,-164.,-8.)) ;
#172=CARTESIAN_POINT('Vertex',(-228.606961259,-165.,-8.)) ;
#175=CARTESIAN_POINT('Line Origine',(-168.115226286,-164.,0.)) ;
#179=CARTESIAN_POINT('Vertex',(-228.606961259,-165.,0.)) ;
#182=CARTESIAN_POINT('Line Origine',(-228.606961259,-165.,-4.)) ;
#194=CARTESIAN_POINT('Axis2P3D Location',(-197.,1.42108547152E-014,0.)) ;
#199=CARTESIAN_POINT('Line Origine',(-212.803480629,-82.5,-8.)) ;
#203=CARTESIAN_POINT('Vertex',(-197.,0.,-8.)) ;
#206=CARTESIAN_POINT('Line Origine',(-212.803480629,-82.5,0.)) ;
#210=CARTESIAN_POINT('Vertex',(-197.,0.,0.)) ;
#213=CARTESIAN_POINT('Line Origine',(-197.,1.42108547152E-014,-4.)) ;
#225=CARTESIAN_POINT('Axis2P3D Location',(-3.5527136788E-015,0.,0.)) ;
#230=CARTESIAN_POINT('Line Origine',(-98.5,0.,-8.)) ;
#235=CARTESIAN_POINT('Line Origine',(-98.5,0.,0.)) ;
#247=CARTESIAN_POINT('Axis2P3D Location',(-156.,-81.,-4.)) ;
#252=CARTESIAN_POINT('Axis2P3D Location',(-156.,-81.,-8.)) ;
#256=CARTESIAN_POINT('Vertex',(-110.,-81.,-8.)) ;
#258=CARTESIAN_POINT('Vertex',(-202.,-81.,-8.)) ;
#261=CARTESIAN_POINT('Line Origine',(-202.,-81.,-4.)) ;
#265=CARTESIAN_POINT('Vertex',(-202.,-81.,0.)) ;
#268=CARTESIAN_POINT('Axis2P3D Location',(-156.,-81.,0.)) ;
#272=CARTESIAN_POINT('Vertex',(-110.,-81.,0.)) ;
#275=CARTESIAN_POINT('Line Origine',(-110.,-81.,-4.)) ;
#287=CARTESIAN_POINT('Axis2P3D Location',(-156.,-81.,-8.)) ;
#292=CARTESIAN_POINT('Axis2P3D Location',(-156.,-81.,0.)) ;
#304=CARTESIAN_POINT('Axis2P3D Location',(0.,0.,0.)) ;
#322=CARTESIAN_POINT('Axis2P3D Location',(0.,0.,-8.)) ;
#33=DIRECTION('Axis2P3D Direction',(1.,0.,0.)) ;
#34=DIRECTION('Axis2P3D XDirection',(0.,-1.,0.)) ;
#38=DIRECTION('Vector Direction',(0.,-1.,0.)) ;
#47=DIRECTION('Vector Direction',(0.,0.,-1.)) ;
#54=DIRECTION('Vector Direction',(0.,-1.,0.)) ;
#61=DIRECTION('Vector Direction',(0.,0.,-1.)) ;
#73=DIRECTION('Axis2P3D Direction',(0.7934038083,-0.608695652174,0.)) ;
#74=DIRECTION('Axis2P3D XDirection',(-0.608695652174,-0.7934038083,0.)) ;
#78=DIRECTION('Vector Direction',(-0.608695652174,-0.7934038083,0.)) ;
#85=DIRECTION('Vector Direction',(-0.608695652174,-0.7934038083,0.)) ;
#92=DIRECTION('Vector Direction',(0.,0.,-1.)) ;
#116=DIRECTION('Vector Direction',(0.,0.,-1.)) ;
#152=DIRECTION('Vector Direction',(0.,0.,-1.)) ;
#164=DIRECTION('Axis2P3D Direction',(-0.0165289256198,0.999863387978,0.)) ;
#165=DIRECTION('Axis2P3D XDirection',(0.999863387978,0.0165289256198,0.)) ;
#169=DIRECTION('Vector Direction',(0.999863387978,0.0165289256198,0.)) ;
#176=DIRECTION('Vector Direction',(0.999863387978,0.0165289256198,0.)) ;
#183=DIRECTION('Vector Direction',(0.,0.,-1.)) ;
#195=DIRECTION('Axis2P3D Direction',(0.982142857143,-0.188136674158,0.)) ;
#196=DIRECTION('Axis2P3D XDirection',(-0.188136674158,-0.982142857143,0.)) ;
#200=DIRECTION('Vector Direction',(-0.188136674158,-0.982142857143,0.)) ;
#207=DIRECTION('Vector Direction',(-0.188136674158,-0.982142857143,0.)) ;
#214=DIRECTION('Vector Direction',(0.,0.,-1.)) ;
#226=DIRECTION('Axis2P3D Direction',(-0.,-1.,-0.)) ;
#227=DIRECTION('Axis2P3D XDirection',(-1.,0.,0.)) ;
#231=DIRECTION('Vector Direction',(-1.,0.,0.)) ;
#236=DIRECTION('Vector Direction',(-1.,0.,0.)) ;
#248=DIRECTION('Axis2P3D Direction',(0.,0.,-1.)) ;
#249=DIRECTION('Axis2P3D XDirection',(-1.,0.,0.)) ;
#253=DIRECTION('Axis2P3D Direction',(0.,0.,-1.)) ;
#262=DIRECTION('Vector Direction',(0.,0.,-1.)) ;
#269=DIRECTION('Axis2P3D Direction',(0.,0.,-1.)) ;
#276=DIRECTION('Vector Direction',(0.,0.,-1.)) ;
#288=DIRECTION('Axis2P3D Direction',(0.,0.,-1.)) ;
#293=DIRECTION('Axis2P3D Direction',(0.,0.,-1.)) ;
#305=DIRECTION('Axis2P3D Direction',(0.,0.,-1.)) ;
#306=DIRECTION('Axis2P3D XDirection',(-1.,0.,0.)) ;
#323=DIRECTION('Axis2P3D Direction',(0.,0.,-1.)) ;
#324=DIRECTION('Axis2P3D XDirection',(-1.,0.,0.)) ;
#8=PRODUCT_RELATED_PRODUCT_CATEGORY('part',$,(#5)) ;
#7=PRODUCT_CATEGORY('part','specification') ;
#30=STYLED_ITEM(' ',(#29),#22) ;
#29=PRESENTATION_STYLE_ASSIGNMENT((#28)) ;
#28=SURFACE_STYLE_USAGE(.BOTH.,#27) ;
#27=SURFACE_SIDE_STYLE(' ',(#26)) ;
#26=SURFACE_STYLE_FILL_AREA(#25) ;
#25=FILL_AREA_STYLE(' ',(#24)) ;
#24=FILL_AREA_STYLE_COLOUR(' ',#23) ;
#39=VECTOR('Line Direction',#38,1.) ;
#48=VECTOR('Line Direction',#47,1.) ;
#55=VECTOR('Line Direction',#54,1.) ;
#62=VECTOR('Line Direction',#61,1.) ;
#79=VECTOR('Line Direction',#78,1.) ;
#86=VECTOR('Line Direction',#85,1.) ;
#93=VECTOR('Line Direction',#92,1.) ;
#117=VECTOR('Extrusion Surface Vector',#116,1.) ;
#153=VECTOR('Line Direction',#152,1.) ;
#170=VECTOR('Line Direction',#169,1.) ;
#177=VECTOR('Line Direction',#176,1.) ;
#184=VECTOR('Line Direction',#183,1.) ;
#201=VECTOR('Line Direction',#200,1.) ;
#208=VECTOR('Line Direction',#207,1.) ;
#215=VECTOR('Line Direction',#214,1.) ;
#232=VECTOR('Line Direction',#231,1.) ;
#237=VECTOR('Line Direction',#236,1.) ;
#263=VECTOR('Line Direction',#262,1.) ;
#277=VECTOR('Line Direction',#276,1.) ;
#16=UNCERTAINTY_MEASURE_WITH_UNIT(LENGTH_MEASURE(0.005),#12,'distance_accuracy_value','CONFUSED CURVE UNCERTAINTY') ;
#341=SHAPE_REPRESENTATION_RELATIONSHIP(' ',' ',#20,#340) ;
#66=ORIENTED_EDGE('',*,*,#45,.T.) ;
#67=ORIENTED_EDGE('',*,*,#52,.F.) ;
#68=ORIENTED_EDGE('',*,*,#59,.F.) ;
#69=ORIENTED_EDGE('',*,*,#64,.T.) ;
#97=ORIENTED_EDGE('',*,*,#83,.T.) ;
#98=ORIENTED_EDGE('',*,*,#64,.F.) ;
#99=ORIENTED_EDGE('',*,*,#90,.F.) ;
#100=ORIENTED_EDGE('',*,*,#95,.T.) ;
#157=ORIENTED_EDGE('',*,*,#134,.T.) ;
#158=ORIENTED_EDGE('',*,*,#95,.F.) ;
#159=ORIENTED_EDGE('',*,*,#150,.F.) ;
#160=ORIENTED_EDGE('',*,*,#155,.T.) ;
#188=ORIENTED_EDGE('',*,*,#174,.T.) ;
#189=ORIENTED_EDGE('',*,*,#155,.F.) ;
#190=ORIENTED_EDGE('',*,*,#181,.F.) ;
#191=ORIENTED_EDGE('',*,*,#186,.T.) ;
#219=ORIENTED_EDGE('',*,*,#205,.T.) ;
#220=ORIENTED_EDGE('',*,*,#186,.F.) ;
#221=ORIENTED_EDGE('',*,*,#212,.F.) ;
#222=ORIENTED_EDGE('',*,*,#217,.T.) ;
#241=ORIENTED_EDGE('',*,*,#234,.T.) ;
#242=ORIENTED_EDGE('',*,*,#217,.F.) ;
#243=ORIENTED_EDGE('',*,*,#239,.F.) ;
#244=ORIENTED_EDGE('',*,*,#52,.T.) ;
#281=ORIENTED_EDGE('',*,*,#260,.T.) ;
#282=ORIENTED_EDGE('',*,*,#267,.F.) ;
#283=ORIENTED_EDGE('',*,*,#274,.F.) ;
#284=ORIENTED_EDGE('',*,*,#279,.T.) ;
#298=ORIENTED_EDGE('',*,*,#291,.T.) ;
#299=ORIENTED_EDGE('',*,*,#279,.F.) ;
#300=ORIENTED_EDGE('',*,*,#296,.F.) ;
#301=ORIENTED_EDGE('',*,*,#267,.T.) ;
#310=ORIENTED_EDGE('',*,*,#239,.T.) ;
#311=ORIENTED_EDGE('',*,*,#212,.T.) ;
#312=ORIENTED_EDGE('',*,*,#181,.T.) ;
#313=ORIENTED_EDGE('',*,*,#150,.T.) ;
#314=ORIENTED_EDGE('',*,*,#90,.T.) ;
#315=ORIENTED_EDGE('',*,*,#59,.T.) ;
#318=ORIENTED_EDGE('',*,*,#296,.T.) ;
#319=ORIENTED_EDGE('',*,*,#274,.T.) ;
#328=ORIENTED_EDGE('',*,*,#45,.F.) ;
#329=ORIENTED_EDGE('',*,*,#83,.F.) ;
#330=ORIENTED_EDGE('',*,*,#134,.F.) ;
#331=ORIENTED_EDGE('',*,*,#174,.F.) ;
#332=ORIENTED_EDGE('',*,*,#205,.F.) ;
#333=ORIENTED_EDGE('',*,*,#234,.F.) ;
#336=ORIENTED_EDGE('',*,*,#260,.F.) ;
#337=ORIENTED_EDGE('',*,*,#291,.F.) ;
#320=FACE_BOUND('',#317,.T.) ;
#338=FACE_BOUND('',#335,.T.) ;
#31=CLOSED_SHELL('Closed Shell',(#71,#102,#162,#193,#224,#246,#286,#303,#321,#339)) ;
#340=ADVANCED_BREP_SHAPE_REPRESENTATION('NONE',(#22),#17) ;
#71=ADVANCED_FACE('PLATINE_ARR_SOUD',(#70),#36,.T.) ;
#102=ADVANCED_FACE('PLATINE_ARR_SOUD',(#101),#76,.T.) ;
#162=ADVANCED_FACE('PLATINE_ARR_SOUD',(#161),#118,.F.) ;
#193=ADVANCED_FACE('PLATINE_ARR_SOUD',(#192),#167,.F.) ;
#224=ADVANCED_FACE('PLATINE_ARR_SOUD',(#223),#198,.F.) ;
#246=ADVANCED_FACE('PLATINE_ARR_SOUD',(#245),#229,.F.) ;
#286=ADVANCED_FACE('PLATINE_ARR_SOUD',(#285),#251,.F.) ;
#303=ADVANCED_FACE('PLATINE_ARR_SOUD',(#302),#251,.F.) ;
#321=ADVANCED_FACE('PLATINE_ARR_SOUD',(#316,#320),#308,.F.) ;
#339=ADVANCED_FACE('PLATINE_ARR_SOUD',(#334,#338),#326,.T.) ;
#4=APPLICATION_PROTOCOL_DEFINITION('international standard','automotive_design',2001,#1) ;
#103=B_SPLINE_CURVE_WITH_KNOTS('',5,(#104,#105,#106,#107,#108,#109,#110,#111,#112,#113,#114,#115),.UNSPECIFIED.,.F.,.U.,(6,3,3,6),(0.,3.66165409078,28.0952846305,47.0643125194),.UNSPECIFIED.) ;
#119=B_SPLINE_CURVE_WITH_KNOTS('',5,(#120,#121,#122,#123,#124,#125,#126,#127,#128,#129,#130,#131),.UNSPECIFIED.,.F.,.U.,(6,3,3,6),(0.,3.66165409078,28.0952846305,47.0643125194),.UNSPECIFIED.) ;
#135=B_SPLINE_CURVE_WITH_KNOTS('',5,(#136,#137,#138,#139,#140,#141,#142,#143,#144,#145,#146,#147),.UNSPECIFIED.,.F.,.U.,(6,3,3,6),(0.,3.66165409078,28.0952846305,47.0643125194),.UNSPECIFIED.) ;
#22=MANIFOLD_SOLID_BREP('PLATINE_ARR_SOUD',#31) ;
#255=CIRCLE('generated circle',#254,46.) ;
#271=CIRCLE('generated circle',#270,46.) ;
#290=CIRCLE('generated circle',#289,46.) ;
#295=CIRCLE('generated circle',#294,46.) ;
#23=COLOUR_RGB('Colour',0.823529411765,0.823529411765,1.) ;
#251=CYLINDRICAL_SURFACE('generated cylinder',#250,46.) ;
#45=EDGE_CURVE('',#42,#44,#40,.F.) ;
#52=EDGE_CURVE('',#51,#44,#49,.T.) ;
#59=EDGE_CURVE('',#58,#51,#56,.F.) ;
#64=EDGE_CURVE('',#58,#42,#63,.T.) ;
#83=EDGE_CURVE('',#82,#42,#80,.F.) ;
#90=EDGE_CURVE('',#89,#58,#87,.F.) ;
#95=EDGE_CURVE('',#89,#82,#94,.T.) ;
#134=EDGE_CURVE('',#133,#82,#119,.T.) ;
#150=EDGE_CURVE('',#149,#89,#135,.T.) ;
#155=EDGE_CURVE('',#149,#133,#154,.T.) ;
#174=EDGE_CURVE('',#173,#133,#171,.T.) ;
#181=EDGE_CURVE('',#180,#149,#178,.T.) ;
#186=EDGE_CURVE('',#180,#173,#185,.T.) ;
#205=EDGE_CURVE('',#204,#173,#202,.T.) ;
#212=EDGE_CURVE('',#211,#180,#209,.T.) ;
#217=EDGE_CURVE('',#211,#204,#216,.T.) ;
#234=EDGE_CURVE('',#44,#204,#233,.T.) ;
#239=EDGE_CURVE('',#51,#211,#238,.T.) ;
#260=EDGE_CURVE('',#257,#259,#255,.T.) ;
#267=EDGE_CURVE('',#266,#259,#264,.T.) ;
#274=EDGE_CURVE('',#273,#266,#271,.T.) ;
#279=EDGE_CURVE('',#273,#257,#278,.T.) ;
#291=EDGE_CURVE('',#259,#257,#290,.T.) ;
#296=EDGE_CURVE('',#266,#273,#295,.T.) ;
#65=EDGE_LOOP('',(#66,#67,#68,#69)) ;
#96=EDGE_LOOP('',(#97,#98,#99,#100)) ;
#156=EDGE_LOOP('',(#157,#158,#159,#160)) ;
#187=EDGE_LOOP('',(#188,#189,#190,#191)) ;
#218=EDGE_LOOP('',(#219,#220,#221,#222)) ;
#240=EDGE_LOOP('',(#241,#242,#243,#244)) ;
#280=EDGE_LOOP('',(#281,#282,#283,#284)) ;
#297=EDGE_LOOP('',(#298,#299,#300,#301)) ;
#309=EDGE_LOOP('',(#310,#311,#312,#313,#314,#315)) ;
#317=EDGE_LOOP('',(#318,#319)) ;
#327=EDGE_LOOP('',(#328,#329,#330,#331,#332,#333)) ;
#335=EDGE_LOOP('',(#336,#337)) ;
#70=FACE_OUTER_BOUND('',#65,.T.) ;
#101=FACE_OUTER_BOUND('',#96,.T.) ;
#161=FACE_OUTER_BOUND('',#156,.T.) ;
#192=FACE_OUTER_BOUND('',#187,.T.) ;
#223=FACE_OUTER_BOUND('',#218,.T.) ;
#245=FACE_OUTER_BOUND('',#240,.T.) ;
#285=FACE_OUTER_BOUND('',#280,.T.) ;
#302=FACE_OUTER_BOUND('',#297,.T.) ;
#316=FACE_OUTER_BOUND('',#309,.T.) ;
#334=FACE_OUTER_BOUND('',#327,.T.) ;
#40=LINE('Line',#37,#39) ;
#49=LINE('Line',#46,#48) ;
#56=LINE('Line',#53,#55) ;
#63=LINE('Line',#60,#62) ;
#80=LINE('Line',#77,#79) ;
#87=LINE('Line',#84,#86) ;
#94=LINE('Line',#91,#93) ;
#154=LINE('Line',#151,#153) ;
#171=LINE('Line',#168,#170) ;
#178=LINE('Line',#175,#177) ;
#185=LINE('Line',#182,#184) ;
#202=LINE('Line',#199,#201) ;
#209=LINE('Line',#206,#208) ;
#216=LINE('Line',#213,#215) ;
#233=LINE('Line',#230,#232) ;
#238=LINE('Line',#235,#237) ;
#264=LINE('Line',#261,#263) ;
#278=LINE('Line',#275,#277) ;
#36=PLANE('Plane',#35) ;
#76=PLANE('Plane',#75) ;
#167=PLANE('Plane',#166) ;
#198=PLANE('Plane',#197) ;
#229=PLANE('Plane',#228) ;
#308=PLANE('Plane',#307) ;
#326=PLANE('Plane',#325) ;
#14=PLANE_ANGLE_MEASURE_WITH_UNIT(PLANE_ANGLE_MEASURE(0.0174532925199),#13) ;
#9=PRODUCT_CATEGORY_RELATIONSHIP(' ',' ',#7,#8) ;
#6=PRODUCT_DEFINITION_FORMATION_WITH_SPECIFIED_SOURCE('',' ',#5,.NOT_KNOWN.) ;
#21=SHAPE_DEFINITION_REPRESENTATION(#11,#20) ;
#118=SURFACE_OF_LINEAR_EXTRUSION('generated tabulated cylinder',#103,#117) ;
#42=VERTEX_POINT('',#41) ;
#44=VERTEX_POINT('',#43) ;
#51=VERTEX_POINT('',#50) ;
#58=VERTEX_POINT('',#57) ;
#82=VERTEX_POINT('',#81) ;
#89=VERTEX_POINT('',#88) ;
#133=VERTEX_POINT('',#132) ;
#149=VERTEX_POINT('',#148) ;
#173=VERTEX_POINT('',#172) ;
#180=VERTEX_POINT('',#179) ;
#204=VERTEX_POINT('',#203) ;
#211=VERTEX_POINT('',#210) ;
#257=VERTEX_POINT('',#256) ;
#259=VERTEX_POINT('',#258) ;
#266=VERTEX_POINT('',#265) ;
#273=VERTEX_POINT('',#272) ;
#12=(LENGTH_UNIT()NAMED_UNIT(*)SI_UNIT(.MILLI.,.METRE.)) ;
#13=(NAMED_UNIT(*)PLANE_ANGLE_UNIT()SI_UNIT($,.RADIAN.)) ;
#15=(NAMED_UNIT(*)SI_UNIT($,.STERADIAN.)SOLID_ANGLE_UNIT()) ;
#17=(GEOMETRIC_REPRESENTATION_CONTEXT(3)GLOBAL_UNCERTAINTY_ASSIGNED_CONTEXT((#16))GLOBAL_UNIT_ASSIGNED_CONTEXT((#12,#13,#15))REPRESENTATION_CONTEXT(' ',' ')) ;
ENDSEC;
END-ISO-10303-21;
