ISO-10303-21;
HEADER;
/* Generated by software containing ST-Developer
 * from STEP Tools, Inc. (www.steptools.com) 
 */

FILE_DESCRIPTION(
/* description */ (''),
/* implementation_level */ '2;1');

FILE_NAME(
/* name */ '/Users/Valentin/Desktop/A - Top 1.0.step',
/* time_stamp */ '2018-09-25T20:27:52+02:00',
/* author */ (''),
/* organization */ (''),
/* preprocessor_version */ 'ST-DEVELOPER v17.2',
/* originating_system */ 'Autodesk Translation Framework v7.6.0.251',
/* authorisation */ '');

FILE_SCHEMA (('AUTOMOTIVE_DESIGN { 1 0 10303 214 3 1 1 }'));
ENDSEC;

DATA;
#10=MECHANICAL_DESIGN_GEOMETRIC_PRESENTATION_REPRESENTATION('',(#13),#733);
#11=SHAPE_REPRESENTATION_RELATIONSHIP('SRR','None',#740,#12);
#12=ADVANCED_BREP_SHAPE_REPRESENTATION('',(#14),#732);
#13=STYLED_ITEM('',(#749),#14);
#14=MANIFOLD_SOLID_BREP('Body1',#417);
#15=FACE_BOUND('',#73,.T.);
#16=FACE_BOUND('',#77,.T.);
#17=FACE_BOUND('',#79,.T.);
#18=FACE_BOUND('',#80,.T.);
#19=FACE_BOUND('',#81,.T.);
#20=FACE_BOUND('',#82,.T.);
#21=FACE_BOUND('',#83,.T.);
#22=FACE_BOUND('',#86,.T.);
#23=FACE_BOUND('',#89,.T.);
#24=FACE_BOUND('',#92,.T.);
#25=FACE_BOUND('',#95,.T.);
#26=FACE_BOUND('',#105,.T.);
#27=FACE_BOUND('',#107,.T.);
#28=FACE_BOUND('',#108,.T.);
#29=FACE_BOUND('',#109,.T.);
#30=FACE_BOUND('',#110,.T.);
#31=FACE_BOUND('',#111,.T.);
#32=PLANE('',#437);
#33=PLANE('',#444);
#34=PLANE('',#445);
#35=PLANE('',#452);
#36=PLANE('',#457);
#37=PLANE('',#462);
#38=PLANE('',#467);
#39=PLANE('',#478);
#40=PLANE('',#479);
#41=PLANE('',#480);
#42=PLANE('',#481);
#43=PLANE('',#482);
#44=PLANE('',#483);
#45=FACE_OUTER_BOUND('',#70,.T.);
#46=FACE_OUTER_BOUND('',#71,.T.);
#47=FACE_OUTER_BOUND('',#72,.T.);
#48=FACE_OUTER_BOUND('',#74,.T.);
#49=FACE_OUTER_BOUND('',#75,.T.);
#50=FACE_OUTER_BOUND('',#76,.T.);
#51=FACE_OUTER_BOUND('',#78,.T.);
#52=FACE_OUTER_BOUND('',#84,.T.);
#53=FACE_OUTER_BOUND('',#85,.T.);
#54=FACE_OUTER_BOUND('',#87,.T.);
#55=FACE_OUTER_BOUND('',#88,.T.);
#56=FACE_OUTER_BOUND('',#90,.T.);
#57=FACE_OUTER_BOUND('',#91,.T.);
#58=FACE_OUTER_BOUND('',#93,.T.);
#59=FACE_OUTER_BOUND('',#94,.T.);
#60=FACE_OUTER_BOUND('',#96,.T.);
#61=FACE_OUTER_BOUND('',#97,.T.);
#62=FACE_OUTER_BOUND('',#98,.T.);
#63=FACE_OUTER_BOUND('',#99,.T.);
#64=FACE_OUTER_BOUND('',#100,.T.);
#65=FACE_OUTER_BOUND('',#101,.T.);
#66=FACE_OUTER_BOUND('',#102,.T.);
#67=FACE_OUTER_BOUND('',#103,.T.);
#68=FACE_OUTER_BOUND('',#104,.T.);
#69=FACE_OUTER_BOUND('',#106,.T.);
#70=EDGE_LOOP('',(#276,#277,#278,#279));
#71=EDGE_LOOP('',(#280,#281,#282,#283));
#72=EDGE_LOOP('',(#284));
#73=EDGE_LOOP('',(#285));
#74=EDGE_LOOP('',(#286,#287,#288,#289));
#75=EDGE_LOOP('',(#290,#291,#292,#293));
#76=EDGE_LOOP('',(#294));
#77=EDGE_LOOP('',(#295));
#78=EDGE_LOOP('',(#296,#297,#298,#299));
#79=EDGE_LOOP('',(#300));
#80=EDGE_LOOP('',(#301));
#81=EDGE_LOOP('',(#302));
#82=EDGE_LOOP('',(#303));
#83=EDGE_LOOP('',(#304));
#84=EDGE_LOOP('',(#305,#306,#307,#308));
#85=EDGE_LOOP('',(#309));
#86=EDGE_LOOP('',(#310,#311));
#87=EDGE_LOOP('',(#312,#313,#314,#315));
#88=EDGE_LOOP('',(#316));
#89=EDGE_LOOP('',(#317,#318));
#90=EDGE_LOOP('',(#319,#320,#321,#322));
#91=EDGE_LOOP('',(#323));
#92=EDGE_LOOP('',(#324,#325));
#93=EDGE_LOOP('',(#326,#327,#328,#329));
#94=EDGE_LOOP('',(#330));
#95=EDGE_LOOP('',(#331,#332));
#96=EDGE_LOOP('',(#333,#334,#335,#336,#337));
#97=EDGE_LOOP('',(#338,#339,#340,#341,#342));
#98=EDGE_LOOP('',(#343,#344,#345,#346,#347));
#99=EDGE_LOOP('',(#348,#349,#350,#351,#352));
#100=EDGE_LOOP('',(#353,#354,#355,#356));
#101=EDGE_LOOP('',(#357,#358,#359,#360));
#102=EDGE_LOOP('',(#361,#362,#363,#364));
#103=EDGE_LOOP('',(#365,#366,#367,#368));
#104=EDGE_LOOP('',(#369));
#105=EDGE_LOOP('',(#370));
#106=EDGE_LOOP('',(#371,#372,#373,#374));
#107=EDGE_LOOP('',(#375));
#108=EDGE_LOOP('',(#376));
#109=EDGE_LOOP('',(#377));
#110=EDGE_LOOP('',(#378));
#111=EDGE_LOOP('',(#379));
#112=LINE('',#621,#136);
#113=LINE('',#627,#137);
#114=LINE('',#634,#138);
#115=LINE('',#640,#139);
#116=LINE('',#646,#140);
#117=LINE('',#648,#141);
#118=LINE('',#650,#142);
#119=LINE('',#651,#143);
#120=LINE('',#662,#144);
#121=LINE('',#671,#145);
#122=LINE('',#680,#146);
#123=LINE('',#689,#147);
#124=LINE('',#698,#148);
#125=LINE('',#702,#149);
#126=LINE('',#706,#150);
#127=LINE('',#710,#151);
#128=LINE('',#715,#152);
#129=LINE('',#716,#153);
#130=LINE('',#717,#154);
#131=LINE('',#720,#155);
#132=LINE('',#721,#156);
#133=LINE('',#724,#157);
#134=LINE('',#725,#158);
#135=LINE('',#727,#159);
#136=VECTOR('',#490,4.25);
#137=VECTOR('',#497,10.);
#138=VECTOR('',#506,18.275);
#139=VECTOR('',#513,26.075);
#140=VECTOR('',#520,10.);
#141=VECTOR('',#521,10.);
#142=VECTOR('',#522,10.);
#143=VECTOR('',#523,10.);
#144=VECTOR('',#534,5.5);
#145=VECTOR('',#545,5.5);
#146=VECTOR('',#556,5.5);
#147=VECTOR('',#567,5.5);
#148=VECTOR('',#578,3.25);
#149=VECTOR('',#583,3.25);
#150=VECTOR('',#588,3.24999999999999);
#151=VECTOR('',#593,3.24999999999999);
#152=VECTOR('',#598,10.);
#153=VECTOR('',#599,10.);
#154=VECTOR('',#600,10.);
#155=VECTOR('',#603,10.);
#156=VECTOR('',#604,10.);
#157=VECTOR('',#607,10.);
#158=VECTOR('',#608,10.);
#159=VECTOR('',#611,10.);
#160=CIRCLE('',#432,4.25);
#161=CIRCLE('',#433,4.25);
#162=CIRCLE('',#435,10.);
#163=CIRCLE('',#436,10.);
#164=CIRCLE('',#439,18.275);
#165=CIRCLE('',#440,18.275);
#166=CIRCLE('',#442,26.075);
#167=CIRCLE('',#443,26.075);
#168=CIRCLE('',#446,5.5);
#169=CIRCLE('',#447,5.5);
#170=CIRCLE('',#448,5.5);
#171=CIRCLE('',#449,5.5);
#172=CIRCLE('',#451,5.5);
#173=CIRCLE('',#453,3.24999999999999);
#174=CIRCLE('',#454,3.24999999999999);
#175=CIRCLE('',#456,5.5);
#176=CIRCLE('',#458,3.24999999999999);
#177=CIRCLE('',#459,3.24999999999999);
#178=CIRCLE('',#461,5.5);
#179=CIRCLE('',#463,3.25);
#180=CIRCLE('',#464,3.25);
#181=CIRCLE('',#466,5.5);
#182=CIRCLE('',#468,3.25);
#183=CIRCLE('',#469,3.25);
#184=CIRCLE('',#471,3.25);
#185=CIRCLE('',#473,3.25);
#186=CIRCLE('',#475,3.24999999999999);
#187=CIRCLE('',#477,3.24999999999999);
#188=VERTEX_POINT('',#618);
#189=VERTEX_POINT('',#620);
#190=VERTEX_POINT('',#624);
#191=VERTEX_POINT('',#626);
#192=VERTEX_POINT('',#631);
#193=VERTEX_POINT('',#633);
#194=VERTEX_POINT('',#637);
#195=VERTEX_POINT('',#639);
#196=VERTEX_POINT('',#644);
#197=VERTEX_POINT('',#645);
#198=VERTEX_POINT('',#647);
#199=VERTEX_POINT('',#649);
#200=VERTEX_POINT('',#652);
#201=VERTEX_POINT('',#654);
#202=VERTEX_POINT('',#656);
#203=VERTEX_POINT('',#658);
#204=VERTEX_POINT('',#661);
#205=VERTEX_POINT('',#665);
#206=VERTEX_POINT('',#666);
#207=VERTEX_POINT('',#670);
#208=VERTEX_POINT('',#674);
#209=VERTEX_POINT('',#675);
#210=VERTEX_POINT('',#679);
#211=VERTEX_POINT('',#683);
#212=VERTEX_POINT('',#684);
#213=VERTEX_POINT('',#688);
#214=VERTEX_POINT('',#692);
#215=VERTEX_POINT('',#693);
#216=VERTEX_POINT('',#697);
#217=VERTEX_POINT('',#701);
#218=VERTEX_POINT('',#705);
#219=VERTEX_POINT('',#709);
#220=VERTEX_POINT('',#713);
#221=VERTEX_POINT('',#714);
#222=VERTEX_POINT('',#719);
#223=VERTEX_POINT('',#723);
#224=EDGE_CURVE('',#188,#188,#160,.T.);
#225=EDGE_CURVE('',#188,#189,#112,.T.);
#226=EDGE_CURVE('',#189,#189,#161,.T.);
#227=EDGE_CURVE('',#190,#190,#162,.T.);
#228=EDGE_CURVE('',#190,#191,#113,.T.);
#229=EDGE_CURVE('',#191,#191,#163,.T.);
#230=EDGE_CURVE('',#192,#192,#164,.T.);
#231=EDGE_CURVE('',#192,#193,#114,.T.);
#232=EDGE_CURVE('',#193,#193,#165,.T.);
#233=EDGE_CURVE('',#194,#194,#166,.T.);
#234=EDGE_CURVE('',#194,#195,#115,.T.);
#235=EDGE_CURVE('',#195,#195,#167,.T.);
#236=EDGE_CURVE('',#196,#197,#116,.T.);
#237=EDGE_CURVE('',#198,#196,#117,.T.);
#238=EDGE_CURVE('',#199,#198,#118,.T.);
#239=EDGE_CURVE('',#197,#199,#119,.T.);
#240=EDGE_CURVE('',#200,#200,#168,.T.);
#241=EDGE_CURVE('',#201,#201,#169,.T.);
#242=EDGE_CURVE('',#202,#202,#170,.T.);
#243=EDGE_CURVE('',#203,#203,#171,.T.);
#244=EDGE_CURVE('',#203,#204,#120,.T.);
#245=EDGE_CURVE('',#204,#204,#172,.T.);
#246=EDGE_CURVE('',#205,#206,#173,.T.);
#247=EDGE_CURVE('',#206,#205,#174,.T.);
#248=EDGE_CURVE('',#202,#207,#121,.T.);
#249=EDGE_CURVE('',#207,#207,#175,.T.);
#250=EDGE_CURVE('',#208,#209,#176,.T.);
#251=EDGE_CURVE('',#209,#208,#177,.T.);
#252=EDGE_CURVE('',#201,#210,#122,.T.);
#253=EDGE_CURVE('',#210,#210,#178,.T.);
#254=EDGE_CURVE('',#211,#212,#179,.T.);
#255=EDGE_CURVE('',#212,#211,#180,.T.);
#256=EDGE_CURVE('',#200,#213,#123,.T.);
#257=EDGE_CURVE('',#213,#213,#181,.T.);
#258=EDGE_CURVE('',#214,#215,#182,.T.);
#259=EDGE_CURVE('',#215,#214,#183,.T.);
#260=EDGE_CURVE('',#212,#216,#124,.T.);
#261=EDGE_CURVE('',#216,#216,#184,.T.);
#262=EDGE_CURVE('',#215,#217,#125,.T.);
#263=EDGE_CURVE('',#217,#217,#185,.T.);
#264=EDGE_CURVE('',#209,#218,#126,.T.);
#265=EDGE_CURVE('',#218,#218,#186,.T.);
#266=EDGE_CURVE('',#206,#219,#127,.T.);
#267=EDGE_CURVE('',#219,#219,#187,.T.);
#268=EDGE_CURVE('',#220,#221,#128,.T.);
#269=EDGE_CURVE('',#220,#198,#129,.T.);
#270=EDGE_CURVE('',#221,#196,#130,.T.);
#271=EDGE_CURVE('',#222,#220,#131,.T.);
#272=EDGE_CURVE('',#222,#199,#132,.T.);
#273=EDGE_CURVE('',#223,#222,#133,.T.);
#274=EDGE_CURVE('',#223,#197,#134,.T.);
#275=EDGE_CURVE('',#221,#223,#135,.T.);
#276=ORIENTED_EDGE('',*,*,#224,.F.);
#277=ORIENTED_EDGE('',*,*,#225,.T.);
#278=ORIENTED_EDGE('',*,*,#226,.F.);
#279=ORIENTED_EDGE('',*,*,#225,.F.);
#280=ORIENTED_EDGE('',*,*,#227,.F.);
#281=ORIENTED_EDGE('',*,*,#228,.T.);
#282=ORIENTED_EDGE('',*,*,#229,.T.);
#283=ORIENTED_EDGE('',*,*,#228,.F.);
#284=ORIENTED_EDGE('',*,*,#229,.F.);
#285=ORIENTED_EDGE('',*,*,#226,.T.);
#286=ORIENTED_EDGE('',*,*,#230,.T.);
#287=ORIENTED_EDGE('',*,*,#231,.T.);
#288=ORIENTED_EDGE('',*,*,#232,.F.);
#289=ORIENTED_EDGE('',*,*,#231,.F.);
#290=ORIENTED_EDGE('',*,*,#233,.T.);
#291=ORIENTED_EDGE('',*,*,#234,.T.);
#292=ORIENTED_EDGE('',*,*,#235,.F.);
#293=ORIENTED_EDGE('',*,*,#234,.F.);
#294=ORIENTED_EDGE('',*,*,#235,.T.);
#295=ORIENTED_EDGE('',*,*,#232,.T.);
#296=ORIENTED_EDGE('',*,*,#236,.F.);
#297=ORIENTED_EDGE('',*,*,#237,.F.);
#298=ORIENTED_EDGE('',*,*,#238,.F.);
#299=ORIENTED_EDGE('',*,*,#239,.F.);
#300=ORIENTED_EDGE('',*,*,#240,.F.);
#301=ORIENTED_EDGE('',*,*,#241,.F.);
#302=ORIENTED_EDGE('',*,*,#242,.F.);
#303=ORIENTED_EDGE('',*,*,#243,.F.);
#304=ORIENTED_EDGE('',*,*,#233,.F.);
#305=ORIENTED_EDGE('',*,*,#243,.T.);
#306=ORIENTED_EDGE('',*,*,#244,.T.);
#307=ORIENTED_EDGE('',*,*,#245,.F.);
#308=ORIENTED_EDGE('',*,*,#244,.F.);
#309=ORIENTED_EDGE('',*,*,#245,.T.);
#310=ORIENTED_EDGE('',*,*,#246,.T.);
#311=ORIENTED_EDGE('',*,*,#247,.T.);
#312=ORIENTED_EDGE('',*,*,#242,.T.);
#313=ORIENTED_EDGE('',*,*,#248,.T.);
#314=ORIENTED_EDGE('',*,*,#249,.F.);
#315=ORIENTED_EDGE('',*,*,#248,.F.);
#316=ORIENTED_EDGE('',*,*,#249,.T.);
#317=ORIENTED_EDGE('',*,*,#250,.T.);
#318=ORIENTED_EDGE('',*,*,#251,.T.);
#319=ORIENTED_EDGE('',*,*,#241,.T.);
#320=ORIENTED_EDGE('',*,*,#252,.T.);
#321=ORIENTED_EDGE('',*,*,#253,.F.);
#322=ORIENTED_EDGE('',*,*,#252,.F.);
#323=ORIENTED_EDGE('',*,*,#253,.T.);
#324=ORIENTED_EDGE('',*,*,#254,.T.);
#325=ORIENTED_EDGE('',*,*,#255,.T.);
#326=ORIENTED_EDGE('',*,*,#240,.T.);
#327=ORIENTED_EDGE('',*,*,#256,.T.);
#328=ORIENTED_EDGE('',*,*,#257,.F.);
#329=ORIENTED_EDGE('',*,*,#256,.F.);
#330=ORIENTED_EDGE('',*,*,#257,.T.);
#331=ORIENTED_EDGE('',*,*,#258,.T.);
#332=ORIENTED_EDGE('',*,*,#259,.T.);
#333=ORIENTED_EDGE('',*,*,#254,.F.);
#334=ORIENTED_EDGE('',*,*,#255,.F.);
#335=ORIENTED_EDGE('',*,*,#260,.T.);
#336=ORIENTED_EDGE('',*,*,#261,.F.);
#337=ORIENTED_EDGE('',*,*,#260,.F.);
#338=ORIENTED_EDGE('',*,*,#258,.F.);
#339=ORIENTED_EDGE('',*,*,#259,.F.);
#340=ORIENTED_EDGE('',*,*,#262,.T.);
#341=ORIENTED_EDGE('',*,*,#263,.F.);
#342=ORIENTED_EDGE('',*,*,#262,.F.);
#343=ORIENTED_EDGE('',*,*,#250,.F.);
#344=ORIENTED_EDGE('',*,*,#251,.F.);
#345=ORIENTED_EDGE('',*,*,#264,.T.);
#346=ORIENTED_EDGE('',*,*,#265,.F.);
#347=ORIENTED_EDGE('',*,*,#264,.F.);
#348=ORIENTED_EDGE('',*,*,#246,.F.);
#349=ORIENTED_EDGE('',*,*,#247,.F.);
#350=ORIENTED_EDGE('',*,*,#266,.T.);
#351=ORIENTED_EDGE('',*,*,#267,.F.);
#352=ORIENTED_EDGE('',*,*,#266,.F.);
#353=ORIENTED_EDGE('',*,*,#268,.F.);
#354=ORIENTED_EDGE('',*,*,#269,.T.);
#355=ORIENTED_EDGE('',*,*,#237,.T.);
#356=ORIENTED_EDGE('',*,*,#270,.F.);
#357=ORIENTED_EDGE('',*,*,#271,.F.);
#358=ORIENTED_EDGE('',*,*,#272,.T.);
#359=ORIENTED_EDGE('',*,*,#238,.T.);
#360=ORIENTED_EDGE('',*,*,#269,.F.);
#361=ORIENTED_EDGE('',*,*,#273,.F.);
#362=ORIENTED_EDGE('',*,*,#274,.T.);
#363=ORIENTED_EDGE('',*,*,#239,.T.);
#364=ORIENTED_EDGE('',*,*,#272,.F.);
#365=ORIENTED_EDGE('',*,*,#275,.F.);
#366=ORIENTED_EDGE('',*,*,#270,.T.);
#367=ORIENTED_EDGE('',*,*,#236,.T.);
#368=ORIENTED_EDGE('',*,*,#274,.F.);
#369=ORIENTED_EDGE('',*,*,#230,.F.);
#370=ORIENTED_EDGE('',*,*,#224,.T.);
#371=ORIENTED_EDGE('',*,*,#275,.T.);
#372=ORIENTED_EDGE('',*,*,#273,.T.);
#373=ORIENTED_EDGE('',*,*,#271,.T.);
#374=ORIENTED_EDGE('',*,*,#268,.T.);
#375=ORIENTED_EDGE('',*,*,#227,.T.);
#376=ORIENTED_EDGE('',*,*,#267,.T.);
#377=ORIENTED_EDGE('',*,*,#265,.T.);
#378=ORIENTED_EDGE('',*,*,#263,.T.);
#379=ORIENTED_EDGE('',*,*,#261,.T.);
#380=CYLINDRICAL_SURFACE('',#431,4.25);
#381=CYLINDRICAL_SURFACE('',#434,10.);
#382=CYLINDRICAL_SURFACE('',#438,18.275);
#383=CYLINDRICAL_SURFACE('',#441,26.075);
#384=CYLINDRICAL_SURFACE('',#450,5.5);
#385=CYLINDRICAL_SURFACE('',#455,5.5);
#386=CYLINDRICAL_SURFACE('',#460,5.5);
#387=CYLINDRICAL_SURFACE('',#465,5.5);
#388=CYLINDRICAL_SURFACE('',#470,3.25);
#389=CYLINDRICAL_SURFACE('',#472,3.25);
#390=CYLINDRICAL_SURFACE('',#474,3.24999999999999);
#391=CYLINDRICAL_SURFACE('',#476,3.24999999999999);
#392=ADVANCED_FACE('',(#45),#380,.F.);
#393=ADVANCED_FACE('',(#46),#381,.F.);
#394=ADVANCED_FACE('',(#47,#15),#32,.T.);
#395=ADVANCED_FACE('',(#48),#382,.T.);
#396=ADVANCED_FACE('',(#49),#383,.F.);
#397=ADVANCED_FACE('',(#50,#16),#33,.F.);
#398=ADVANCED_FACE('',(#51,#17,#18,#19,#20,#21),#34,.F.);
#399=ADVANCED_FACE('',(#52),#384,.F.);
#400=ADVANCED_FACE('',(#53,#22),#35,.F.);
#401=ADVANCED_FACE('',(#54),#385,.F.);
#402=ADVANCED_FACE('',(#55,#23),#36,.F.);
#403=ADVANCED_FACE('',(#56),#386,.F.);
#404=ADVANCED_FACE('',(#57,#24),#37,.F.);
#405=ADVANCED_FACE('',(#58),#387,.F.);
#406=ADVANCED_FACE('',(#59,#25),#38,.F.);
#407=ADVANCED_FACE('',(#60),#388,.F.);
#408=ADVANCED_FACE('',(#61),#389,.F.);
#409=ADVANCED_FACE('',(#62),#390,.F.);
#410=ADVANCED_FACE('',(#63),#391,.F.);
#411=ADVANCED_FACE('',(#64),#39,.F.);
#412=ADVANCED_FACE('',(#65),#40,.F.);
#413=ADVANCED_FACE('',(#66),#41,.F.);
#414=ADVANCED_FACE('',(#67),#42,.F.);
#415=ADVANCED_FACE('',(#68,#26),#43,.F.);
#416=ADVANCED_FACE('',(#69,#27,#28,#29,#30,#31),#44,.T.);
#417=CLOSED_SHELL('',(#392,#393,#394,#395,#396,#397,#398,#399,#400,#401,
#402,#403,#404,#405,#406,#407,#408,#409,#410,#411,#412,#413,#414,#415,#416));
#418=DERIVED_UNIT_ELEMENT(#420,1.);
#419=DERIVED_UNIT_ELEMENT(#735,3.);
#420=(
MASS_UNIT()
NAMED_UNIT(*)
SI_UNIT(.KILO.,.GRAM.)
);
#421=DERIVED_UNIT((#418,#419));
#422=MEASURE_REPRESENTATION_ITEM('density measure',
POSITIVE_RATIO_MEASURE(7850.),#421);
#423=PROPERTY_DEFINITION_REPRESENTATION(#428,#425);
#424=PROPERTY_DEFINITION_REPRESENTATION(#429,#426);
#425=REPRESENTATION('material name',(#427),#732);
#426=REPRESENTATION('density',(#422),#732);
#427=DESCRIPTIVE_REPRESENTATION_ITEM('Steel','Steel');
#428=PROPERTY_DEFINITION('material property','material name',#742);
#429=PROPERTY_DEFINITION('material property','density of part',#742);
#430=AXIS2_PLACEMENT_3D('placement',#616,#484,#485);
#431=AXIS2_PLACEMENT_3D('',#617,#486,#487);
#432=AXIS2_PLACEMENT_3D('',#619,#488,#489);
#433=AXIS2_PLACEMENT_3D('',#622,#491,#492);
#434=AXIS2_PLACEMENT_3D('',#623,#493,#494);
#435=AXIS2_PLACEMENT_3D('',#625,#495,#496);
#436=AXIS2_PLACEMENT_3D('',#628,#498,#499);
#437=AXIS2_PLACEMENT_3D('',#629,#500,#501);
#438=AXIS2_PLACEMENT_3D('',#630,#502,#503);
#439=AXIS2_PLACEMENT_3D('',#632,#504,#505);
#440=AXIS2_PLACEMENT_3D('',#635,#507,#508);
#441=AXIS2_PLACEMENT_3D('',#636,#509,#510);
#442=AXIS2_PLACEMENT_3D('',#638,#511,#512);
#443=AXIS2_PLACEMENT_3D('',#641,#514,#515);
#444=AXIS2_PLACEMENT_3D('',#642,#516,#517);
#445=AXIS2_PLACEMENT_3D('',#643,#518,#519);
#446=AXIS2_PLACEMENT_3D('',#653,#524,#525);
#447=AXIS2_PLACEMENT_3D('',#655,#526,#527);
#448=AXIS2_PLACEMENT_3D('',#657,#528,#529);
#449=AXIS2_PLACEMENT_3D('',#659,#530,#531);
#450=AXIS2_PLACEMENT_3D('',#660,#532,#533);
#451=AXIS2_PLACEMENT_3D('',#663,#535,#536);
#452=AXIS2_PLACEMENT_3D('',#664,#537,#538);
#453=AXIS2_PLACEMENT_3D('',#667,#539,#540);
#454=AXIS2_PLACEMENT_3D('',#668,#541,#542);
#455=AXIS2_PLACEMENT_3D('',#669,#543,#544);
#456=AXIS2_PLACEMENT_3D('',#672,#546,#547);
#457=AXIS2_PLACEMENT_3D('',#673,#548,#549);
#458=AXIS2_PLACEMENT_3D('',#676,#550,#551);
#459=AXIS2_PLACEMENT_3D('',#677,#552,#553);
#460=AXIS2_PLACEMENT_3D('',#678,#554,#555);
#461=AXIS2_PLACEMENT_3D('',#681,#557,#558);
#462=AXIS2_PLACEMENT_3D('',#682,#559,#560);
#463=AXIS2_PLACEMENT_3D('',#685,#561,#562);
#464=AXIS2_PLACEMENT_3D('',#686,#563,#564);
#465=AXIS2_PLACEMENT_3D('',#687,#565,#566);
#466=AXIS2_PLACEMENT_3D('',#690,#568,#569);
#467=AXIS2_PLACEMENT_3D('',#691,#570,#571);
#468=AXIS2_PLACEMENT_3D('',#694,#572,#573);
#469=AXIS2_PLACEMENT_3D('',#695,#574,#575);
#470=AXIS2_PLACEMENT_3D('',#696,#576,#577);
#471=AXIS2_PLACEMENT_3D('',#699,#579,#580);
#472=AXIS2_PLACEMENT_3D('',#700,#581,#582);
#473=AXIS2_PLACEMENT_3D('',#703,#584,#585);
#474=AXIS2_PLACEMENT_3D('',#704,#586,#587);
#475=AXIS2_PLACEMENT_3D('',#707,#589,#590);
#476=AXIS2_PLACEMENT_3D('',#708,#591,#592);
#477=AXIS2_PLACEMENT_3D('',#711,#594,#595);
#478=AXIS2_PLACEMENT_3D('',#712,#596,#597);
#479=AXIS2_PLACEMENT_3D('',#718,#601,#602);
#480=AXIS2_PLACEMENT_3D('',#722,#605,#606);
#481=AXIS2_PLACEMENT_3D('',#726,#609,#610);
#482=AXIS2_PLACEMENT_3D('',#728,#612,#613);
#483=AXIS2_PLACEMENT_3D('',#729,#614,#615);
#484=DIRECTION('axis',(0.,0.,1.));
#485=DIRECTION('refdir',(1.,0.,0.));
#486=DIRECTION('center_axis',(0.,-1.,0.));
#487=DIRECTION('ref_axis',(1.,0.,0.));
#488=DIRECTION('center_axis',(0.,-1.,0.));
#489=DIRECTION('ref_axis',(1.,0.,0.));
#490=DIRECTION('',(0.,-1.,0.));
#491=DIRECTION('center_axis',(0.,1.,0.));
#492=DIRECTION('ref_axis',(1.,0.,0.));
#493=DIRECTION('center_axis',(0.,1.,0.));
#494=DIRECTION('ref_axis',(1.,0.,0.));
#495=DIRECTION('center_axis',(0.,1.,0.));
#496=DIRECTION('ref_axis',(1.,0.,0.));
#497=DIRECTION('',(0.,1.,0.));
#498=DIRECTION('center_axis',(0.,1.,0.));
#499=DIRECTION('ref_axis',(1.,0.,0.));
#500=DIRECTION('center_axis',(0.,-1.,0.));
#501=DIRECTION('ref_axis',(1.,0.,0.));
#502=DIRECTION('center_axis',(0.,1.,0.));
#503=DIRECTION('ref_axis',(-1.,0.,0.));
#504=DIRECTION('center_axis',(0.,-1.,0.));
#505=DIRECTION('ref_axis',(-1.,0.,0.));
#506=DIRECTION('',(0.,-1.,0.));
#507=DIRECTION('center_axis',(0.,-1.,0.));
#508=DIRECTION('ref_axis',(-1.,0.,0.));
#509=DIRECTION('center_axis',(0.,1.,0.));
#510=DIRECTION('ref_axis',(-1.,0.,0.));
#511=DIRECTION('center_axis',(0.,1.,0.));
#512=DIRECTION('ref_axis',(-1.,0.,0.));
#513=DIRECTION('',(0.,-1.,0.));
#514=DIRECTION('center_axis',(0.,1.,0.));
#515=DIRECTION('ref_axis',(-1.,0.,0.));
#516=DIRECTION('center_axis',(0.,-1.,0.));
#517=DIRECTION('ref_axis',(-1.,0.,0.));
#518=DIRECTION('center_axis',(0.,-1.,0.));
#519=DIRECTION('ref_axis',(1.,0.,0.));
#520=DIRECTION('',(3.52170046973666E-33,0.,-1.));
#521=DIRECTION('',(-1.,0.,0.));
#522=DIRECTION('',(0.,0.,1.));
#523=DIRECTION('',(1.,0.,4.54114007939727E-33));
#524=DIRECTION('center_axis',(0.,1.,0.));
#525=DIRECTION('ref_axis',(-1.,0.,0.));
#526=DIRECTION('center_axis',(0.,1.,0.));
#527=DIRECTION('ref_axis',(-1.,0.,0.));
#528=DIRECTION('center_axis',(0.,1.,0.));
#529=DIRECTION('ref_axis',(-1.,0.,0.));
#530=DIRECTION('center_axis',(0.,1.,0.));
#531=DIRECTION('ref_axis',(-1.,0.,0.));
#532=DIRECTION('center_axis',(0.,1.,0.));
#533=DIRECTION('ref_axis',(-1.,0.,0.));
#534=DIRECTION('',(0.,-1.,0.));
#535=DIRECTION('center_axis',(0.,1.,0.));
#536=DIRECTION('ref_axis',(-1.,0.,0.));
#537=DIRECTION('center_axis',(0.,-1.,0.));
#538=DIRECTION('ref_axis',(-1.,0.,0.));
#539=DIRECTION('center_axis',(0.,-1.,0.));
#540=DIRECTION('ref_axis',(1.,0.,0.));
#541=DIRECTION('center_axis',(0.,-1.,0.));
#542=DIRECTION('ref_axis',(1.,0.,0.));
#543=DIRECTION('center_axis',(0.,1.,0.));
#544=DIRECTION('ref_axis',(-1.,0.,0.));
#545=DIRECTION('',(0.,-1.,0.));
#546=DIRECTION('center_axis',(0.,1.,0.));
#547=DIRECTION('ref_axis',(-1.,0.,0.));
#548=DIRECTION('center_axis',(0.,-1.,0.));
#549=DIRECTION('ref_axis',(-1.,0.,0.));
#550=DIRECTION('center_axis',(0.,-1.,0.));
#551=DIRECTION('ref_axis',(1.,0.,0.));
#552=DIRECTION('center_axis',(0.,-1.,0.));
#553=DIRECTION('ref_axis',(1.,0.,0.));
#554=DIRECTION('center_axis',(0.,1.,0.));
#555=DIRECTION('ref_axis',(-1.,0.,0.));
#556=DIRECTION('',(0.,-1.,0.));
#557=DIRECTION('center_axis',(0.,1.,0.));
#558=DIRECTION('ref_axis',(-1.,0.,0.));
#559=DIRECTION('center_axis',(0.,-1.,0.));
#560=DIRECTION('ref_axis',(-1.,0.,0.));
#561=DIRECTION('center_axis',(0.,-1.,0.));
#562=DIRECTION('ref_axis',(1.,0.,0.));
#563=DIRECTION('center_axis',(0.,-1.,0.));
#564=DIRECTION('ref_axis',(1.,0.,0.));
#565=DIRECTION('center_axis',(0.,1.,0.));
#566=DIRECTION('ref_axis',(-1.,0.,0.));
#567=DIRECTION('',(0.,-1.,0.));
#568=DIRECTION('center_axis',(0.,1.,0.));
#569=DIRECTION('ref_axis',(-1.,0.,0.));
#570=DIRECTION('center_axis',(0.,-1.,0.));
#571=DIRECTION('ref_axis',(-1.,0.,0.));
#572=DIRECTION('center_axis',(0.,-1.,0.));
#573=DIRECTION('ref_axis',(1.,0.,0.));
#574=DIRECTION('center_axis',(0.,-1.,0.));
#575=DIRECTION('ref_axis',(1.,0.,0.));
#576=DIRECTION('center_axis',(0.,-1.,0.));
#577=DIRECTION('ref_axis',(1.,0.,0.));
#578=DIRECTION('',(0.,-1.,0.));
#579=DIRECTION('center_axis',(0.,1.,0.));
#580=DIRECTION('ref_axis',(1.,0.,0.));
#581=DIRECTION('center_axis',(0.,-1.,0.));
#582=DIRECTION('ref_axis',(1.,0.,0.));
#583=DIRECTION('',(0.,-1.,0.));
#584=DIRECTION('center_axis',(0.,1.,0.));
#585=DIRECTION('ref_axis',(1.,0.,0.));
#586=DIRECTION('center_axis',(0.,-1.,0.));
#587=DIRECTION('ref_axis',(1.,0.,0.));
#588=DIRECTION('',(0.,-1.,0.));
#589=DIRECTION('center_axis',(0.,1.,0.));
#590=DIRECTION('ref_axis',(1.,0.,0.));
#591=DIRECTION('center_axis',(0.,-1.,0.));
#592=DIRECTION('ref_axis',(1.,0.,0.));
#593=DIRECTION('',(0.,-1.,0.));
#594=DIRECTION('center_axis',(0.,1.,0.));
#595=DIRECTION('ref_axis',(1.,0.,0.));
#596=DIRECTION('center_axis',(0.,0.,-1.));
#597=DIRECTION('ref_axis',(-1.,0.,0.));
#598=DIRECTION('',(-1.,0.,0.));
#599=DIRECTION('',(0.,1.,0.));
#600=DIRECTION('',(0.,1.,0.));
#601=DIRECTION('center_axis',(-1.,0.,0.));
#602=DIRECTION('ref_axis',(0.,0.,1.));
#603=DIRECTION('',(0.,0.,1.));
#604=DIRECTION('',(0.,1.,0.));
#605=DIRECTION('center_axis',(-4.54114007939727E-33,0.,1.));
#606=DIRECTION('ref_axis',(1.,0.,4.54114007939727E-33));
#607=DIRECTION('',(1.,0.,4.54114007939727E-33));
#608=DIRECTION('',(0.,1.,0.));
#609=DIRECTION('center_axis',(1.,0.,3.52170046973666E-33));
#610=DIRECTION('ref_axis',(3.52170046973666E-33,0.,-1.));
#611=DIRECTION('',(3.52170046973666E-33,0.,-1.));
#612=DIRECTION('center_axis',(0.,-1.,0.));
#613=DIRECTION('ref_axis',(1.,0.,0.));
#614=DIRECTION('center_axis',(0.,-1.,0.));
#615=DIRECTION('ref_axis',(1.,0.,0.));
#616=CARTESIAN_POINT('',(0.,0.,0.));
#617=CARTESIAN_POINT('Origin',(47.5,15.,35.));
#618=CARTESIAN_POINT('',(43.25,15.,35.));
#619=CARTESIAN_POINT('Origin',(47.5,15.,35.));
#620=CARTESIAN_POINT('',(43.25,11.,35.));
#621=CARTESIAN_POINT('',(43.25,15.,35.));
#622=CARTESIAN_POINT('Origin',(47.5,11.,35.));
#623=CARTESIAN_POINT('Origin',(47.5,0.,35.));
#624=CARTESIAN_POINT('',(37.5,0.,35.));
#625=CARTESIAN_POINT('Origin',(47.5,0.,35.));
#626=CARTESIAN_POINT('',(37.5,11.,35.));
#627=CARTESIAN_POINT('',(37.5,0.,35.));
#628=CARTESIAN_POINT('Origin',(47.5,11.,35.));
#629=CARTESIAN_POINT('Origin',(47.5,11.,35.));
#630=CARTESIAN_POINT('Origin',(47.5,15.,35.));
#631=CARTESIAN_POINT('',(65.775,15.,35.));
#632=CARTESIAN_POINT('Origin',(47.5,15.,35.));
#633=CARTESIAN_POINT('',(65.775,11.,35.));
#634=CARTESIAN_POINT('',(65.775,15.,35.));
#635=CARTESIAN_POINT('Origin',(47.5,11.,35.));
#636=CARTESIAN_POINT('Origin',(47.5,15.,35.));
#637=CARTESIAN_POINT('',(73.575,15.,35.));
#638=CARTESIAN_POINT('Origin',(47.5,15.,35.));
#639=CARTESIAN_POINT('',(73.575,11.,35.));
#640=CARTESIAN_POINT('',(73.575,15.,35.));
#641=CARTESIAN_POINT('Origin',(47.5,11.,35.));
#642=CARTESIAN_POINT('Origin',(47.5,11.,35.));
#643=CARTESIAN_POINT('Origin',(47.5,15.,35.));
#644=CARTESIAN_POINT('',(0.,15.,70.));
#645=CARTESIAN_POINT('',(0.,15.,0.));
#646=CARTESIAN_POINT('',(-2.46519032881566E-31,15.,70.));
#647=CARTESIAN_POINT('',(95.,15.,70.));
#648=CARTESIAN_POINT('',(95.,15.,70.));
#649=CARTESIAN_POINT('',(95.,15.,0.));
#650=CARTESIAN_POINT('',(95.,15.,4.31408307542741E-31));
#651=CARTESIAN_POINT('',(0.,15.,0.));
#652=CARTESIAN_POINT('',(15.5,15.,12.5));
#653=CARTESIAN_POINT('Origin',(10.,15.,12.5));
#654=CARTESIAN_POINT('',(15.5,15.,57.5));
#655=CARTESIAN_POINT('Origin',(10.,15.,57.5));
#656=CARTESIAN_POINT('',(90.5,15.,12.5));
#657=CARTESIAN_POINT('Origin',(85.,15.,12.5));
#658=CARTESIAN_POINT('',(90.5,15.,57.5));
#659=CARTESIAN_POINT('Origin',(85.,15.,57.5));
#660=CARTESIAN_POINT('Origin',(85.,15.,57.5));
#661=CARTESIAN_POINT('',(90.5,5.,57.5));
#662=CARTESIAN_POINT('',(90.5,15.,57.5));
#663=CARTESIAN_POINT('Origin',(85.,5.,57.5));
#664=CARTESIAN_POINT('Origin',(85.,5.,57.5));
#665=CARTESIAN_POINT('',(88.25,5.,57.5));
#666=CARTESIAN_POINT('',(81.75,5.,57.5));
#667=CARTESIAN_POINT('Origin',(85.,5.,57.5));
#668=CARTESIAN_POINT('Origin',(85.,5.,57.5));
#669=CARTESIAN_POINT('Origin',(85.,15.,12.5));
#670=CARTESIAN_POINT('',(90.5,5.,12.5));
#671=CARTESIAN_POINT('',(90.5,15.,12.5));
#672=CARTESIAN_POINT('Origin',(85.,5.,12.5));
#673=CARTESIAN_POINT('Origin',(85.,5.,12.5));
#674=CARTESIAN_POINT('',(88.25,5.,12.5));
#675=CARTESIAN_POINT('',(81.75,5.,12.5));
#676=CARTESIAN_POINT('Origin',(85.,5.,12.5));
#677=CARTESIAN_POINT('Origin',(85.,5.,12.5));
#678=CARTESIAN_POINT('Origin',(10.,15.,57.5));
#679=CARTESIAN_POINT('',(15.5,5.,57.5));
#680=CARTESIAN_POINT('',(15.5,15.,57.5));
#681=CARTESIAN_POINT('Origin',(10.,5.,57.5));
#682=CARTESIAN_POINT('Origin',(10.,5.,57.5));
#683=CARTESIAN_POINT('',(13.25,5.,57.5));
#684=CARTESIAN_POINT('',(6.75,5.,57.5));
#685=CARTESIAN_POINT('Origin',(10.,5.,57.5));
#686=CARTESIAN_POINT('Origin',(10.,5.,57.5));
#687=CARTESIAN_POINT('Origin',(10.,15.,12.5));
#688=CARTESIAN_POINT('',(15.5,5.,12.5));
#689=CARTESIAN_POINT('',(15.5,15.,12.5));
#690=CARTESIAN_POINT('Origin',(10.,5.,12.5));
#691=CARTESIAN_POINT('Origin',(10.,5.,12.5));
#692=CARTESIAN_POINT('',(13.25,5.,12.5));
#693=CARTESIAN_POINT('',(6.75,5.,12.5));
#694=CARTESIAN_POINT('Origin',(10.,5.,12.5));
#695=CARTESIAN_POINT('Origin',(10.,5.,12.5));
#696=CARTESIAN_POINT('Origin',(10.,0.,57.5));
#697=CARTESIAN_POINT('',(6.75,0.,57.5));
#698=CARTESIAN_POINT('',(6.75,0.,57.5));
#699=CARTESIAN_POINT('Origin',(10.,0.,57.5));
#700=CARTESIAN_POINT('Origin',(10.,0.,12.5));
#701=CARTESIAN_POINT('',(6.75,0.,12.5));
#702=CARTESIAN_POINT('',(6.75,0.,12.5));
#703=CARTESIAN_POINT('Origin',(10.,0.,12.5));
#704=CARTESIAN_POINT('Origin',(85.,0.,12.5));
#705=CARTESIAN_POINT('',(81.75,0.,12.5));
#706=CARTESIAN_POINT('',(81.75,0.,12.5));
#707=CARTESIAN_POINT('Origin',(85.,0.,12.5));
#708=CARTESIAN_POINT('Origin',(85.,0.,57.5));
#709=CARTESIAN_POINT('',(81.75,0.,57.5));
#710=CARTESIAN_POINT('',(81.75,0.,57.5));
#711=CARTESIAN_POINT('Origin',(85.,0.,57.5));
#712=CARTESIAN_POINT('Origin',(95.,0.,70.));
#713=CARTESIAN_POINT('',(95.,0.,70.));
#714=CARTESIAN_POINT('',(-2.46519032881566E-31,0.,70.));
#715=CARTESIAN_POINT('',(95.,0.,70.));
#716=CARTESIAN_POINT('',(95.,0.,70.));
#717=CARTESIAN_POINT('',(-2.46519032881566E-31,0.,70.));
#718=CARTESIAN_POINT('Origin',(95.,0.,4.31408307542741E-31));
#719=CARTESIAN_POINT('',(95.,0.,4.31408307542741E-31));
#720=CARTESIAN_POINT('',(95.,0.,4.31408307542741E-31));
#721=CARTESIAN_POINT('',(95.,0.,4.31408307542741E-31));
#722=CARTESIAN_POINT('Origin',(0.,0.,0.));
#723=CARTESIAN_POINT('',(0.,0.,0.));
#724=CARTESIAN_POINT('',(0.,0.,0.));
#725=CARTESIAN_POINT('',(0.,0.,0.));
#726=CARTESIAN_POINT('Origin',(-2.46519032881566E-31,0.,70.));
#727=CARTESIAN_POINT('',(-2.46519032881566E-31,0.,70.));
#728=CARTESIAN_POINT('Origin',(47.5,15.,35.));
#729=CARTESIAN_POINT('Origin',(47.5,0.,35.));
#730=UNCERTAINTY_MEASURE_WITH_UNIT(LENGTH_MEASURE(0.01),#734,
'DISTANCE_ACCURACY_VALUE',
'Maximum model space distance between geometric entities at asserted c
onnectivities');
#731=UNCERTAINTY_MEASURE_WITH_UNIT(LENGTH_MEASURE(0.01),#734,
'DISTANCE_ACCURACY_VALUE',
'Maximum model space distance between geometric entities at asserted c
onnectivities');
#732=(
GEOMETRIC_REPRESENTATION_CONTEXT(3)
GLOBAL_UNCERTAINTY_ASSIGNED_CONTEXT((#730))
GLOBAL_UNIT_ASSIGNED_CONTEXT((#734,#736,#737))
REPRESENTATION_CONTEXT('','3D')
);
#733=(
GEOMETRIC_REPRESENTATION_CONTEXT(3)
GLOBAL_UNCERTAINTY_ASSIGNED_CONTEXT((#731))
GLOBAL_UNIT_ASSIGNED_CONTEXT((#734,#736,#737))
REPRESENTATION_CONTEXT('','3D')
);
#734=(
LENGTH_UNIT()
NAMED_UNIT(*)
SI_UNIT(.MILLI.,.METRE.)
);
#735=(
LENGTH_UNIT()
NAMED_UNIT(*)
SI_UNIT($,.METRE.)
);
#736=(
NAMED_UNIT(*)
PLANE_ANGLE_UNIT()
SI_UNIT($,.RADIAN.)
);
#737=(
NAMED_UNIT(*)
SI_UNIT($,.STERADIAN.)
SOLID_ANGLE_UNIT()
);
#738=SHAPE_DEFINITION_REPRESENTATION(#739,#740);
#739=PRODUCT_DEFINITION_SHAPE('',$,#742);
#740=SHAPE_REPRESENTATION('',(#430),#732);
#741=PRODUCT_DEFINITION_CONTEXT('part definition',#746,'design');
#742=PRODUCT_DEFINITION('Top','Top',#743,#741);
#743=PRODUCT_DEFINITION_FORMATION('',$,#748);
#744=PRODUCT_RELATED_PRODUCT_CATEGORY('Top','Top',(#748));
#745=APPLICATION_PROTOCOL_DEFINITION('international standard',
'automotive_design',2009,#746);
#746=APPLICATION_CONTEXT(
'Core Data for Automotive Mechanical Design Process');
#747=PRODUCT_CONTEXT('part definition',#746,'mechanical');
#748=PRODUCT('Top','Top',$,(#747));
#749=PRESENTATION_STYLE_ASSIGNMENT((#750));
#750=SURFACE_STYLE_USAGE(.BOTH.,#751);
#751=SURFACE_SIDE_STYLE('',(#752));
#752=SURFACE_STYLE_FILL_AREA(#753);
#753=FILL_AREA_STYLE('Steel - Satin',(#754));
#754=FILL_AREA_STYLE_COLOUR('Steel - Satin',#755);
#755=COLOUR_RGB('Steel - Satin',0.627450980392157,0.627450980392157,0.627450980392157);
ENDSEC;
END-ISO-10303-21;
