ISO-10303-21;
HEADER;
FILE_DESCRIPTION (( 'STEP AP203' ),
    '1' );
FILE_NAME ('sb2.STEP',
    '2018-09-24T18:30:45',
    ( '' ),
    ( '' ),
    'SwSTEP 2.0',
    'SolidWorks 2014',
    '' );
FILE_SCHEMA (( 'CONFIG_CONTROL_DESIGN' ));
ENDSEC;

DATA;
#1 = ADVANCED_FACE ( 'NONE', ( #206 ), #333, .T. ) ;
#2 = EDGE_CURVE ( 'NONE', #285, #233, #262, .T. ) ;
#3 = FACE_OUTER_BOUND ( 'NONE', #155, .T. ) ;
#4 = CARTESIAN_POINT ( 'NONE',  ( 0.0000000000000000000, 0.0000000000000000000, 3.500000000000000000 ) ) ;
#5 = DIRECTION ( 'NONE',  ( -1.000000000000000000, 0.0000000000000000000, 0.0000000000000000000 ) ) ;
#6 = DIRECTION ( 'NONE',  ( 0.0000000000000000000, 0.0000000000000000000, 1.000000000000000000 ) ) ;
#7 = VERTEX_POINT ( 'NONE', #247 ) ;
#8 = PERSON_AND_ORGANIZATION ( #95, #107 ) ;
#9 = CC_DESIGN_PERSON_AND_ORGANIZATION_ASSIGNMENT ( #195, #272, ( #307 ) ) ;
#10 = ORIENTED_EDGE ( 'NONE', *, *, #283, .T. ) ;
#11 = CARTESIAN_POINT ( 'NONE',  ( 0.0000000000000000000, 0.0000000000000000000, 3.500000000000000000 ) ) ;
#12 = CIRCLE ( 'NONE', #87, 22.99999999999999300 ) ;
#13 = CIRCLE ( 'NONE', #165, 10.00000000000000000 ) ;
#14 = ADVANCED_BREP_SHAPE_REPRESENTATION ( 'sb2', ( #145, #268 ), #205 ) ;
#15 = AXIS2_PLACEMENT_3D ( 'NONE', #86, #34, #225 ) ;
#16 = ORIENTED_EDGE ( 'NONE', *, *, #147, .T. ) ;
#17 = DESIGN_CONTEXT ( 'detailed design', #219, 'design' ) ;
#18 = VERTEX_POINT ( 'NONE', #273 ) ;
#19 = EDGE_CURVE ( 'NONE', #18, #7, #194, .T. ) ;
#20 = LINE ( 'NONE', #222, #93 ) ;
#21 = DIRECTION ( 'NONE',  ( 1.000000000000000000, 0.0000000000000000000, 0.0000000000000000000 ) ) ;
#22 = EDGE_CURVE ( 'NONE', #91, #28, #121, .T. ) ;
#23 = DIRECTION ( 'NONE',  ( -1.000000000000000000, 0.0000000000000000000, 0.0000000000000000000 ) ) ;
#24 = ORIENTED_EDGE ( 'NONE', *, *, #301, .T. ) ;
#25 = ORIENTED_EDGE ( 'NONE', *, *, #289, .F. ) ;
#26 = EDGE_CURVE ( 'NONE', #91, #315, #187, .T. ) ;
#27 = CC_DESIGN_DATE_AND_TIME_ASSIGNMENT ( #258, #112, ( #307 ) ) ;
#28 = VERTEX_POINT ( 'NONE', #325 ) ;
#29 = PERSON_AND_ORGANIZATION_ROLE ( 'design_owner' ) ;
#30 = PERSON_AND_ORGANIZATION ( #95, #107 ) ;
#31 = DIRECTION ( 'NONE',  ( 0.0000000000000000000, 0.0000000000000000000, 1.000000000000000000 ) ) ;
#32 = VERTEX_POINT ( 'NONE', #70 ) ;
#33 = DIRECTION ( 'NONE',  ( 1.000000000000000000, 0.0000000000000000000, 0.0000000000000000000 ) ) ;
#34 = DIRECTION ( 'NONE',  ( 0.0000000000000000000, 0.0000000000000000000, 1.000000000000000000 ) ) ;
#35 = PERSON_AND_ORGANIZATION ( #95, #107 ) ;
#36 = CONICAL_SURFACE ( 'NONE', #192, 11.50000000000001100, 0.7853981633974459500 ) ;
#37 = DIRECTION ( 'NONE',  ( 0.0000000000000000000, 0.0000000000000000000, -1.000000000000000000 ) ) ;
#38 = ORIENTED_EDGE ( 'NONE', *, *, #211, .F. ) ;
#39 = COORDINATED_UNIVERSAL_TIME_OFFSET ( 1, 0, .AHEAD. ) ;
#40 = DIRECTION ( 'NONE',  ( 0.0000000000000000000, 0.0000000000000000000, -1.000000000000000000 ) ) ;
#41 = ORIENTED_EDGE ( 'NONE', *, *, #339, .F. ) ;
#42 = EDGE_CURVE ( 'NONE', #7, #233, #256, .T. ) ;
#43 = EDGE_LOOP ( 'NONE', ( #306, #38, #80, #102 ) ) ;
#44 = FACE_OUTER_BOUND ( 'NONE', #236, .T. ) ;
#45 = LOCAL_TIME ( 20, 30, 45.00000000000000000, #124 ) ;
#46 = PRODUCT_DEFINITION_FORMATION_WITH_SPECIFIED_SOURCE ( 'ANY', '', #305, .NOT_KNOWN. ) ;
#47 = DIRECTION ( 'NONE',  ( 0.7071067811865451300, 8.659560562354904500E-017, -0.7071067811865500200 ) ) ;
#48 = DIRECTION ( 'NONE',  ( 1.000000000000000000, 0.0000000000000000000, -0.0000000000000000000 ) ) ;
#49 = CARTESIAN_POINT ( 'NONE',  ( 10.00000000000000000, 1.224646799147353300E-015, 3.500000000000000000 ) ) ;
#50 = FACE_OUTER_BOUND ( 'NONE', #309, .T. ) ;
#51 = AXIS2_PLACEMENT_3D ( 'NONE', #228, #66, #259 ) ;
#52 = CALENDAR_DATE ( 2018, 24, 9 ) ;
#53 = DIRECTION ( 'NONE',  ( -0.7071067811865459100, 0.0000000000000000000, -0.7071067811865491300 ) ) ;
#54 = CONICAL_SURFACE ( 'NONE', #277, 11.50000000000001100, 0.7853981633974459500 ) ;
#55 = APPLICATION_PROTOCOL_DEFINITION ( 'international standard', 'config_control_design', 1994, #219 ) ;
#56 = CARTESIAN_POINT ( 'NONE',  ( -10.00000000000000000, 0.0000000000000000000, 3.500000000000000000 ) ) ;
#57 = CYLINDRICAL_SURFACE ( 'NONE', #109, 22.99999999999999300 ) ;
#58 = ADVANCED_FACE ( 'NONE', ( #131 ), #36, .F. ) ;
#59 = EDGE_CURVE ( 'NONE', #7, #18, #108, .T. ) ;
#60 = CARTESIAN_POINT ( 'NONE',  ( 0.0000000000000000000, 0.0000000000000000000, 0.0000000000000000000 ) ) ;
#61 = CARTESIAN_POINT ( 'NONE',  ( 0.0000000000000000000, 0.0000000000000000000, 1.500000000000017300 ) ) ;
#62 = DIRECTION ( 'NONE',  ( 0.0000000000000000000, 0.0000000000000000000, 1.000000000000000000 ) ) ;
#63 = CALENDAR_DATE ( 2018, 24, 9 ) ;
#64 = EDGE_LOOP ( 'NONE', ( #113, #24, #77, #252 ) ) ;
#65 = APPROVAL ( #297, 'UNSPECIFIED' ) ;
#66 = DIRECTION ( 'NONE',  ( 0.0000000000000000000, 0.0000000000000000000, 1.000000000000000000 ) ) ;
#67 = CIRCLE ( 'NONE', #347, 10.00000000000000000 ) ;
#68 = AXIS2_PLACEMENT_3D ( 'NONE', #253, #62, #257 ) ;
#69 = DATE_AND_TIME ( #151, #216 ) ;
#70 = CARTESIAN_POINT ( 'NONE',  ( 22.99999999999999300, 2.816687638038911600E-015, 0.0000000000000000000 ) ) ;
#71 = EDGE_CURVE ( 'NONE', #315, #184, #254, .T. ) ;
#72 = DIRECTION ( 'NONE',  ( -0.0000000000000000000, -0.0000000000000000000, -1.000000000000000000 ) ) ;
#73 = VECTOR ( 'NONE', #53, 1000.000000000000100 ) ;
#74 = UNCERTAINTY_MEASURE_WITH_UNIT (LENGTH_MEASURE( 1.000000000000000100E-005 ), #78, 'distance_accuracy_value', 'NONE');
#75 = CLOSED_SHELL ( 'NONE', ( #299, #58, #326, #1, #220, #83, #248, #115, #170, #198 ) ) ;
#76 = PERSON_AND_ORGANIZATION ( #95, #107 ) ;
#77 = ORIENTED_EDGE ( 'NONE', *, *, #59, .T. ) ;
#78 =( LENGTH_UNIT ( ) NAMED_UNIT ( * ) SI_UNIT ( .MILLI., .METRE. ) );
#79 = CC_DESIGN_APPROVAL ( #65, ( #46 ) ) ;
#80 = ORIENTED_EDGE ( 'NONE', *, *, #71, .T. ) ;
#81 = APPROVAL_ROLE ( '' ) ;
#82 = LINE ( 'NONE', #308, #176 ) ;
#83 = ADVANCED_FACE ( 'NONE', ( #241, #186 ), #203, .F. ) ;
#84 = PERSON_AND_ORGANIZATION_ROLE ( 'creator' ) ;
#85 = VECTOR ( 'NONE', #239, 1000.000000000000000 ) ;
#86 = CARTESIAN_POINT ( 'NONE',  ( 0.0000000000000000000, 0.0000000000000000000, 3.500000000000000000 ) ) ;
#87 = AXIS2_PLACEMENT_3D ( 'NONE', #300, #141, #327 ) ;
#88 = DIRECTION ( 'NONE',  ( 1.000000000000000000, 0.0000000000000000000, 0.0000000000000000000 ) ) ;
#89 = ORIENTED_EDGE ( 'NONE', *, *, #94, .F. ) ;
#90 = ORIENTED_EDGE ( 'NONE', *, *, #26, .F. ) ;
#91 = VERTEX_POINT ( 'NONE', #266 ) ;
#92 = DIRECTION ( 'NONE',  ( -1.000000000000000000, 0.0000000000000000000, 0.0000000000000000000 ) ) ;
#93 = VECTOR ( 'NONE', #144, 1000.000000000000000 ) ;
#94 = EDGE_CURVE ( 'NONE', #184, #28, #97, .T. ) ;
#95 = PERSON ( 'UNSPECIFIED', 'UNSPECIFIED', 'UNSPECIFIED', ('UNSPECIFIED'), ('UNSPECIFIED'), ('UNSPECIFIED') ) ;
#96 = DIRECTION ( 'NONE',  ( -0.0000000000000000000, -0.0000000000000000000, -1.000000000000000000 ) ) ;
#97 = CIRCLE ( 'NONE', #238, 22.99999999999999300 ) ;
#98 = ORIENTED_EDGE ( 'NONE', *, *, #59, .F. ) ;
#99 = ORIENTED_EDGE ( 'NONE', *, *, #339, .T. ) ;
#100 = CC_DESIGN_PERSON_AND_ORGANIZATION_ASSIGNMENT ( #30, #84, ( #46 ) ) ;
#101 = APPROVAL_DATE_TIME ( #181, #65 ) ;
#102 = ORIENTED_EDGE ( 'NONE', *, *, #311, .F. ) ;
#103 = DIRECTION ( 'NONE',  ( -1.000000000000000000, 0.0000000000000000000, 0.0000000000000000000 ) ) ;
#104 = DIRECTION ( 'NONE',  ( -1.000000000000000000, 0.0000000000000000000, 0.0000000000000000000 ) ) ;
#105 = ORIENTED_EDGE ( 'NONE', *, *, #42, .F. ) ;
#106 = CARTESIAN_POINT ( 'NONE',  ( 0.0000000000000000000, 0.0000000000000000000, 3.500000000000000000 ) ) ;
#107 = ORGANIZATION ( 'UNSPECIFIED', 'UNSPECIFIED', '' ) ;
#108 = CIRCLE ( 'NONE', #207, 10.00000000000000000 ) ;
#109 = AXIS2_PLACEMENT_3D ( 'NONE', #180, #123, #336 ) ;
#110 =( NAMED_UNIT ( * ) SI_UNIT ( $, .STERADIAN. ) SOLID_ANGLE_UNIT ( ) );
#111 = APPROVAL_PERSON_ORGANIZATION ( #188, #65, #251 ) ;
#112 = DATE_TIME_ROLE ( 'creation_date' ) ;
#113 = ORIENTED_EDGE ( 'NONE', *, *, #318, .T. ) ;
#114 = CARTESIAN_POINT ( 'NONE',  ( 0.0000000000000000000, 0.0000000000000000000, 0.0000000000000000000 ) ) ;
#115 = ADVANCED_FACE ( 'NONE', ( #44 ), #284, .F. ) ;
#116 = DIRECTION ( 'NONE',  ( 1.000000000000000000, 0.0000000000000000000, 0.0000000000000000000 ) ) ;
#117 = SECURITY_CLASSIFICATION_LEVEL ( 'unclassified' ) ;
#118 = AXIS2_PLACEMENT_3D ( 'NONE', #344, #190, #21 ) ;
#119 = EDGE_LOOP ( 'NONE', ( #179, #215 ) ) ;
#120 = CARTESIAN_POINT ( 'NONE',  ( 10.00000000000000000, 1.224646799147353300E-015, 3.500000000000000000 ) ) ;
#121 = LINE ( 'NONE', #160, #322 ) ;
#122 = DIRECTION ( 'NONE',  ( -0.7071067811865451300, 0.0000000000000000000, -0.7071067811865500200 ) ) ;
#123 = DIRECTION ( 'NONE',  ( -0.0000000000000000000, -0.0000000000000000000, -1.000000000000000000 ) ) ;
#124 = COORDINATED_UNIVERSAL_TIME_OFFSET ( 1, 0, .AHEAD. ) ;
#125 = CC_DESIGN_PERSON_AND_ORGANIZATION_ASSIGNMENT ( #76, #275, ( #46 ) ) ;
#126 = VERTEX_POINT ( 'NONE', #142 ) ;
#127 = VECTOR ( 'NONE', #133, 1000.000000000000000 ) ;
#128 = CARTESIAN_POINT ( 'NONE',  ( 0.0000000000000000000, 0.0000000000000000000, 3.500000000000000000 ) ) ;
#129 = AXIS2_PLACEMENT_3D ( 'NONE', #11, #40, #92 ) ;
#130 = LOCAL_TIME ( 20, 30, 45.00000000000000000, #154 ) ;
#131 = FACE_OUTER_BOUND ( 'NONE', #296, .T. ) ;
#132 = AXIS2_PLACEMENT_3D ( 'NONE', #114, #298, #140 ) ;
#133 = DIRECTION ( 'NONE',  ( -0.0000000000000000000, -0.0000000000000000000, -1.000000000000000000 ) ) ;
#134 = DIRECTION ( 'NONE',  ( 1.000000000000000000, 0.0000000000000000000, 0.0000000000000000000 ) ) ;
#135 = CARTESIAN_POINT ( 'NONE',  ( 0.0000000000000000000, 0.0000000000000000000, 2.000000000000009300 ) ) ;
#136 = LOCAL_TIME ( 20, 30, 45.00000000000000000, #209 ) ;
#137 = EDGE_LOOP ( 'NONE', ( #294, #16 ) ) ;
#138 = APPLICATION_PROTOCOL_DEFINITION ( 'international standard', 'config_control_design', 1994, #168 ) ;
#139 = SECURITY_CLASSIFICATION ( '', '', #117 ) ;
#140 = DIRECTION ( 'NONE',  ( 1.000000000000000000, 0.0000000000000000000, 0.0000000000000000000 ) ) ;
#141 = DIRECTION ( 'NONE',  ( 0.0000000000000000000, 0.0000000000000000000, 1.000000000000000000 ) ) ;
#142 = CARTESIAN_POINT ( 'NONE',  ( -10.00000000000000000, 0.0000000000000000000, 3.500000000000000000 ) ) ;
#143 = DATE_TIME_ROLE ( 'classification_date' ) ;
#144 = DIRECTION ( 'NONE',  ( -0.0000000000000000000, -0.0000000000000000000, -1.000000000000000000 ) ) ;
#145 = MANIFOLD_SOLID_BREP ( 'Chanfrein1', #75 ) ;
#146 = FACE_OUTER_BOUND ( 'NONE', #243, .T. ) ;
#147 = EDGE_CURVE ( 'NONE', #233, #285, #213, .T. ) ;
#148 = CARTESIAN_POINT ( 'NONE',  ( 0.0000000000000000000, 0.0000000000000000000, 3.500000000000000000 ) ) ;
#149 = AXIS2_PLACEMENT_3D ( 'NONE', #135, #321, #282 ) ;
#150 = ORIENTED_EDGE ( 'NONE', *, *, #265, .F. ) ;
#151 = CALENDAR_DATE ( 2018, 24, 9 ) ;
#152 = CARTESIAN_POINT ( 'NONE',  ( 11.50000000000001100, 1.408343819019457600E-015, 0.0000000000000000000 ) ) ;
#153 = AXIS2_PLACEMENT_3D ( 'NONE', #128, #96, #104 ) ;
#154 = COORDINATED_UNIVERSAL_TIME_OFFSET ( 1, 0, .AHEAD. ) ;
#155 = EDGE_LOOP ( 'NONE', ( #227, #264 ) ) ;
#156 = ORIENTED_EDGE ( 'NONE', *, *, #22, .T. ) ;
#157 = CC_DESIGN_PERSON_AND_ORGANIZATION_ASSIGNMENT ( #8, #303, ( #139 ) ) ;
#158 = ORIENTED_EDGE ( 'NONE', *, *, #311, .T. ) ;
#159 = FACE_OUTER_BOUND ( 'NONE', #310, .T. ) ;
#160 = CARTESIAN_POINT ( 'NONE',  ( 21.50000000000001100, 2.632990618166810800E-015, 3.500000000000000000 ) ) ;
#161 = FACE_OUTER_BOUND ( 'NONE', #64, .T. ) ;
#162 = CARTESIAN_POINT ( 'NONE',  ( 0.0000000000000000000, 0.0000000000000000000, 2.000000000000009300 ) ) ;
#163 = CARTESIAN_POINT ( 'NONE',  ( -22.99999999999999300, 0.0000000000000000000, 0.0000000000000000000 ) ) ;
#164 = CARTESIAN_POINT ( 'NONE',  ( 11.50000000000001100, 1.408343819019457600E-015, 0.0000000000000000000 ) ) ;
#165 = AXIS2_PLACEMENT_3D ( 'NONE', #148, #334, #177 ) ;
#166 = ORIENTED_EDGE ( 'NONE', *, *, #71, .F. ) ;
#167 = ORIENTED_EDGE ( 'NONE', *, *, #301, .F. ) ;
#168 = APPLICATION_CONTEXT ( 'configuration controlled 3d designs of mechanical parts and assemblies' ) ;
#169 = CONICAL_SURFACE ( 'NONE', #331, 21.50000000000001100, 0.7853981633974447300 ) ;
#170 = ADVANCED_FACE ( 'NONE', ( #146 ), #54, .F. ) ;
#171 = CARTESIAN_POINT ( 'NONE',  ( -11.50000000000001100, 0.0000000000000000000, 0.0000000000000000000 ) ) ;
#172 = CARTESIAN_POINT ( 'NONE',  ( 0.0000000000000000000, 0.0000000000000000000, 0.0000000000000000000 ) ) ;
#173 = APPROVAL_ROLE ( '' ) ;
#174 = AXIS2_PLACEMENT_3D ( 'NONE', #106, #291, #134 ) ;
#175 = PLANE ( 'NONE',  #68 ) ;
#176 = VECTOR ( 'NONE', #274, 1000.000000000000000 ) ;
#177 = DIRECTION ( 'NONE',  ( 1.000000000000000000, 0.0000000000000000000, 0.0000000000000000000 ) ) ;
#178 = ORIENTED_EDGE ( 'NONE', *, *, #42, .T. ) ;
#179 = ORIENTED_EDGE ( 'NONE', *, *, #318, .F. ) ;
#180 = CARTESIAN_POINT ( 'NONE',  ( 0.0000000000000000000, 0.0000000000000000000, 3.500000000000000000 ) ) ;
#181 = DATE_AND_TIME ( #244, #316 ) ;
#182 = CC_DESIGN_DATE_AND_TIME_ASSIGNMENT ( #69, #143, ( #139 ) ) ;
#183 = ORIENTED_EDGE ( 'NONE', *, *, #231, .T. ) ;
#184 = VERTEX_POINT ( 'NONE', #302 ) ;
#185 = SHAPE_DEFINITION_REPRESENTATION ( #218, #14 ) ;
#186 = FACE_OUTER_BOUND ( 'NONE', #320, .T. ) ;
#187 = CIRCLE ( 'NONE', #174, 21.50000000000001100 ) ;
#188 = PERSON_AND_ORGANIZATION ( #95, #107 ) ;
#189 = VERTEX_POINT ( 'NONE', #120 ) ;
#190 = DIRECTION ( 'NONE',  ( -0.0000000000000000000, -0.0000000000000000000, -1.000000000000000000 ) ) ;
#191 = ORIENTED_EDGE ( 'NONE', *, *, #147, .F. ) ;
#192 = AXIS2_PLACEMENT_3D ( 'NONE', #237, #346, #23 ) ;
#193 = DIRECTION ( 'NONE',  ( 0.7071067811865459100, 8.659560562354911900E-017, -0.7071067811865491300 ) ) ;
#194 = CIRCLE ( 'NONE', #118, 10.00000000000000000 ) ;
#195 = PERSON_AND_ORGANIZATION ( #95, #107 ) ;
#196 = MECHANICAL_CONTEXT ( 'NONE', #168, 'mechanical' ) ;
#197 = APPROVAL ( #329, 'UNSPECIFIED' ) ;
#198 = ADVANCED_FACE ( 'NONE', ( #278 ), #169, .T. ) ;
#199 = EDGE_CURVE ( 'NONE', #189, #126, #67, .T. ) ;
#200 = DIRECTION ( 'NONE',  ( -0.0000000000000000000, -0.0000000000000000000, -1.000000000000000000 ) ) ;
#201 = DIRECTION ( 'NONE',  ( 0.0000000000000000000, 0.0000000000000000000, 1.000000000000000000 ) ) ;
#202 = LINE ( 'NONE', #56, #127 ) ;
#203 = PLANE ( 'NONE',  #261 ) ;
#204 = CARTESIAN_POINT ( 'NONE',  ( 0.0000000000000000000, 0.0000000000000000000, 0.0000000000000000000 ) ) ;
#205 =( GEOMETRIC_REPRESENTATION_CONTEXT ( 3 ) GLOBAL_UNCERTAINTY_ASSIGNED_CONTEXT ( ( #74 ) ) GLOBAL_UNIT_ASSIGNED_CONTEXT ( ( #78, #270, #110 ) ) REPRESENTATION_CONTEXT ( 'NONE', 'WORKASPACE' ) );
#206 = FACE_OUTER_BOUND ( 'NONE', #317, .T. ) ;
#207 = AXIS2_PLACEMENT_3D ( 'NONE', #61, #255, #88 ) ;
#208 = FACE_BOUND ( 'NONE', #119, .T. ) ;
#209 = COORDINATED_UNIVERSAL_TIME_OFFSET ( 1, 0, .AHEAD. ) ;
#210 = CC_DESIGN_APPROVAL ( #197, ( #139 ) ) ;
#211 = EDGE_CURVE ( 'NONE', #315, #91, #345, .T. ) ;
#212 = DIRECTION ( 'NONE',  ( 0.0000000000000000000, 0.0000000000000000000, 1.000000000000000000 ) ) ;
#213 = CIRCLE ( 'NONE', #292, 11.50000000000001100 ) ;
#214 = AXIS2_PLACEMENT_3D ( 'NONE', #267, #293, #279 ) ;
#215 = ORIENTED_EDGE ( 'NONE', *, *, #199, .F. ) ;
#216 = LOCAL_TIME ( 20, 30, 45.00000000000000000, #286 ) ;
#217 = CARTESIAN_POINT ( 'NONE',  ( -11.50000000000001100, 0.0000000000000000000, 0.0000000000000000000 ) ) ;
#218 = PRODUCT_DEFINITION_SHAPE ( 'NONE', 'NONE',  #307 ) ;
#219 = APPLICATION_CONTEXT ( 'configuration controlled 3d designs of mechanical parts and assemblies' ) ;
#220 = ADVANCED_FACE ( 'NONE', ( #3, #208 ), #175, .T. ) ;
#221 = LINE ( 'NONE', #217, #73 ) ;
#222 = CARTESIAN_POINT ( 'NONE',  ( -22.99999999999999300, 0.0000000000000000000, 3.500000000000000000 ) ) ;
#223 = ORIENTED_EDGE ( 'NONE', *, *, #289, .T. ) ;
#224 = CARTESIAN_POINT ( 'NONE',  ( -21.50000000000001100, 0.0000000000000000000, 3.500000000000000000 ) ) ;
#225 = DIRECTION ( 'NONE',  ( 1.000000000000000000, 0.0000000000000000000, 0.0000000000000000000 ) ) ;
#226 = ORIENTED_EDGE ( 'NONE', *, *, #265, .T. ) ;
#227 = ORIENTED_EDGE ( 'NONE', *, *, #211, .T. ) ;
#228 = CARTESIAN_POINT ( 'NONE',  ( 0.0000000000000000000, 0.0000000000000000000, 0.0000000000000000000 ) ) ;
#229 = CC_DESIGN_SECURITY_CLASSIFICATION ( #139, ( #46 ) ) ;
#230 = CIRCLE ( 'NONE', #51, 22.99999999999999300 ) ;
#231 = EDGE_CURVE ( 'NONE', #184, #288, #20, .T. ) ;
#232 = CIRCLE ( 'NONE', #149, 22.99999999999999300 ) ;
#233 = VERTEX_POINT ( 'NONE', #152 ) ;
#234 = ORIENTED_EDGE ( 'NONE', *, *, #94, .T. ) ;
#235 = ORIENTED_EDGE ( 'NONE', *, *, #19, .T. ) ;
#236 = EDGE_LOOP ( 'NONE', ( #167, #271, #10, #235 ) ) ;
#237 = CARTESIAN_POINT ( 'NONE',  ( 0.0000000000000000000, 0.0000000000000000000, 0.0000000000000000000 ) ) ;
#238 = AXIS2_PLACEMENT_3D ( 'NONE', #162, #37, #116 ) ;
#239 = DIRECTION ( 'NONE',  ( -0.0000000000000000000, -0.0000000000000000000, -1.000000000000000000 ) ) ;
#240 = APPROVAL_PERSON_ORGANIZATION ( #313, #323, #81 ) ;
#241 = FACE_BOUND ( 'NONE', #137, .T. ) ;
#242 = ORIENTED_EDGE ( 'NONE', *, *, #2, .F. ) ;
#243 = EDGE_LOOP ( 'NONE', ( #105, #295, #99, #191 ) ) ;
#244 = CALENDAR_DATE ( 2018, 24, 9 ) ;
#245 = APPROVAL_STATUS ( 'not_yet_approved' ) ;
#246 = PRODUCT_RELATED_PRODUCT_CATEGORY ( 'detail', '', ( #305 ) ) ;
#247 = CARTESIAN_POINT ( 'NONE',  ( 10.00000000000000000, 1.224646799147353300E-015, 1.500000000000017300 ) ) ;
#248 = ADVANCED_FACE ( 'NONE', ( #159 ), #57, .T. ) ;
#249 = ORIENTED_EDGE ( 'NONE', *, *, #250, .F. ) ;
#250 = EDGE_CURVE ( 'NONE', #32, #288, #12, .T. ) ;
#251 = APPROVAL_ROLE ( '' ) ;
#252 = ORIENTED_EDGE ( 'NONE', *, *, #283, .F. ) ;
#253 = CARTESIAN_POINT ( 'NONE',  ( 0.0000000000000000000, 0.0000000000000000000, 3.500000000000000000 ) ) ;
#254 = LINE ( 'NONE', #224, #314 ) ;
#255 = DIRECTION ( 'NONE',  ( -0.0000000000000000000, -0.0000000000000000000, -1.000000000000000000 ) ) ;
#256 = LINE ( 'NONE', #164, #338 ) ;
#257 = DIRECTION ( 'NONE',  ( 1.000000000000000000, 0.0000000000000000000, -0.0000000000000000000 ) ) ;
#258 = DATE_AND_TIME ( #324, #45 ) ;
#259 = DIRECTION ( 'NONE',  ( 1.000000000000000000, 0.0000000000000000000, 0.0000000000000000000 ) ) ;
#260 = ORIENTED_EDGE ( 'NONE', *, *, #231, .F. ) ;
#261 = AXIS2_PLACEMENT_3D ( 'NONE', #280, #212, #48 ) ;
#262 = CIRCLE ( 'NONE', #132, 11.50000000000001100 ) ;
#263 = APPROVAL_DATE_TIME ( #335, #323 ) ;
#264 = ORIENTED_EDGE ( 'NONE', *, *, #26, .T. ) ;
#265 = EDGE_CURVE ( 'NONE', #28, #32, #82, .T. ) ;
#266 = CARTESIAN_POINT ( 'NONE',  ( 21.50000000000001100, 2.724839128102861000E-015, 3.500000000000000000 ) ) ;
#267 = CARTESIAN_POINT ( 'NONE',  ( 0.0000000000000000000, 0.0000000000000000000, 3.500000000000000000 ) ) ;
#268 = AXIS2_PLACEMENT_3D ( 'NONE', #204, #6, #349 ) ;
#269 = APPROVAL_DATE_TIME ( #342, #197 ) ;
#270 =( NAMED_UNIT ( * ) PLANE_ANGLE_UNIT ( ) SI_UNIT ( $, .RADIAN. ) );
#271 = ORIENTED_EDGE ( 'NONE', *, *, #199, .T. ) ;
#272 = PERSON_AND_ORGANIZATION_ROLE ( 'creator' ) ;
#273 = CARTESIAN_POINT ( 'NONE',  ( -10.00000000000000000, 0.0000000000000000000, 1.500000000000017300 ) ) ;
#274 = DIRECTION ( 'NONE',  ( -0.0000000000000000000, -0.0000000000000000000, -1.000000000000000000 ) ) ;
#275 = PERSON_AND_ORGANIZATION_ROLE ( 'design_supplier' ) ;
#276 = DIRECTION ( 'NONE',  ( 1.000000000000000000, 0.0000000000000000000, 0.0000000000000000000 ) ) ;
#277 = AXIS2_PLACEMENT_3D ( 'NONE', #172, #200, #328 ) ;
#278 = FACE_OUTER_BOUND ( 'NONE', #43, .T. ) ;
#279 = DIRECTION ( 'NONE',  ( -1.000000000000000000, 0.0000000000000000000, 0.0000000000000000000 ) ) ;
#280 = CARTESIAN_POINT ( 'NONE',  ( 0.0000000000000000000, 0.0000000000000000000, 0.0000000000000000000 ) ) ;
#281 = APPROVAL_PERSON_ORGANIZATION ( #348, #197, #173 ) ;
#282 = DIRECTION ( 'NONE',  ( 1.000000000000000000, 0.0000000000000000000, 0.0000000000000000000 ) ) ;
#283 = EDGE_CURVE ( 'NONE', #126, #18, #202, .T. ) ;
#284 = CYLINDRICAL_SURFACE ( 'NONE', #312, 10.00000000000000000 ) ;
#285 = VERTEX_POINT ( 'NONE', #171 ) ;
#286 = COORDINATED_UNIVERSAL_TIME_OFFSET ( 1, 0, .AHEAD. ) ;
#287 = CC_DESIGN_PERSON_AND_ORGANIZATION_ASSIGNMENT ( #35, #29, ( #305 ) ) ;
#288 = VERTEX_POINT ( 'NONE', #163 ) ;
#289 = EDGE_CURVE ( 'NONE', #288, #32, #230, .T. ) ;
#290 = CONICAL_SURFACE ( 'NONE', #129, 21.50000000000001100, 0.7853981633974447300 ) ;
#291 = DIRECTION ( 'NONE',  ( 0.0000000000000000000, 0.0000000000000000000, 1.000000000000000000 ) ) ;
#292 = AXIS2_PLACEMENT_3D ( 'NONE', #60, #31, #276 ) ;
#293 = DIRECTION ( 'NONE',  ( -0.0000000000000000000, -0.0000000000000000000, -1.000000000000000000 ) ) ;
#294 = ORIENTED_EDGE ( 'NONE', *, *, #2, .T. ) ;
#295 = ORIENTED_EDGE ( 'NONE', *, *, #19, .F. ) ;
#296 = EDGE_LOOP ( 'NONE', ( #98, #178, #242, #41 ) ) ;
#297 = APPROVAL_STATUS ( 'not_yet_approved' ) ;
#298 = DIRECTION ( 'NONE',  ( 0.0000000000000000000, 0.0000000000000000000, 1.000000000000000000 ) ) ;
#299 = ADVANCED_FACE ( 'NONE', ( #50 ), #290, .T. ) ;
#300 = CARTESIAN_POINT ( 'NONE',  ( 0.0000000000000000000, 0.0000000000000000000, 0.0000000000000000000 ) ) ;
#301 = EDGE_CURVE ( 'NONE', #189, #7, #332, .T. ) ;
#302 = CARTESIAN_POINT ( 'NONE',  ( -22.99999999999999300, 0.0000000000000000000, 2.000000000000009300 ) ) ;
#303 = PERSON_AND_ORGANIZATION_ROLE ( 'classification_officer' ) ;
#304 = DIRECTION ( 'NONE',  ( 0.0000000000000000000, 0.0000000000000000000, -1.000000000000000000 ) ) ;
#305 = PRODUCT ( 'sb2', 'sb2', '', ( #196 ) ) ;
#306 = ORIENTED_EDGE ( 'NONE', *, *, #22, .F. ) ;
#307 = PRODUCT_DEFINITION ( 'UNKNOWN', '', #46, #17 ) ;
#308 = CARTESIAN_POINT ( 'NONE',  ( 22.99999999999999300, 2.816687638038911600E-015, 3.500000000000000000 ) ) ;
#309 = EDGE_LOOP ( 'NONE', ( #90, #156, #89, #166 ) ) ;
#310 = EDGE_LOOP ( 'NONE', ( #150, #158, #183, #223 ) ) ;
#311 = EDGE_CURVE ( 'NONE', #28, #184, #232, .T. ) ;
#312 = AXIS2_PLACEMENT_3D ( 'NONE', #319, #72, #103 ) ;
#313 = PERSON_AND_ORGANIZATION ( #95, #107 ) ;
#314 = VECTOR ( 'NONE', #122, 1000.000000000000100 ) ;
#315 = VERTEX_POINT ( 'NONE', #337 ) ;
#316 = LOCAL_TIME ( 20, 30, 45.00000000000000000, #39 ) ;
#317 = EDGE_LOOP ( 'NONE', ( #234, #226, #343, #260 ) ) ;
#318 = EDGE_CURVE ( 'NONE', #126, #189, #13, .T. ) ;
#319 = CARTESIAN_POINT ( 'NONE',  ( 0.0000000000000000000, 0.0000000000000000000, 3.500000000000000000 ) ) ;
#320 = EDGE_LOOP ( 'NONE', ( #25, #249 ) ) ;
#321 = DIRECTION ( 'NONE',  ( 0.0000000000000000000, 0.0000000000000000000, -1.000000000000000000 ) ) ;
#322 = VECTOR ( 'NONE', #47, 1000.000000000000100 ) ;
#323 = APPROVAL ( #245, 'UNSPECIFIED' ) ;
#324 = CALENDAR_DATE ( 2018, 24, 9 ) ;
#325 = CARTESIAN_POINT ( 'NONE',  ( 22.99999999999999300, 2.816687638038911600E-015, 2.000000000000009300 ) ) ;
#326 = ADVANCED_FACE ( 'NONE', ( #161 ), #340, .F. ) ;
#327 = DIRECTION ( 'NONE',  ( 1.000000000000000000, 0.0000000000000000000, 0.0000000000000000000 ) ) ;
#328 = DIRECTION ( 'NONE',  ( -1.000000000000000000, 0.0000000000000000000, 0.0000000000000000000 ) ) ;
#329 = APPROVAL_STATUS ( 'not_yet_approved' ) ;
#330 = CARTESIAN_POINT ( 'NONE',  ( 0.0000000000000000000, 0.0000000000000000000, 3.500000000000000000 ) ) ;
#331 = AXIS2_PLACEMENT_3D ( 'NONE', #330, #304, #5 ) ;
#332 = LINE ( 'NONE', #49, #85 ) ;
#333 = CYLINDRICAL_SURFACE ( 'NONE', #153, 22.99999999999999300 ) ;
#334 = DIRECTION ( 'NONE',  ( 0.0000000000000000000, 0.0000000000000000000, 1.000000000000000000 ) ) ;
#335 = DATE_AND_TIME ( #52, #130 ) ;
#336 = DIRECTION ( 'NONE',  ( -1.000000000000000000, 0.0000000000000000000, 0.0000000000000000000 ) ) ;
#337 = CARTESIAN_POINT ( 'NONE',  ( -21.50000000000001100, 0.0000000000000000000, 3.500000000000000000 ) ) ;
#338 = VECTOR ( 'NONE', #193, 1000.000000000000100 ) ;
#339 = EDGE_CURVE ( 'NONE', #18, #285, #221, .T. ) ;
#340 = CYLINDRICAL_SURFACE ( 'NONE', #214, 10.00000000000000000 ) ;
#341 = CC_DESIGN_APPROVAL ( #323, ( #307 ) ) ;
#342 = DATE_AND_TIME ( #63, #136 ) ;
#343 = ORIENTED_EDGE ( 'NONE', *, *, #250, .T. ) ;
#344 = CARTESIAN_POINT ( 'NONE',  ( 0.0000000000000000000, 0.0000000000000000000, 1.500000000000017300 ) ) ;
#345 = CIRCLE ( 'NONE', #15, 21.50000000000001100 ) ;
#346 = DIRECTION ( 'NONE',  ( -0.0000000000000000000, -0.0000000000000000000, -1.000000000000000000 ) ) ;
#347 = AXIS2_PLACEMENT_3D ( 'NONE', #4, #201, #33 ) ;
#348 = PERSON_AND_ORGANIZATION ( #95, #107 ) ;
#349 = DIRECTION ( 'NONE',  ( 1.000000000000000000, 0.0000000000000000000, 0.0000000000000000000 ) ) ;
ENDSEC;
END-ISO-10303-21;
