ISO-10303-21;
HEADER;
/* Generated by software containing ST-Developer
 * from STEP Tools, Inc. (www.steptools.com) 
 */

FILE_DESCRIPTION(
/* description */ (''),
/* implementation_level */ '2;1');

FILE_NAME(
/* name */ 'C:\\Users\\Jean\\Documents\\Inventor\\Rotule_lit\\rotule.s
tp',
/* time_stamp */ '2018-09-19T10:42:02+02:00',
/* author */ ('Jean'),
/* organization */ (''),
/* preprocessor_version */ 'ST-DEVELOPER v16.5',
/* originating_system */ 'Autodesk Inventor 2017',
/* authorisation */ '');

FILE_SCHEMA (('AUTOMOTIVE_DESIGN { 1 0 10303 214 3 1 1 }'));
ENDSEC;

DATA;
#10=MECHANICAL_DESIGN_GEOMETRIC_PRESENTATION_REPRESENTATION('',(#13),#432);
#11=SHAPE_REPRESENTATION_RELATIONSHIP('SRR','None',#441,#12);
#12=ADVANCED_BREP_SHAPE_REPRESENTATION('',(#14),#431);
#13=STYLED_ITEM('',(#450),#14);
#14=MANIFOLD_SOLID_BREP('Solide1',#263);
#15=FACE_BOUND('',#47,.T.);
#16=FACE_BOUND('',#53,.T.);
#17=FACE_BOUND('',#55,.T.);
#18=FACE_BOUND('',#58,.T.);
#19=FACE_BOUND('',#61,.T.);
#20=FACE_BOUND('',#63,.T.);
#21=PLANE('',#268);
#22=PLANE('',#271);
#23=PLANE('',#274);
#24=PLANE('',#275);
#25=PLANE('',#276);
#26=PLANE('',#280);
#27=PLANE('',#283);
#28=PLANE('',#284);
#29=PLANE('',#285);
#30=PLANE('',#286);
#31=FACE_OUTER_BOUND('',#45,.T.);
#32=FACE_OUTER_BOUND('',#46,.T.);
#33=FACE_OUTER_BOUND('',#48,.T.);
#34=FACE_OUTER_BOUND('',#49,.T.);
#35=FACE_OUTER_BOUND('',#50,.T.);
#36=FACE_OUTER_BOUND('',#51,.T.);
#37=FACE_OUTER_BOUND('',#52,.T.);
#38=FACE_OUTER_BOUND('',#54,.T.);
#39=FACE_OUTER_BOUND('',#56,.T.);
#40=FACE_OUTER_BOUND('',#57,.T.);
#41=FACE_OUTER_BOUND('',#59,.T.);
#42=FACE_OUTER_BOUND('',#60,.T.);
#43=FACE_OUTER_BOUND('',#62,.T.);
#44=FACE_OUTER_BOUND('',#64,.T.);
#45=EDGE_LOOP('',(#179,#180,#181,#182));
#46=EDGE_LOOP('',(#183,#184,#185,#186,#187,#188,#189));
#47=EDGE_LOOP('',(#190));
#48=EDGE_LOOP('',(#191,#192,#193,#194));
#49=EDGE_LOOP('',(#195,#196,#197,#198));
#50=EDGE_LOOP('',(#199,#200,#201,#202));
#51=EDGE_LOOP('',(#203,#204,#205,#206));
#52=EDGE_LOOP('',(#207,#208,#209,#210,#211,#212));
#53=EDGE_LOOP('',(#213));
#54=EDGE_LOOP('',(#214));
#55=EDGE_LOOP('',(#215));
#56=EDGE_LOOP('',(#216,#217,#218,#219));
#57=EDGE_LOOP('',(#220));
#58=EDGE_LOOP('',(#221));
#59=EDGE_LOOP('',(#222,#223,#224,#225));
#60=EDGE_LOOP('',(#226,#227,#228,#229,#230));
#61=EDGE_LOOP('',(#231));
#62=EDGE_LOOP('',(#232,#233,#234,#235,#236,#237,#238,#239));
#63=EDGE_LOOP('',(#240));
#64=EDGE_LOOP('',(#241,#242,#243,#244));
#65=LINE('',#364,#90);
#66=LINE('',#367,#91);
#67=LINE('',#370,#92);
#68=LINE('',#374,#93);
#69=LINE('',#376,#94);
#70=LINE('',#378,#95);
#71=LINE('',#379,#96);
#72=LINE('',#384,#97);
#73=LINE('',#385,#98);
#74=LINE('',#389,#99);
#75=LINE('',#392,#100);
#76=LINE('',#394,#101);
#77=LINE('',#395,#102);
#78=LINE('',#398,#103);
#79=LINE('',#399,#104);
#80=LINE('',#402,#105);
#81=LINE('',#404,#106);
#82=LINE('',#405,#107);
#83=LINE('',#413,#108);
#84=LINE('',#414,#109);
#85=LINE('',#420,#110);
#86=LINE('',#421,#111);
#87=LINE('',#424,#112);
#88=LINE('',#425,#113);
#89=LINE('',#427,#114);
#90=VECTOR('',#293,10.);
#91=VECTOR('',#296,10.);
#92=VECTOR('',#299,10.);
#93=VECTOR('',#302,10.);
#94=VECTOR('',#303,10.);
#95=VECTOR('',#304,10.);
#96=VECTOR('',#305,10.);
#97=VECTOR('',#310,10.);
#98=VECTOR('',#311,10.);
#99=VECTOR('',#316,10.);
#100=VECTOR('',#319,10.);
#101=VECTOR('',#320,10.);
#102=VECTOR('',#321,10.);
#103=VECTOR('',#324,10.);
#104=VECTOR('',#325,10.);
#105=VECTOR('',#328,10.);
#106=VECTOR('',#329,10.);
#107=VECTOR('',#330,10.);
#108=VECTOR('',#339,10.);
#109=VECTOR('',#340,10.);
#110=VECTOR('',#347,10.);
#111=VECTOR('',#348,10.);
#112=VECTOR('',#351,10.);
#113=VECTOR('',#352,10.);
#114=VECTOR('',#355,10.);
#115=CIRCLE('',#266,5.);
#116=CIRCLE('',#267,5.);
#117=CIRCLE('',#269,5.);
#118=CIRCLE('',#270,5.);
#119=CIRCLE('',#273,5.);
#120=CIRCLE('',#277,5.);
#121=CIRCLE('',#279,5.);
#122=CIRCLE('',#282,5.);
#123=VERTEX_POINT('',#360);
#124=VERTEX_POINT('',#361);
#125=VERTEX_POINT('',#363);
#126=VERTEX_POINT('',#365);
#127=VERTEX_POINT('',#369);
#128=VERTEX_POINT('',#371);
#129=VERTEX_POINT('',#373);
#130=VERTEX_POINT('',#375);
#131=VERTEX_POINT('',#377);
#132=VERTEX_POINT('',#380);
#133=VERTEX_POINT('',#383);
#134=VERTEX_POINT('',#387);
#135=VERTEX_POINT('',#391);
#136=VERTEX_POINT('',#393);
#137=VERTEX_POINT('',#397);
#138=VERTEX_POINT('',#401);
#139=VERTEX_POINT('',#403);
#140=VERTEX_POINT('',#406);
#141=VERTEX_POINT('',#409);
#142=VERTEX_POINT('',#412);
#143=VERTEX_POINT('',#416);
#144=VERTEX_POINT('',#419);
#145=VERTEX_POINT('',#423);
#146=EDGE_CURVE('',#123,#124,#115,.T.);
#147=EDGE_CURVE('',#124,#125,#65,.T.);
#148=EDGE_CURVE('',#125,#126,#116,.T.);
#149=EDGE_CURVE('',#126,#123,#66,.T.);
#150=EDGE_CURVE('',#127,#125,#67,.T.);
#151=EDGE_CURVE('',#128,#127,#117,.T.);
#152=EDGE_CURVE('',#129,#128,#68,.T.);
#153=EDGE_CURVE('',#129,#130,#69,.T.);
#154=EDGE_CURVE('',#131,#130,#70,.T.);
#155=EDGE_CURVE('',#126,#131,#71,.T.);
#156=EDGE_CURVE('',#132,#132,#118,.T.);
#157=EDGE_CURVE('',#124,#133,#72,.T.);
#158=EDGE_CURVE('',#127,#133,#73,.T.);
#159=EDGE_CURVE('',#133,#134,#119,.T.);
#160=EDGE_CURVE('',#134,#128,#74,.T.);
#161=EDGE_CURVE('',#135,#129,#75,.T.);
#162=EDGE_CURVE('',#136,#135,#76,.T.);
#163=EDGE_CURVE('',#130,#136,#77,.T.);
#164=EDGE_CURVE('',#131,#137,#78,.T.);
#165=EDGE_CURVE('',#137,#123,#79,.T.);
#166=EDGE_CURVE('',#138,#136,#80,.T.);
#167=EDGE_CURVE('',#139,#138,#81,.T.);
#168=EDGE_CURVE('',#139,#137,#82,.T.);
#169=EDGE_CURVE('',#140,#140,#120,.T.);
#170=EDGE_CURVE('',#141,#141,#121,.T.);
#171=EDGE_CURVE('',#142,#134,#83,.T.);
#172=EDGE_CURVE('',#129,#142,#84,.T.);
#173=EDGE_CURVE('',#143,#143,#122,.T.);
#174=EDGE_CURVE('',#144,#135,#85,.T.);
#175=EDGE_CURVE('',#138,#144,#86,.T.);
#176=EDGE_CURVE('',#145,#142,#87,.T.);
#177=EDGE_CURVE('',#144,#145,#88,.T.);
#178=EDGE_CURVE('',#145,#139,#89,.T.);
#179=ORIENTED_EDGE('',*,*,#146,.T.);
#180=ORIENTED_EDGE('',*,*,#147,.T.);
#181=ORIENTED_EDGE('',*,*,#148,.T.);
#182=ORIENTED_EDGE('',*,*,#149,.T.);
#183=ORIENTED_EDGE('',*,*,#148,.F.);
#184=ORIENTED_EDGE('',*,*,#150,.F.);
#185=ORIENTED_EDGE('',*,*,#151,.F.);
#186=ORIENTED_EDGE('',*,*,#152,.F.);
#187=ORIENTED_EDGE('',*,*,#153,.T.);
#188=ORIENTED_EDGE('',*,*,#154,.F.);
#189=ORIENTED_EDGE('',*,*,#155,.F.);
#190=ORIENTED_EDGE('',*,*,#156,.F.);
#191=ORIENTED_EDGE('',*,*,#147,.F.);
#192=ORIENTED_EDGE('',*,*,#157,.T.);
#193=ORIENTED_EDGE('',*,*,#158,.F.);
#194=ORIENTED_EDGE('',*,*,#150,.T.);
#195=ORIENTED_EDGE('',*,*,#151,.T.);
#196=ORIENTED_EDGE('',*,*,#158,.T.);
#197=ORIENTED_EDGE('',*,*,#159,.T.);
#198=ORIENTED_EDGE('',*,*,#160,.T.);
#199=ORIENTED_EDGE('',*,*,#161,.F.);
#200=ORIENTED_EDGE('',*,*,#162,.F.);
#201=ORIENTED_EDGE('',*,*,#163,.F.);
#202=ORIENTED_EDGE('',*,*,#153,.F.);
#203=ORIENTED_EDGE('',*,*,#149,.F.);
#204=ORIENTED_EDGE('',*,*,#155,.T.);
#205=ORIENTED_EDGE('',*,*,#164,.T.);
#206=ORIENTED_EDGE('',*,*,#165,.T.);
#207=ORIENTED_EDGE('',*,*,#154,.T.);
#208=ORIENTED_EDGE('',*,*,#163,.T.);
#209=ORIENTED_EDGE('',*,*,#166,.F.);
#210=ORIENTED_EDGE('',*,*,#167,.F.);
#211=ORIENTED_EDGE('',*,*,#168,.T.);
#212=ORIENTED_EDGE('',*,*,#164,.F.);
#213=ORIENTED_EDGE('',*,*,#169,.T.);
#214=ORIENTED_EDGE('',*,*,#156,.T.);
#215=ORIENTED_EDGE('',*,*,#170,.F.);
#216=ORIENTED_EDGE('',*,*,#160,.F.);
#217=ORIENTED_EDGE('',*,*,#171,.F.);
#218=ORIENTED_EDGE('',*,*,#172,.F.);
#219=ORIENTED_EDGE('',*,*,#152,.T.);
#220=ORIENTED_EDGE('',*,*,#169,.F.);
#221=ORIENTED_EDGE('',*,*,#173,.F.);
#222=ORIENTED_EDGE('',*,*,#162,.T.);
#223=ORIENTED_EDGE('',*,*,#174,.F.);
#224=ORIENTED_EDGE('',*,*,#175,.F.);
#225=ORIENTED_EDGE('',*,*,#166,.T.);
#226=ORIENTED_EDGE('',*,*,#161,.T.);
#227=ORIENTED_EDGE('',*,*,#172,.T.);
#228=ORIENTED_EDGE('',*,*,#176,.F.);
#229=ORIENTED_EDGE('',*,*,#177,.F.);
#230=ORIENTED_EDGE('',*,*,#174,.T.);
#231=ORIENTED_EDGE('',*,*,#173,.T.);
#232=ORIENTED_EDGE('',*,*,#146,.F.);
#233=ORIENTED_EDGE('',*,*,#165,.F.);
#234=ORIENTED_EDGE('',*,*,#168,.F.);
#235=ORIENTED_EDGE('',*,*,#178,.F.);
#236=ORIENTED_EDGE('',*,*,#176,.T.);
#237=ORIENTED_EDGE('',*,*,#171,.T.);
#238=ORIENTED_EDGE('',*,*,#159,.F.);
#239=ORIENTED_EDGE('',*,*,#157,.F.);
#240=ORIENTED_EDGE('',*,*,#170,.T.);
#241=ORIENTED_EDGE('',*,*,#167,.T.);
#242=ORIENTED_EDGE('',*,*,#175,.T.);
#243=ORIENTED_EDGE('',*,*,#177,.T.);
#244=ORIENTED_EDGE('',*,*,#178,.T.);
#245=CYLINDRICAL_SURFACE('',#265,5.);
#246=CYLINDRICAL_SURFACE('',#272,5.);
#247=CYLINDRICAL_SURFACE('',#278,5.);
#248=CYLINDRICAL_SURFACE('',#281,5.);
#249=ADVANCED_FACE('',(#31),#245,.T.);
#250=ADVANCED_FACE('',(#32,#15),#21,.F.);
#251=ADVANCED_FACE('',(#33),#22,.T.);
#252=ADVANCED_FACE('',(#34),#246,.T.);
#253=ADVANCED_FACE('',(#35),#23,.F.);
#254=ADVANCED_FACE('',(#36),#24,.T.);
#255=ADVANCED_FACE('',(#37,#16),#25,.T.);
#256=ADVANCED_FACE('',(#38,#17),#247,.F.);
#257=ADVANCED_FACE('',(#39),#26,.T.);
#258=ADVANCED_FACE('',(#40,#18),#248,.F.);
#259=ADVANCED_FACE('',(#41),#27,.T.);
#260=ADVANCED_FACE('',(#42,#19),#28,.T.);
#261=ADVANCED_FACE('',(#43,#20),#29,.T.);
#262=ADVANCED_FACE('',(#44),#30,.T.);
#263=CLOSED_SHELL('',(#249,#250,#251,#252,#253,#254,#255,#256,#257,#258,
#259,#260,#261,#262));
#264=AXIS2_PLACEMENT_3D('placement',#358,#287,#288);
#265=AXIS2_PLACEMENT_3D('',#359,#289,#290);
#266=AXIS2_PLACEMENT_3D('',#362,#291,#292);
#267=AXIS2_PLACEMENT_3D('',#366,#294,#295);
#268=AXIS2_PLACEMENT_3D('',#368,#297,#298);
#269=AXIS2_PLACEMENT_3D('',#372,#300,#301);
#270=AXIS2_PLACEMENT_3D('',#381,#306,#307);
#271=AXIS2_PLACEMENT_3D('',#382,#308,#309);
#272=AXIS2_PLACEMENT_3D('',#386,#312,#313);
#273=AXIS2_PLACEMENT_3D('',#388,#314,#315);
#274=AXIS2_PLACEMENT_3D('',#390,#317,#318);
#275=AXIS2_PLACEMENT_3D('',#396,#322,#323);
#276=AXIS2_PLACEMENT_3D('',#400,#326,#327);
#277=AXIS2_PLACEMENT_3D('',#407,#331,#332);
#278=AXIS2_PLACEMENT_3D('',#408,#333,#334);
#279=AXIS2_PLACEMENT_3D('',#410,#335,#336);
#280=AXIS2_PLACEMENT_3D('',#411,#337,#338);
#281=AXIS2_PLACEMENT_3D('',#415,#341,#342);
#282=AXIS2_PLACEMENT_3D('',#417,#343,#344);
#283=AXIS2_PLACEMENT_3D('',#418,#345,#346);
#284=AXIS2_PLACEMENT_3D('',#422,#349,#350);
#285=AXIS2_PLACEMENT_3D('',#426,#353,#354);
#286=AXIS2_PLACEMENT_3D('',#428,#356,#357);
#287=DIRECTION('axis',(0.,0.,1.));
#288=DIRECTION('refdir',(1.,0.,0.));
#289=DIRECTION('center_axis',(-1.,0.,2.46716227694479E-16));
#290=DIRECTION('ref_axis',(1.7445471763153E-16,0.707106781186547,0.707106781186547));
#291=DIRECTION('center_axis',(1.,0.,-3.28954970259306E-16));
#292=DIRECTION('ref_axis',(1.7445471763153E-16,0.707106781186547,0.707106781186547));
#293=DIRECTION('',(1.,0.,-2.46716227694479E-16));
#294=DIRECTION('center_axis',(-1.,0.,2.63163976207444E-16));
#295=DIRECTION('ref_axis',(1.7445471763153E-16,0.707106781186547,0.707106781186547));
#296=DIRECTION('',(-1.,0.,2.46716227694479E-16));
#297=DIRECTION('center_axis',(-1.,0.,2.63163976207444E-16));
#298=DIRECTION('ref_axis',(0.,1.,0.));
#299=DIRECTION('',(0.,1.,0.));
#300=DIRECTION('center_axis',(-1.,0.,2.63163976207444E-16));
#301=DIRECTION('ref_axis',(3.14018491736755E-16,-0.707106781186547,0.707106781186548));
#302=DIRECTION('',(2.63163976207444E-16,2.7052843114575E-33,1.));
#303=DIRECTION('',(-2.63163976207444E-16,0.,-1.));
#304=DIRECTION('',(0.,-1.,0.));
#305=DIRECTION('',(-2.63163976207444E-16,0.,-1.));
#306=DIRECTION('center_axis',(1.,0.,-2.63163976207444E-16));
#307=DIRECTION('ref_axis',(3.28954970259306E-16,0.,1.));
#308=DIRECTION('center_axis',(2.46716227694479E-16,0.,1.));
#309=DIRECTION('ref_axis',(1.,0.,-3.5527136788005E-16));
#310=DIRECTION('',(2.22044604925031E-16,-1.,-5.47820073070147E-32));
#311=DIRECTION('',(-1.,-1.64477485129653E-16,2.46716227694479E-16));
#312=DIRECTION('center_axis',(1.,1.64477485129653E-16,-2.46716227694479E-16));
#313=DIRECTION('ref_axis',(3.14018491736755E-16,-0.707106781186547,0.707106781186548));
#314=DIRECTION('center_axis',(1.,0.,-3.28954970259306E-16));
#315=DIRECTION('ref_axis',(3.14018491736755E-16,-0.707106781186547,0.707106781186548));
#316=DIRECTION('',(1.,1.64477485129653E-16,-2.46716227694479E-16));
#317=DIRECTION('center_axis',(0.,-1.,0.));
#318=DIRECTION('ref_axis',(-1.,0.,3.5527136788005E-16));
#319=DIRECTION('',(-1.,-1.64477485129653E-16,2.46716227694479E-16));
#320=DIRECTION('',(2.46716227694479E-16,0.,1.));
#321=DIRECTION('',(1.,0.,-8.22387425648264E-17));
#322=DIRECTION('center_axis',(0.,1.,0.));
#323=DIRECTION('ref_axis',(0.,0.,1.));
#324=DIRECTION('',(-1.,0.,8.22387425648264E-17));
#325=DIRECTION('',(3.28954970259306E-16,0.,1.));
#326=DIRECTION('center_axis',(-8.22387425648264E-17,0.,-1.));
#327=DIRECTION('ref_axis',(-1.,0.,0.));
#328=DIRECTION('',(0.,1.,0.));
#329=DIRECTION('',(1.,0.,-8.22387425648264E-17));
#330=DIRECTION('',(0.,1.,0.));
#331=DIRECTION('center_axis',(8.22387425648264E-17,0.,1.));
#332=DIRECTION('ref_axis',(1.,0.,-2.46716227694479E-16));
#333=DIRECTION('center_axis',(-1.,0.,3.28954970259306E-16));
#334=DIRECTION('ref_axis',(3.28954970259306E-16,0.,1.));
#335=DIRECTION('center_axis',(1.,0.,-3.28954970259306E-16));
#336=DIRECTION('ref_axis',(3.28954970259306E-16,0.,1.));
#337=DIRECTION('center_axis',(1.64477485129653E-16,-1.,-4.05792646718627E-32));
#338=DIRECTION('ref_axis',(1.,0.,-1.77635683940025E-16));
#339=DIRECTION('',(2.46716227694479E-16,0.,1.));
#340=DIRECTION('',(-1.,-1.64477485129653E-16,2.46716227694479E-16));
#341=DIRECTION('center_axis',(2.46716227694479E-16,0.,1.));
#342=DIRECTION('ref_axis',(1.,0.,-2.46716227694479E-16));
#343=DIRECTION('center_axis',(-2.46716227694479E-16,0.,-1.));
#344=DIRECTION('ref_axis',(1.,0.,-2.46716227694479E-16));
#345=DIRECTION('center_axis',(1.,0.,-2.46716227694479E-16));
#346=DIRECTION('ref_axis',(-1.77635683940025E-16,0.,-1.));
#347=DIRECTION('',(0.,1.,0.));
#348=DIRECTION('',(2.46716227694479E-16,0.,1.));
#349=DIRECTION('center_axis',(2.46716227694479E-16,0.,1.));
#350=DIRECTION('ref_axis',(1.,0.,-1.77635683940025E-16));
#351=DIRECTION('',(0.,1.,0.));
#352=DIRECTION('',(-1.,0.,2.46716227694479E-16));
#353=DIRECTION('center_axis',(-1.,0.,3.28954970259306E-16));
#354=DIRECTION('ref_axis',(3.5527136788005E-16,0.,1.));
#355=DIRECTION('',(-3.28954970259306E-16,0.,-1.));
#356=DIRECTION('center_axis',(0.,-1.,0.));
#357=DIRECTION('ref_axis',(0.,0.,-1.));
#358=CARTESIAN_POINT('',(0.,0.,0.));
#359=CARTESIAN_POINT('Origin',(8.20331457084143E-15,50.,26.5));
#360=CARTESIAN_POINT('',(-13.5,55.,26.5));
#361=CARTESIAN_POINT('',(-13.5,50.,31.5));
#362=CARTESIAN_POINT('Origin',(-13.5,50.,26.5));
#363=CARTESIAN_POINT('',(1.55431223447522E-14,50.,31.5));
#364=CARTESIAN_POINT('',(9.43689570931383E-15,50.,31.5));
#365=CARTESIAN_POINT('',(1.4227302463715E-14,55.,26.5));
#366=CARTESIAN_POINT('Origin',(1.43095412062798E-14,50.,26.5));
#367=CARTESIAN_POINT('',(8.20331457084143E-15,55.,26.5));
#368=CARTESIAN_POINT('Origin',(1.55431223447522E-14,35.,31.5));
#369=CARTESIAN_POINT('',(1.55431223447522E-14,40.,31.5));
#370=CARTESIAN_POINT('',(1.55431223447522E-14,40.,31.5));
#371=CARTESIAN_POINT('',(1.43753322003317E-14,35.,26.5));
#372=CARTESIAN_POINT('Origin',(1.33226762955019E-14,40.,26.5));
#373=CARTESIAN_POINT('',(1.11022302462516E-14,35.,13.5));
#374=CARTESIAN_POINT('',(1.33226762955019E-14,35.,22.5));
#375=CARTESIAN_POINT('',(3.70074341541719E-15,35.,-13.5));
#376=CARTESIAN_POINT('',(1.55431223447522E-14,35.,31.5));
#377=CARTESIAN_POINT('',(3.70074341541719E-15,55.,-13.5));
#378=CARTESIAN_POINT('',(4.07081775695891E-15,17.5,-13.5));
#379=CARTESIAN_POINT('',(1.13982897194849E-14,55.,15.75));
#380=CARTESIAN_POINT('',(1.6118793542706E-14,45.,18.5));
#381=CARTESIAN_POINT('Origin',(1.77635683940025E-14,45.,23.5));
#382=CARTESIAN_POINT('Origin',(1.11022302462516E-14,45.,31.5));
#383=CARTESIAN_POINT('',(-13.5,40.,31.5));
#384=CARTESIAN_POINT('',(-13.5,55.,31.5));
#385=CARTESIAN_POINT('',(-6.74999999999999,40.,31.5));
#386=CARTESIAN_POINT('Origin',(-6.74999999999999,40.,26.5));
#387=CARTESIAN_POINT('',(-13.5,35.,26.5));
#388=CARTESIAN_POINT('Origin',(-13.5,40.,26.5));
#389=CARTESIAN_POINT('',(-6.74999999999999,35.,26.5));
#390=CARTESIAN_POINT('Origin',(13.5,35.,31.5));
#391=CARTESIAN_POINT('',(13.5,35.,13.5));
#392=CARTESIAN_POINT('',(-13.5,35.,13.5));
#393=CARTESIAN_POINT('',(13.5,35.,-13.5));
#394=CARTESIAN_POINT('',(13.5,35.,22.5));
#395=CARTESIAN_POINT('',(13.5,35.,-13.5));
#396=CARTESIAN_POINT('Origin',(0.,55.,0.));
#397=CARTESIAN_POINT('',(-13.5,55.,-13.5));
#398=CARTESIAN_POINT('',(-13.5,55.,-13.5));
#399=CARTESIAN_POINT('',(-13.5,55.,13.5));
#400=CARTESIAN_POINT('Origin',(13.5,0.,-13.5));
#401=CARTESIAN_POINT('',(13.5,0.,-13.5));
#402=CARTESIAN_POINT('',(13.5,0.,-13.5));
#403=CARTESIAN_POINT('',(-13.5,0.,-13.5));
#404=CARTESIAN_POINT('',(-13.5,0.,-13.5));
#405=CARTESIAN_POINT('',(-13.5,0.,-13.5));
#406=CARTESIAN_POINT('',(-5.,15.,-13.5));
#407=CARTESIAN_POINT('Origin',(-2.22044604925031E-15,15.,-13.5));
#408=CARTESIAN_POINT('Origin',(62.5197342799881,45.,23.5));
#409=CARTESIAN_POINT('',(-13.5,45.,28.5));
#410=CARTESIAN_POINT('Origin',(-13.5,45.,23.5));
#411=CARTESIAN_POINT('Origin',(-13.5,35.,13.5));
#412=CARTESIAN_POINT('',(-13.5,35.,13.5));
#413=CARTESIAN_POINT('',(-13.5,35.,13.5));
#414=CARTESIAN_POINT('',(-13.5,35.,13.5));
#415=CARTESIAN_POINT('Origin',(-1.20780444679355E-14,15.,-53.4552089086428));
#416=CARTESIAN_POINT('',(5.,15.,13.5));
#417=CARTESIAN_POINT('Origin',(4.44089209850063E-15,15.,13.5));
#418=CARTESIAN_POINT('Origin',(13.5,0.,13.5));
#419=CARTESIAN_POINT('',(13.5,0.,13.5));
#420=CARTESIAN_POINT('',(13.5,0.,13.5));
#421=CARTESIAN_POINT('',(13.5,0.,-13.5));
#422=CARTESIAN_POINT('Origin',(-13.5,0.,13.5));
#423=CARTESIAN_POINT('',(-13.5,0.,13.5));
#424=CARTESIAN_POINT('',(-13.5,0.,13.5));
#425=CARTESIAN_POINT('',(13.5,0.,13.5));
#426=CARTESIAN_POINT('Origin',(-13.5,0.,-13.5));
#427=CARTESIAN_POINT('',(-13.5,0.,13.5));
#428=CARTESIAN_POINT('Origin',(-6.16790569236198E-16,0.,-6.16790569236198E-17));
#429=UNCERTAINTY_MEASURE_WITH_UNIT(LENGTH_MEASURE(0.01),#433,
'DISTANCE_ACCURACY_VALUE',
'Maximum model space distance between geometric entities at asserted c
onnectivities');
#430=UNCERTAINTY_MEASURE_WITH_UNIT(LENGTH_MEASURE(1.E-6),#433,
'DISTANCE_ACCURACY_VALUE',
'Maximum model space distance between geometric entities at asserted c
onnectivities');
#431=(
GEOMETRIC_REPRESENTATION_CONTEXT(3)
GLOBAL_UNCERTAINTY_ASSIGNED_CONTEXT((#429))
GLOBAL_UNIT_ASSIGNED_CONTEXT((#433,#436,#434))
REPRESENTATION_CONTEXT('','3D')
);
#432=(
GEOMETRIC_REPRESENTATION_CONTEXT(3)
GLOBAL_UNCERTAINTY_ASSIGNED_CONTEXT((#430))
GLOBAL_UNIT_ASSIGNED_CONTEXT((#433,#436,#434))
REPRESENTATION_CONTEXT('','3D')
);
#433=(
LENGTH_UNIT()
NAMED_UNIT(*)
SI_UNIT(.MILLI.,.METRE.)
);
#434=(
NAMED_UNIT(*)
SI_UNIT($,.STERADIAN.)
SOLID_ANGLE_UNIT()
);
#435=DIMENSIONAL_EXPONENTS(0.,0.,0.,0.,0.,0.,0.);
#436=(
CONVERSION_BASED_UNIT('degree',#438)
NAMED_UNIT(#435)
PLANE_ANGLE_UNIT()
);
#437=(
NAMED_UNIT(*)
PLANE_ANGLE_UNIT()
SI_UNIT($,.RADIAN.)
);
#438=PLANE_ANGLE_MEASURE_WITH_UNIT(PLANE_ANGLE_MEASURE(0.01745329252),#437);
#439=SHAPE_DEFINITION_REPRESENTATION(#440,#441);
#440=PRODUCT_DEFINITION_SHAPE('',$,#443);
#441=SHAPE_REPRESENTATION('',(#264),#431);
#442=PRODUCT_DEFINITION_CONTEXT('part definition',#447,'design');
#443=PRODUCT_DEFINITION('rotule','rotule',#444,#442);
#444=PRODUCT_DEFINITION_FORMATION('',$,#449);
#445=PRODUCT_RELATED_PRODUCT_CATEGORY('rotule','rotule',(#449));
#446=APPLICATION_PROTOCOL_DEFINITION('international standard',
'automotive_design',2009,#447);
#447=APPLICATION_CONTEXT(
'Core Data for Automotive Mechanical Design Process');
#448=PRODUCT_CONTEXT('part definition',#447,'mechanical');
#449=PRODUCT('rotule','rotule',$,(#448));
#450=PRESENTATION_STYLE_ASSIGNMENT((#451));
#451=SURFACE_STYLE_USAGE(.BOTH.,#452);
#452=SURFACE_SIDE_STYLE('',(#453));
#453=SURFACE_STYLE_FILL_AREA(#454);
#454=FILL_AREA_STYLE('',(#455));
#455=FILL_AREA_STYLE_COLOUR('',#456);
#456=COLOUR_RGB('',0.749019607843137,0.749019607843137,0.749019607843137);
ENDSEC;
END-ISO-10303-21;
