ISO-10303-21;
HEADER;
FILE_DESCRIPTION(('CATIA V5 STEP Exchange'),'2;1');

FILE_NAME('C:\\Users\\Alexandre.GUEHO\\Desktop\\Pige calage pompe R19.stp','2018-09-19T11:46:42+00:00',('none'),('none'),'Version 5-6 Release 2012','CATIA V5 STEP AP203','none');

FILE_SCHEMA(('CONFIG_CONTROL_DESIGN'));

ENDSEC;
DATA;
#5=PRODUCT('Pige calage pompe R19','','',(#2)) ;
#1=APPLICATION_CONTEXT('configuration controlled 3D design of mechanical parts and assemblies') ;
#14=PRODUCT_DEFINITION('',' ',#6,#3) ;
#16=SECURITY_CLASSIFICATION(' ',' ',#15) ;
#15=SECURITY_CLASSIFICATION_LEVEL('unclassified') ;
#46=CARTESIAN_POINT(' ',(0.,0.,0.)) ;
#51=CARTESIAN_POINT('Axis2P3D Location',(0.,-43.25,0.)) ;
#56=CARTESIAN_POINT('Line Origine',(1.91770215442,7.,-3.51033024756)) ;
#60=CARTESIAN_POINT('Vertex',(1.91770215442,9.,-3.51033024756)) ;
#62=CARTESIAN_POINT('Vertex',(1.91770215442,5.,-3.51033024756)) ;
#65=CARTESIAN_POINT('Axis2P3D Location',(0.,5.,0.)) ;
#69=CARTESIAN_POINT('Vertex',(-1.91770215442,5.,3.51033024756)) ;
#72=CARTESIAN_POINT('Line Origine',(-1.91770215442,7.,3.51033024756)) ;
#76=CARTESIAN_POINT('Vertex',(-1.91770215442,9.,3.51033024756)) ;
#79=CARTESIAN_POINT('Axis2P3D Location',(0.,9.,0.)) ;
#91=CARTESIAN_POINT('Axis2P3D Location',(0.,5.,0.)) ;
#96=CARTESIAN_POINT('Axis2P3D Location',(0.,9.,0.)) ;
#108=CARTESIAN_POINT('Axis2P3D Location',(0.,-43.25,0.)) ;
#113=CARTESIAN_POINT('Line Origine',(3.59569153953,2.5,-6.58186921418)) ;
#117=CARTESIAN_POINT('Vertex',(3.59569153953,5.,-6.58186921418)) ;
#119=CARTESIAN_POINT('Vertex',(3.59569153953,0.,-6.58186921418)) ;
#122=CARTESIAN_POINT('Axis2P3D Location',(0.,0.,0.)) ;
#126=CARTESIAN_POINT('Vertex',(-3.59569153953,0.,6.58186921418)) ;
#129=CARTESIAN_POINT('Line Origine',(-3.59569153953,2.5,6.58186921418)) ;
#133=CARTESIAN_POINT('Vertex',(-3.59569153953,5.,6.58186921418)) ;
#136=CARTESIAN_POINT('Axis2P3D Location',(0.,5.,0.)) ;
#148=CARTESIAN_POINT('Axis2P3D Location',(0.,0.,0.)) ;
#153=CARTESIAN_POINT('Axis2P3D Location',(0.,5.,0.)) ;
#165=CARTESIAN_POINT('Axis2P3D Location',(0.,-43.25,0.)) ;
#170=CARTESIAN_POINT('Line Origine',(1.65401810818,-21.,-3.02765983852)) ;
#174=CARTESIAN_POINT('Vertex',(1.65401810818,0.,-3.02765983852)) ;
#176=CARTESIAN_POINT('Vertex',(1.65401810818,-42.,-3.02765983852)) ;
#179=CARTESIAN_POINT('Axis2P3D Location',(0.,-42.,0.)) ;
#183=CARTESIAN_POINT('Vertex',(-1.65401810818,-42.,3.02765983852)) ;
#186=CARTESIAN_POINT('Line Origine',(-1.65401810818,-21.,3.02765983852)) ;
#190=CARTESIAN_POINT('Vertex',(-1.65401810818,0.,3.02765983852)) ;
#193=CARTESIAN_POINT('Axis2P3D Location',(0.,0.,0.)) ;
#205=CARTESIAN_POINT('Axis2P3D Location',(0.,-42.,0.)) ;
#210=CARTESIAN_POINT('Axis2P3D Location',(0.,0.,0.)) ;
#222=CARTESIAN_POINT('Axis2P3D Location',(0.,-43.25,0.)) ;
#227=CARTESIAN_POINT('Line Origine',(0.805434904855,-68.75,-1.47433870398)) ;
#231=CARTESIAN_POINT('Vertex',(0.805434904855,-42.,-1.47433870398)) ;
#233=CARTESIAN_POINT('Vertex',(0.805434904855,-95.5,-1.47433870398)) ;
#236=CARTESIAN_POINT('Axis2P3D Location',(0.,-95.5,0.)) ;
#240=CARTESIAN_POINT('Vertex',(-0.805434904855,-95.5,1.47433870398)) ;
#243=CARTESIAN_POINT('Line Origine',(-0.805434904855,-68.75,1.47433870398)) ;
#247=CARTESIAN_POINT('Vertex',(-0.805434904855,-42.,1.47433870398)) ;
#250=CARTESIAN_POINT('Axis2P3D Location',(0.,-42.,0.)) ;
#262=CARTESIAN_POINT('Axis2P3D Location',(0.,-95.5,0.)) ;
#267=CARTESIAN_POINT('Axis2P3D Location',(0.,-42.,0.)) ;
#279=CARTESIAN_POINT('Axis2P3D Location',(0.,9.,0.)) ;
#289=CARTESIAN_POINT('Axis2P3D Location',(0.,5.,4.)) ;
#303=CARTESIAN_POINT('Axis2P3D Location',(0.,0.,7.5)) ;
#317=CARTESIAN_POINT('Axis2P3D Location',(0.,-42.,3.45)) ;
#331=CARTESIAN_POINT('Axis2P3D Location',(0.,-95.5,1.68)) ;
#344=CARTESIAN_POINT('Axis2P3D Location',(0.,0.,0.)) ;
#52=DIRECTION('Axis2P3D Direction',(0.,-1.,0.)) ;
#53=DIRECTION('Axis2P3D XDirection',(-0.479425538604,0.,0.87758256189)) ;
#57=DIRECTION('Vector Direction',(0.,-1.,0.)) ;
#66=DIRECTION('Axis2P3D Direction',(0.,-1.,0.)) ;
#73=DIRECTION('Vector Direction',(0.,-1.,0.)) ;
#80=DIRECTION('Axis2P3D Direction',(0.,-1.,0.)) ;
#92=DIRECTION('Axis2P3D Direction',(0.,-1.,0.)) ;
#97=DIRECTION('Axis2P3D Direction',(0.,-1.,0.)) ;
#109=DIRECTION('Axis2P3D Direction',(0.,-1.,0.)) ;
#110=DIRECTION('Axis2P3D XDirection',(-0.479425538604,0.,0.87758256189)) ;
#114=DIRECTION('Vector Direction',(0.,-1.,0.)) ;
#123=DIRECTION('Axis2P3D Direction',(0.,-1.,0.)) ;
#130=DIRECTION('Vector Direction',(0.,-1.,0.)) ;
#137=DIRECTION('Axis2P3D Direction',(0.,-1.,0.)) ;
#149=DIRECTION('Axis2P3D Direction',(0.,-1.,0.)) ;
#154=DIRECTION('Axis2P3D Direction',(0.,-1.,0.)) ;
#166=DIRECTION('Axis2P3D Direction',(0.,-1.,0.)) ;
#167=DIRECTION('Axis2P3D XDirection',(-0.479425538604,0.,0.87758256189)) ;
#171=DIRECTION('Vector Direction',(0.,-1.,0.)) ;
#180=DIRECTION('Axis2P3D Direction',(0.,-1.,0.)) ;
#187=DIRECTION('Vector Direction',(0.,-1.,0.)) ;
#194=DIRECTION('Axis2P3D Direction',(0.,-1.,0.)) ;
#206=DIRECTION('Axis2P3D Direction',(0.,-1.,0.)) ;
#211=DIRECTION('Axis2P3D Direction',(0.,-1.,0.)) ;
#223=DIRECTION('Axis2P3D Direction',(0.,-1.,0.)) ;
#224=DIRECTION('Axis2P3D XDirection',(-0.479425538604,0.,0.87758256189)) ;
#228=DIRECTION('Vector Direction',(0.,-1.,0.)) ;
#237=DIRECTION('Axis2P3D Direction',(0.,-1.,0.)) ;
#244=DIRECTION('Vector Direction',(0.,-1.,0.)) ;
#251=DIRECTION('Axis2P3D Direction',(0.,-1.,0.)) ;
#263=DIRECTION('Axis2P3D Direction',(0.,-1.,0.)) ;
#268=DIRECTION('Axis2P3D Direction',(0.,-1.,0.)) ;
#280=DIRECTION('Axis2P3D Direction',(0.,-1.,0.)) ;
#281=DIRECTION('Axis2P3D XDirection',(1.,0.,0.)) ;
#290=DIRECTION('Axis2P3D Direction',(0.,-1.,0.)) ;
#291=DIRECTION('Axis2P3D XDirection',(1.,0.,0.)) ;
#304=DIRECTION('Axis2P3D Direction',(0.,-1.,0.)) ;
#305=DIRECTION('Axis2P3D XDirection',(1.,0.,0.)) ;
#318=DIRECTION('Axis2P3D Direction',(0.,-1.,0.)) ;
#319=DIRECTION('Axis2P3D XDirection',(1.,0.,0.)) ;
#332=DIRECTION('Axis2P3D Direction',(0.,-1.,0.)) ;
#333=DIRECTION('Axis2P3D XDirection',(1.,0.,0.)) ;
#345=DIRECTION('Axis2P3D Direction',(0.,0.,1.)) ;
#346=DIRECTION('Axis2P3D XDirection',(1.,0.,0.)) ;
#47=AXIS2_PLACEMENT_3D(' ',#46,$,$) ;
#54=AXIS2_PLACEMENT_3D('Cylinder Axis2P3D',#51,#52,#53) ;
#67=AXIS2_PLACEMENT_3D('Circle Axis2P3D',#65,#66,$) ;
#81=AXIS2_PLACEMENT_3D('Circle Axis2P3D',#79,#80,$) ;
#93=AXIS2_PLACEMENT_3D('Circle Axis2P3D',#91,#92,$) ;
#98=AXIS2_PLACEMENT_3D('Circle Axis2P3D',#96,#97,$) ;
#111=AXIS2_PLACEMENT_3D('Cylinder Axis2P3D',#108,#109,#110) ;
#124=AXIS2_PLACEMENT_3D('Circle Axis2P3D',#122,#123,$) ;
#138=AXIS2_PLACEMENT_3D('Circle Axis2P3D',#136,#137,$) ;
#150=AXIS2_PLACEMENT_3D('Circle Axis2P3D',#148,#149,$) ;
#155=AXIS2_PLACEMENT_3D('Circle Axis2P3D',#153,#154,$) ;
#168=AXIS2_PLACEMENT_3D('Cylinder Axis2P3D',#165,#166,#167) ;
#181=AXIS2_PLACEMENT_3D('Circle Axis2P3D',#179,#180,$) ;
#195=AXIS2_PLACEMENT_3D('Circle Axis2P3D',#193,#194,$) ;
#207=AXIS2_PLACEMENT_3D('Circle Axis2P3D',#205,#206,$) ;
#212=AXIS2_PLACEMENT_3D('Circle Axis2P3D',#210,#211,$) ;
#225=AXIS2_PLACEMENT_3D('Cylinder Axis2P3D',#222,#223,#224) ;
#238=AXIS2_PLACEMENT_3D('Circle Axis2P3D',#236,#237,$) ;
#252=AXIS2_PLACEMENT_3D('Circle Axis2P3D',#250,#251,$) ;
#264=AXIS2_PLACEMENT_3D('Circle Axis2P3D',#262,#263,$) ;
#269=AXIS2_PLACEMENT_3D('Circle Axis2P3D',#267,#268,$) ;
#282=AXIS2_PLACEMENT_3D('Plane Axis2P3D',#279,#280,#281) ;
#292=AXIS2_PLACEMENT_3D('Plane Axis2P3D',#289,#290,#291) ;
#306=AXIS2_PLACEMENT_3D('Plane Axis2P3D',#303,#304,#305) ;
#320=AXIS2_PLACEMENT_3D('Plane Axis2P3D',#317,#318,#319) ;
#334=AXIS2_PLACEMENT_3D('Plane Axis2P3D',#331,#332,#333) ;
#347=AXIS2_PLACEMENT_3D('Rep\X2\00E8\X0\re absolu',#344,#345,#346) ;
#40=PRODUCT_DEFINITION_SHAPE(' ',' ',#14) ;
#31=APPROVAL_PERSON_ORGANIZATION(#25,#21,#19) ;
#25=PERSON_AND_ORGANIZATION(#22,#23) ;
#22=PERSON(' ',' ',' ',$,$,$) ;
#23=ORGANIZATION(' ',' ',' ') ;
#21=APPROVAL(#20,' ') ;
#20=APPROVAL_STATUS('not_yet_approved') ;
#19=APPROVAL_ROLE('APPROVER') ;
#13=DATE_AND_TIME(#11,#12) ;
#12=LOCAL_TIME(13,46,42.,#10) ;
#10=COORDINATED_UNIVERSAL_TIME_OFFSET(0,0,.AHEAD.) ;
#85=ORIENTED_EDGE('',*,*,#64,.T.) ;
#86=ORIENTED_EDGE('',*,*,#71,.F.) ;
#87=ORIENTED_EDGE('',*,*,#78,.F.) ;
#88=ORIENTED_EDGE('',*,*,#83,.T.) ;
#102=ORIENTED_EDGE('',*,*,#78,.T.) ;
#103=ORIENTED_EDGE('',*,*,#95,.F.) ;
#104=ORIENTED_EDGE('',*,*,#64,.F.) ;
#105=ORIENTED_EDGE('',*,*,#100,.T.) ;
#142=ORIENTED_EDGE('',*,*,#121,.T.) ;
#143=ORIENTED_EDGE('',*,*,#128,.F.) ;
#144=ORIENTED_EDGE('',*,*,#135,.F.) ;
#145=ORIENTED_EDGE('',*,*,#140,.T.) ;
#159=ORIENTED_EDGE('',*,*,#135,.T.) ;
#160=ORIENTED_EDGE('',*,*,#152,.F.) ;
#161=ORIENTED_EDGE('',*,*,#121,.F.) ;
#162=ORIENTED_EDGE('',*,*,#157,.T.) ;
#199=ORIENTED_EDGE('',*,*,#178,.T.) ;
#200=ORIENTED_EDGE('',*,*,#185,.F.) ;
#201=ORIENTED_EDGE('',*,*,#192,.F.) ;
#202=ORIENTED_EDGE('',*,*,#197,.T.) ;
#216=ORIENTED_EDGE('',*,*,#192,.T.) ;
#217=ORIENTED_EDGE('',*,*,#209,.F.) ;
#218=ORIENTED_EDGE('',*,*,#178,.F.) ;
#219=ORIENTED_EDGE('',*,*,#214,.T.) ;
#256=ORIENTED_EDGE('',*,*,#235,.T.) ;
#257=ORIENTED_EDGE('',*,*,#242,.F.) ;
#258=ORIENTED_EDGE('',*,*,#249,.F.) ;
#259=ORIENTED_EDGE('',*,*,#254,.T.) ;
#273=ORIENTED_EDGE('',*,*,#249,.T.) ;
#274=ORIENTED_EDGE('',*,*,#266,.F.) ;
#275=ORIENTED_EDGE('',*,*,#235,.F.) ;
#276=ORIENTED_EDGE('',*,*,#271,.T.) ;
#285=ORIENTED_EDGE('',*,*,#100,.F.) ;
#286=ORIENTED_EDGE('',*,*,#83,.F.) ;
#295=ORIENTED_EDGE('',*,*,#140,.F.) ;
#296=ORIENTED_EDGE('',*,*,#157,.F.) ;
#299=ORIENTED_EDGE('',*,*,#95,.T.) ;
#300=ORIENTED_EDGE('',*,*,#71,.T.) ;
#309=ORIENTED_EDGE('',*,*,#152,.T.) ;
#310=ORIENTED_EDGE('',*,*,#128,.T.) ;
#313=ORIENTED_EDGE('',*,*,#197,.F.) ;
#314=ORIENTED_EDGE('',*,*,#214,.F.) ;
#323=ORIENTED_EDGE('',*,*,#209,.T.) ;
#324=ORIENTED_EDGE('',*,*,#185,.T.) ;
#327=ORIENTED_EDGE('',*,*,#254,.F.) ;
#328=ORIENTED_EDGE('',*,*,#271,.F.) ;
#337=ORIENTED_EDGE('',*,*,#266,.T.) ;
#338=ORIENTED_EDGE('',*,*,#242,.T.) ;
#301=FACE_BOUND('',#298,.T.) ;
#315=FACE_BOUND('',#312,.T.) ;
#329=FACE_BOUND('',#326,.T.) ;
#50=CLOSED_SHELL('Closed Shell',(#90,#107,#147,#164,#204,#221,#261,#278,#288,#302,#316,#330,#340)) ;
#58=VECTOR('Line Direction',#57,1.) ;
#74=VECTOR('Line Direction',#73,1.) ;
#115=VECTOR('Line Direction',#114,1.) ;
#131=VECTOR('Line Direction',#130,1.) ;
#172=VECTOR('Line Direction',#171,1.) ;
#188=VECTOR('Line Direction',#187,1.) ;
#229=VECTOR('Line Direction',#228,1.) ;
#245=VECTOR('Line Direction',#244,1.) ;
#342=ADVANCED_BREP_SHAPE_REPRESENTATION('NONE',(#341),#45) ;
#48=SHAPE_REPRESENTATION(' ',(#47),#45) ;
#90=ADVANCED_FACE('Corps principal',(#89),#55,.T.) ;
#107=ADVANCED_FACE('Corps principal',(#106),#55,.T.) ;
#147=ADVANCED_FACE('Corps principal',(#146),#112,.T.) ;
#164=ADVANCED_FACE('Corps principal',(#163),#112,.T.) ;
#204=ADVANCED_FACE('Corps principal',(#203),#169,.T.) ;
#221=ADVANCED_FACE('Corps principal',(#220),#169,.T.) ;
#261=ADVANCED_FACE('Corps principal',(#260),#226,.T.) ;
#278=ADVANCED_FACE('Corps principal',(#277),#226,.T.) ;
#288=ADVANCED_FACE('Corps principal',(#287),#283,.F.) ;
#302=ADVANCED_FACE('Corps principal',(#297,#301),#293,.F.) ;
#316=ADVANCED_FACE('Corps principal',(#311,#315),#307,.T.) ;
#330=ADVANCED_FACE('Corps principal',(#325,#329),#321,.T.) ;
#340=ADVANCED_FACE('Corps principal',(#339),#335,.T.) ;
#4=APPLICATION_PROTOCOL_DEFINITION('international standard','config_control_design',1994,#1) ;
#32=APPROVAL_DATE_TIME(#13,#21) ;
#341=MANIFOLD_SOLID_BREP('Corps principal',#50) ;
#11=CALENDAR_DATE(2018,19,9) ;
#30=CC_DESIGN_APPROVAL(#21,(#16,#6,#14)) ;
#18=CC_DESIGN_DATE_AND_TIME_ASSIGNMENT(#13,#17,(#16)) ;
#29=CC_DESIGN_DATE_AND_TIME_ASSIGNMENT(#13,#28,(#14)) ;
#17=DATE_TIME_ROLE('classification_date') ;
#28=DATE_TIME_ROLE('creation_date') ;
#27=CC_DESIGN_PERSON_AND_ORGANIZATION_ASSIGNMENT(#25,#26,(#16)) ;
#33=CC_DESIGN_PERSON_AND_ORGANIZATION_ASSIGNMENT(#25,#34,(#6)) ;
#35=CC_DESIGN_PERSON_AND_ORGANIZATION_ASSIGNMENT(#25,#36,(#6,#14)) ;
#37=CC_DESIGN_PERSON_AND_ORGANIZATION_ASSIGNMENT(#25,#38,(#5)) ;
#26=PERSON_AND_ORGANIZATION_ROLE('classification_officer') ;
#34=PERSON_AND_ORGANIZATION_ROLE('design_supplier') ;
#36=PERSON_AND_ORGANIZATION_ROLE('creator') ;
#38=PERSON_AND_ORGANIZATION_ROLE('design_owner') ;
#39=CC_DESIGN_SECURITY_CLASSIFICATION(#16,(#6)) ;
#68=CIRCLE('generated circle',#67,4.) ;
#82=CIRCLE('generated circle',#81,4.) ;
#94=CIRCLE('generated circle',#93,4.) ;
#99=CIRCLE('generated circle',#98,4.) ;
#125=CIRCLE('generated circle',#124,7.5) ;
#139=CIRCLE('generated circle',#138,7.5) ;
#151=CIRCLE('generated circle',#150,7.5) ;
#156=CIRCLE('generated circle',#155,7.5) ;
#182=CIRCLE('generated circle',#181,3.45) ;
#196=CIRCLE('generated circle',#195,3.45) ;
#208=CIRCLE('generated circle',#207,3.45) ;
#213=CIRCLE('generated circle',#212,3.45) ;
#239=CIRCLE('generated circle',#238,1.68) ;
#253=CIRCLE('generated circle',#252,1.68) ;
#265=CIRCLE('generated circle',#264,1.68) ;
#270=CIRCLE('generated circle',#269,1.68) ;
#343=SHAPE_REPRESENTATION_RELATIONSHIP(' ',' ',#48,#342) ;
#55=CYLINDRICAL_SURFACE('generated cylinder',#54,4.) ;
#112=CYLINDRICAL_SURFACE('generated cylinder',#111,7.5) ;
#169=CYLINDRICAL_SURFACE('generated cylinder',#168,3.45) ;
#226=CYLINDRICAL_SURFACE('generated cylinder',#225,1.68) ;
#3=DESIGN_CONTEXT(' ',#1,'design') ;
#64=EDGE_CURVE('',#61,#63,#59,.T.) ;
#71=EDGE_CURVE('',#70,#63,#68,.T.) ;
#78=EDGE_CURVE('',#77,#70,#75,.T.) ;
#83=EDGE_CURVE('',#77,#61,#82,.T.) ;
#95=EDGE_CURVE('',#63,#70,#94,.T.) ;
#100=EDGE_CURVE('',#61,#77,#99,.T.) ;
#121=EDGE_CURVE('',#118,#120,#116,.T.) ;
#128=EDGE_CURVE('',#127,#120,#125,.T.) ;
#135=EDGE_CURVE('',#134,#127,#132,.T.) ;
#140=EDGE_CURVE('',#134,#118,#139,.T.) ;
#152=EDGE_CURVE('',#120,#127,#151,.T.) ;
#157=EDGE_CURVE('',#118,#134,#156,.T.) ;
#178=EDGE_CURVE('',#175,#177,#173,.T.) ;
#185=EDGE_CURVE('',#184,#177,#182,.T.) ;
#192=EDGE_CURVE('',#191,#184,#189,.T.) ;
#197=EDGE_CURVE('',#191,#175,#196,.T.) ;
#209=EDGE_CURVE('',#177,#184,#208,.T.) ;
#214=EDGE_CURVE('',#175,#191,#213,.T.) ;
#235=EDGE_CURVE('',#232,#234,#230,.T.) ;
#242=EDGE_CURVE('',#241,#234,#239,.T.) ;
#249=EDGE_CURVE('',#248,#241,#246,.T.) ;
#254=EDGE_CURVE('',#248,#232,#253,.T.) ;
#266=EDGE_CURVE('',#234,#241,#265,.T.) ;
#271=EDGE_CURVE('',#232,#248,#270,.T.) ;
#84=EDGE_LOOP('',(#85,#86,#87,#88)) ;
#101=EDGE_LOOP('',(#102,#103,#104,#105)) ;
#141=EDGE_LOOP('',(#142,#143,#144,#145)) ;
#158=EDGE_LOOP('',(#159,#160,#161,#162)) ;
#198=EDGE_LOOP('',(#199,#200,#201,#202)) ;
#215=EDGE_LOOP('',(#216,#217,#218,#219)) ;
#255=EDGE_LOOP('',(#256,#257,#258,#259)) ;
#272=EDGE_LOOP('',(#273,#274,#275,#276)) ;
#284=EDGE_LOOP('',(#285,#286)) ;
#294=EDGE_LOOP('',(#295,#296)) ;
#298=EDGE_LOOP('',(#299,#300)) ;
#308=EDGE_LOOP('',(#309,#310)) ;
#312=EDGE_LOOP('',(#313,#314)) ;
#322=EDGE_LOOP('',(#323,#324)) ;
#326=EDGE_LOOP('',(#327,#328)) ;
#336=EDGE_LOOP('',(#337,#338)) ;
#89=FACE_OUTER_BOUND('',#84,.T.) ;
#106=FACE_OUTER_BOUND('',#101,.T.) ;
#146=FACE_OUTER_BOUND('',#141,.T.) ;
#163=FACE_OUTER_BOUND('',#158,.T.) ;
#203=FACE_OUTER_BOUND('',#198,.T.) ;
#220=FACE_OUTER_BOUND('',#215,.T.) ;
#260=FACE_OUTER_BOUND('',#255,.T.) ;
#277=FACE_OUTER_BOUND('',#272,.T.) ;
#287=FACE_OUTER_BOUND('',#284,.T.) ;
#297=FACE_OUTER_BOUND('',#294,.T.) ;
#311=FACE_OUTER_BOUND('',#308,.T.) ;
#325=FACE_OUTER_BOUND('',#322,.T.) ;
#339=FACE_OUTER_BOUND('',#336,.T.) ;
#44=UNCERTAINTY_MEASURE_WITH_UNIT(LENGTH_MEASURE(0.005),#41,'distance_accuracy_value','CONFUSED CURVE UNCERTAINTY') ;
#59=LINE('Line',#56,#58) ;
#75=LINE('Line',#72,#74) ;
#116=LINE('Line',#113,#115) ;
#132=LINE('Line',#129,#131) ;
#173=LINE('Line',#170,#172) ;
#189=LINE('Line',#186,#188) ;
#230=LINE('Line',#227,#229) ;
#246=LINE('Line',#243,#245) ;
#2=MECHANICAL_CONTEXT(' ',#1,'mechanical') ;
#24=PERSONAL_ADDRESS(' ',' ',' ',' ',' ',' ',' ',' ',' ',' ',' ',' ',(#22),' ') ;
#283=PLANE('',#282) ;
#293=PLANE('',#292) ;
#307=PLANE('',#306) ;
#321=PLANE('',#320) ;
#335=PLANE('',#334) ;
#7=PRODUCT_CATEGORY('part',$) ;
#9=PRODUCT_CATEGORY_RELATIONSHIP(' ',' ',#7,#8) ;
#6=PRODUCT_DEFINITION_FORMATION_WITH_SPECIFIED_SOURCE('',' ',#5,.NOT_KNOWN.) ;
#8=PRODUCT_RELATED_PRODUCT_CATEGORY('detail',$,(#5)) ;
#49=SHAPE_DEFINITION_REPRESENTATION(#40,#48) ;
#61=VERTEX_POINT('',#60) ;
#63=VERTEX_POINT('',#62) ;
#70=VERTEX_POINT('',#69) ;
#77=VERTEX_POINT('',#76) ;
#118=VERTEX_POINT('',#117) ;
#120=VERTEX_POINT('',#119) ;
#127=VERTEX_POINT('',#126) ;
#134=VERTEX_POINT('',#133) ;
#175=VERTEX_POINT('',#174) ;
#177=VERTEX_POINT('',#176) ;
#184=VERTEX_POINT('',#183) ;
#191=VERTEX_POINT('',#190) ;
#232=VERTEX_POINT('',#231) ;
#234=VERTEX_POINT('',#233) ;
#241=VERTEX_POINT('',#240) ;
#248=VERTEX_POINT('',#247) ;
#41=(LENGTH_UNIT()NAMED_UNIT(*)SI_UNIT(.MILLI.,.METRE.)) ;
#42=(NAMED_UNIT(*)PLANE_ANGLE_UNIT()SI_UNIT($,.RADIAN.)) ;
#43=(NAMED_UNIT(*)SI_UNIT($,.STERADIAN.)SOLID_ANGLE_UNIT()) ;
#45=(GEOMETRIC_REPRESENTATION_CONTEXT(3)GLOBAL_UNCERTAINTY_ASSIGNED_CONTEXT((#44))GLOBAL_UNIT_ASSIGNED_CONTEXT((#41,#42,#43))REPRESENTATION_CONTEXT(' ',' ')) ;
ENDSEC;
END-ISO-10303-21;
