ISO-10303-21;
HEADER;
/* Generated by software containing ST-Developer
 * from STEP Tools, Inc. (www.steptools.com) 
 */

FILE_DESCRIPTION(
/* description */ (''),
/* implementation_level */ '2;1');

FILE_NAME(
/* name */ 
'C:/Users/thomas.dargon/Documents/ALL SOLID STATE CELL/STEP/23-04-18/A
SSC_04.step',
/* time_stamp */ '2018-04-23T15:59:10+02:00',
/* author */ (''),
/* organization */ (''),
/* preprocessor_version */ 'ST-DEVELOPER v17',
/* originating_system */ 'Autodesk Translation Framework v7.1.0.215',
/* authorisation */ '');

FILE_SCHEMA (('AUTOMOTIVE_DESIGN { 1 0 10303 214 3 1 1 }'));
ENDSEC;

DATA;
#10=MECHANICAL_DESIGN_GEOMETRIC_PRESENTATION_REPRESENTATION('',(#13),#279);
#11=SHAPE_REPRESENTATION_RELATIONSHIP('SRR','None',#286,#12);
#12=ADVANCED_BREP_SHAPE_REPRESENTATION('',(#14),#278);
#13=STYLED_ITEM('',(#295),#14);
#14=MANIFOLD_SOLID_BREP('Body1',#133);
#15=FACE_BOUND('',#37,.T.);
#16=FACE_BOUND('',#39,.T.);
#17=PLANE('',#149);
#18=PLANE('',#155);
#19=PLANE('',#161);
#20=B_SPLINE_CURVE_WITH_KNOTS('',3,(#213,#214,#215,#216,#217,#218,#219,
#220,#221,#222,#223,#224,#225,#226,#227,#228,#229,#230),.UNSPECIFIED.,.F.,
 .F.,(4,2,2,2,2,2,2,2,4),(0.150729749134059,0.188412169800279,0.226094590466498,
0.263777044367308,0.301459498268118,0.339141952168928,0.376824406069737,
0.414506826735957,0.452189247402177),.UNSPECIFIED.);
#21=B_SPLINE_CURVE_WITH_KNOTS('',3,(#232,#233,#234,#235,#236,#237,#238,
#239,#240,#241),.UNSPECIFIED.,.F.,.F.,(4,2,2,2,4),(0.602918996536236,0.640601450437045,
0.678283904337855,0.715966325004075,0.753648745670294),.UNSPECIFIED.);
#22=B_SPLINE_CURVE_WITH_KNOTS('',3,(#243,#244,#245,#246,#247,#248,#249,
#250,#251,#252),.UNSPECIFIED.,.F.,.F.,(4,2,2,2,4),(0.452189247402177,0.489871668068396,
0.527554088734616,0.565236542635426,0.602918996536236),.UNSPECIFIED.);
#23=CYLINDRICAL_SURFACE('',#148,1.);
#24=CYLINDRICAL_SURFACE('',#152,14.);
#25=CYLINDRICAL_SURFACE('',#158,4.);
#26=FACE_OUTER_BOUND('',#33,.T.);
#27=FACE_OUTER_BOUND('',#34,.T.);
#28=FACE_OUTER_BOUND('',#35,.T.);
#29=FACE_OUTER_BOUND('',#36,.T.);
#30=FACE_OUTER_BOUND('',#38,.T.);
#31=FACE_OUTER_BOUND('',#40,.T.);
#32=FACE_OUTER_BOUND('',#41,.T.);
#33=EDGE_LOOP('',(#91,#92,#93,#94));
#34=EDGE_LOOP('',(#95,#96,#97,#98,#99,#100,#101));
#35=EDGE_LOOP('',(#102,#103));
#36=EDGE_LOOP('',(#104,#105,#106,#107,#108,#109));
#37=EDGE_LOOP('',(#110,#111,#112));
#38=EDGE_LOOP('',(#113,#114));
#39=EDGE_LOOP('',(#115,#116));
#40=EDGE_LOOP('',(#117,#118,#119,#120,#121,#122));
#41=EDGE_LOOP('',(#123,#124));
#42=LINE('',#209,#46);
#43=LINE('',#242,#47);
#44=LINE('',#263,#48);
#45=LINE('',#274,#49);
#46=VECTOR('',#170,0.5);
#47=VECTOR('',#173,1.);
#48=VECTOR('',#186,14.);
#49=VECTOR('',#199,4.);
#50=CIRCLE('',#146,1.);
#51=CIRCLE('',#147,1.);
#52=CIRCLE('',#150,14.);
#53=CIRCLE('',#151,14.);
#54=CIRCLE('',#153,14.);
#55=CIRCLE('',#154,14.);
#56=CIRCLE('',#156,4.);
#57=CIRCLE('',#157,4.);
#58=CIRCLE('',#159,4.);
#59=CIRCLE('',#160,4.);
#60=VERTEX_POINT('',#204);
#61=VERTEX_POINT('',#205);
#62=VERTEX_POINT('',#208);
#63=VERTEX_POINT('',#211);
#64=VERTEX_POINT('',#212);
#65=VERTEX_POINT('',#231);
#66=VERTEX_POINT('',#254);
#67=VERTEX_POINT('',#255);
#68=VERTEX_POINT('',#259);
#69=VERTEX_POINT('',#260);
#70=VERTEX_POINT('',#265);
#71=VERTEX_POINT('',#266);
#72=VERTEX_POINT('',#270);
#73=VERTEX_POINT('',#271);
#74=EDGE_CURVE('',#60,#61,#50,.T.);
#75=EDGE_CURVE('',#61,#60,#51,.T.);
#76=EDGE_CURVE('',#61,#62,#42,.T.);
#77=EDGE_CURVE('',#63,#64,#20,.T.);
#78=EDGE_CURVE('',#65,#63,#21,.T.);
#79=EDGE_CURVE('',#65,#61,#43,.T.);
#80=EDGE_CURVE('',#64,#65,#22,.T.);
#81=EDGE_CURVE('',#66,#67,#52,.T.);
#82=EDGE_CURVE('',#67,#66,#53,.T.);
#83=EDGE_CURVE('',#68,#69,#54,.T.);
#84=EDGE_CURVE('',#69,#68,#55,.T.);
#85=EDGE_CURVE('',#69,#67,#44,.T.);
#86=EDGE_CURVE('',#70,#71,#56,.T.);
#87=EDGE_CURVE('',#71,#70,#57,.T.);
#88=EDGE_CURVE('',#72,#73,#58,.T.);
#89=EDGE_CURVE('',#73,#72,#59,.T.);
#90=EDGE_CURVE('',#73,#71,#45,.T.);
#91=ORIENTED_EDGE('',*,*,#74,.F.);
#92=ORIENTED_EDGE('',*,*,#75,.F.);
#93=ORIENTED_EDGE('',*,*,#76,.T.);
#94=ORIENTED_EDGE('',*,*,#76,.F.);
#95=ORIENTED_EDGE('',*,*,#77,.F.);
#96=ORIENTED_EDGE('',*,*,#78,.F.);
#97=ORIENTED_EDGE('',*,*,#79,.T.);
#98=ORIENTED_EDGE('',*,*,#75,.T.);
#99=ORIENTED_EDGE('',*,*,#74,.T.);
#100=ORIENTED_EDGE('',*,*,#79,.F.);
#101=ORIENTED_EDGE('',*,*,#80,.F.);
#102=ORIENTED_EDGE('',*,*,#81,.F.);
#103=ORIENTED_EDGE('',*,*,#82,.F.);
#104=ORIENTED_EDGE('',*,*,#83,.F.);
#105=ORIENTED_EDGE('',*,*,#84,.F.);
#106=ORIENTED_EDGE('',*,*,#85,.T.);
#107=ORIENTED_EDGE('',*,*,#82,.T.);
#108=ORIENTED_EDGE('',*,*,#81,.T.);
#109=ORIENTED_EDGE('',*,*,#85,.F.);
#110=ORIENTED_EDGE('',*,*,#77,.T.);
#111=ORIENTED_EDGE('',*,*,#80,.T.);
#112=ORIENTED_EDGE('',*,*,#78,.T.);
#113=ORIENTED_EDGE('',*,*,#83,.T.);
#114=ORIENTED_EDGE('',*,*,#84,.T.);
#115=ORIENTED_EDGE('',*,*,#86,.F.);
#116=ORIENTED_EDGE('',*,*,#87,.F.);
#117=ORIENTED_EDGE('',*,*,#88,.F.);
#118=ORIENTED_EDGE('',*,*,#89,.F.);
#119=ORIENTED_EDGE('',*,*,#90,.T.);
#120=ORIENTED_EDGE('',*,*,#87,.T.);
#121=ORIENTED_EDGE('',*,*,#86,.T.);
#122=ORIENTED_EDGE('',*,*,#90,.F.);
#123=ORIENTED_EDGE('',*,*,#88,.T.);
#124=ORIENTED_EDGE('',*,*,#89,.T.);
#125=CONICAL_SURFACE('',#145,0.5,1.02974425867665);
#126=ADVANCED_FACE('',(#26),#125,.F.);
#127=ADVANCED_FACE('',(#27),#23,.F.);
#128=ADVANCED_FACE('',(#28),#17,.T.);
#129=ADVANCED_FACE('',(#29,#15),#24,.T.);
#130=ADVANCED_FACE('',(#30,#16),#18,.T.);
#131=ADVANCED_FACE('',(#31),#25,.T.);
#132=ADVANCED_FACE('',(#32),#19,.T.);
#133=CLOSED_SHELL('',(#126,#127,#128,#129,#130,#131,#132));
#134=DERIVED_UNIT_ELEMENT(#281,3.);
#135=DERIVED_UNIT((#134));
#136=MEASURE_REPRESENTATION_ITEM('density measure',
POSITIVE_RATIO_MEASURE(0.),#135);
#137=PROPERTY_DEFINITION_REPRESENTATION(#142,#139);
#138=PROPERTY_DEFINITION_REPRESENTATION(#143,#140);
#139=REPRESENTATION('material name',(#141),#278);
#140=REPRESENTATION('density',(#136),#278);
#141=DESCRIPTIVE_REPRESENTATION_ITEM('',$);
#142=PROPERTY_DEFINITION('material property','material name',#288);
#143=PROPERTY_DEFINITION('material property','density of part',#288);
#144=AXIS2_PLACEMENT_3D('placement',#202,#162,#163);
#145=AXIS2_PLACEMENT_3D('',#203,#164,#165);
#146=AXIS2_PLACEMENT_3D('',#206,#166,#167);
#147=AXIS2_PLACEMENT_3D('',#207,#168,#169);
#148=AXIS2_PLACEMENT_3D('',#210,#171,#172);
#149=AXIS2_PLACEMENT_3D('',#253,#174,#175);
#150=AXIS2_PLACEMENT_3D('',#256,#176,#177);
#151=AXIS2_PLACEMENT_3D('',#257,#178,#179);
#152=AXIS2_PLACEMENT_3D('',#258,#180,#181);
#153=AXIS2_PLACEMENT_3D('',#261,#182,#183);
#154=AXIS2_PLACEMENT_3D('',#262,#184,#185);
#155=AXIS2_PLACEMENT_3D('',#264,#187,#188);
#156=AXIS2_PLACEMENT_3D('',#267,#189,#190);
#157=AXIS2_PLACEMENT_3D('',#268,#191,#192);
#158=AXIS2_PLACEMENT_3D('',#269,#193,#194);
#159=AXIS2_PLACEMENT_3D('',#272,#195,#196);
#160=AXIS2_PLACEMENT_3D('',#273,#197,#198);
#161=AXIS2_PLACEMENT_3D('',#275,#200,#201);
#162=DIRECTION('axis',(0.,0.,1.));
#163=DIRECTION('refdir',(1.,0.,0.));
#164=DIRECTION('center_axis',(1.,0.,0.));
#165=DIRECTION('ref_axis',(0.,1.,0.));
#166=DIRECTION('center_axis',(-1.,0.,0.));
#167=DIRECTION('ref_axis',(0.,1.,0.));
#168=DIRECTION('center_axis',(-1.,0.,0.));
#169=DIRECTION('ref_axis',(0.,1.,0.));
#170=DIRECTION('',(-0.515038074910054,0.857167300702112,-1.04972719113862E-16));
#171=DIRECTION('center_axis',(-1.,0.,0.));
#172=DIRECTION('ref_axis',(0.,1.,0.));
#173=DIRECTION('',(-1.,0.,0.));
#174=DIRECTION('center_axis',(0.,0.,-1.));
#175=DIRECTION('ref_axis',(-1.,0.,0.));
#176=DIRECTION('center_axis',(0.,0.,1.));
#177=DIRECTION('ref_axis',(1.,0.,0.));
#178=DIRECTION('center_axis',(0.,0.,1.));
#179=DIRECTION('ref_axis',(1.,0.,0.));
#180=DIRECTION('center_axis',(0.,0.,1.));
#181=DIRECTION('ref_axis',(1.,0.,0.));
#182=DIRECTION('center_axis',(0.,0.,1.));
#183=DIRECTION('ref_axis',(1.,0.,0.));
#184=DIRECTION('center_axis',(0.,0.,1.));
#185=DIRECTION('ref_axis',(1.,0.,0.));
#186=DIRECTION('',(0.,0.,-1.));
#187=DIRECTION('center_axis',(0.,0.,1.));
#188=DIRECTION('ref_axis',(1.,0.,0.));
#189=DIRECTION('center_axis',(0.,0.,1.));
#190=DIRECTION('ref_axis',(1.,0.,0.));
#191=DIRECTION('center_axis',(0.,0.,1.));
#192=DIRECTION('ref_axis',(1.,0.,0.));
#193=DIRECTION('center_axis',(0.,0.,1.));
#194=DIRECTION('ref_axis',(1.,0.,0.));
#195=DIRECTION('center_axis',(0.,0.,1.));
#196=DIRECTION('ref_axis',(1.,0.,0.));
#197=DIRECTION('center_axis',(0.,0.,1.));
#198=DIRECTION('ref_axis',(1.,0.,0.));
#199=DIRECTION('',(0.,0.,-1.));
#200=DIRECTION('center_axis',(0.,0.,1.));
#201=DIRECTION('ref_axis',(1.,0.,0.));
#202=CARTESIAN_POINT('',(0.,0.,0.));
#203=CARTESIAN_POINT('Origin',(1.69956969048622,0.,5.));
#204=CARTESIAN_POINT('',(2.,1.,5.));
#205=CARTESIAN_POINT('',(2.,-1.,5.));
#206=CARTESIAN_POINT('Origin',(2.,0.,5.));
#207=CARTESIAN_POINT('Origin',(2.,0.,5.));
#208=CARTESIAN_POINT('',(1.39913938097244,0.,5.));
#209=CARTESIAN_POINT('',(1.69956969048622,-0.5,5.));
#210=CARTESIAN_POINT('Origin',(8.,0.,5.));
#211=CARTESIAN_POINT('',(14.,0.,6.));
#212=CARTESIAN_POINT('',(14.,0.,4.));
#213=CARTESIAN_POINT('Ctrl Pts',(14.,-1.73472347597681E-16,6.));
#214=CARTESIAN_POINT('Ctrl Pts',(14.,0.125608068887399,6.));
#215=CARTESIAN_POINT('Ctrl Pts',(13.998136104895,0.259559404269999,5.97488844500538));
#216=CARTESIAN_POINT('Ctrl Pts',(13.9913982219828,0.505926170077026,5.87282144441628));
#217=CARTESIAN_POINT('Ctrl Pts',(13.9866203202806,0.618345198702569,5.79586836367053));
#218=CARTESIAN_POINT('Ctrl Pts',(13.9776425839795,0.795868441955168,5.61834512041793));
#219=CARTESIAN_POINT('Ctrl Pts',(13.9728593529907,0.872821462422647,5.50592612663263));
#220=CARTESIAN_POINT('Ctrl Pts',(13.9661092787676,0.974888415676284,5.25955947504492));
#221=CARTESIAN_POINT('Ctrl Pts',(13.9642400437689,1.,5.12560817966937));
#222=CARTESIAN_POINT('Ctrl Pts',(13.9642400437689,1.,4.87439182033063));
#223=CARTESIAN_POINT('Ctrl Pts',(13.9661092787676,0.974888415676284,4.74044052495508));
#224=CARTESIAN_POINT('Ctrl Pts',(13.9728593529907,0.872821462422647,4.49407387336737));
#225=CARTESIAN_POINT('Ctrl Pts',(13.9776425839795,0.795868441955168,4.38165487958207));
#226=CARTESIAN_POINT('Ctrl Pts',(13.9866203202806,0.61834519870257,4.20413163632947));
#227=CARTESIAN_POINT('Ctrl Pts',(13.9913982219828,0.505926170077027,4.12717855558372));
#228=CARTESIAN_POINT('Ctrl Pts',(13.998136104895,0.259559404269999,4.02511155499462));
#229=CARTESIAN_POINT('Ctrl Pts',(14.,0.125608068887399,4.));
#230=CARTESIAN_POINT('Ctrl Pts',(14.,2.77555756156289E-16,4.));
#231=CARTESIAN_POINT('',(13.9642400437689,-1.,5.));
#232=CARTESIAN_POINT('Ctrl Pts',(13.9642400437689,-1.,5.));
#233=CARTESIAN_POINT('Ctrl Pts',(13.9642400437689,-1.,5.12560817966937));
#234=CARTESIAN_POINT('Ctrl Pts',(13.9661092787676,-0.974888415676284,5.25955947504492));
#235=CARTESIAN_POINT('Ctrl Pts',(13.9728593529907,-0.872821462422647,5.50592612663263));
#236=CARTESIAN_POINT('Ctrl Pts',(13.9776425839795,-0.795868441955168,5.61834512041793));
#237=CARTESIAN_POINT('Ctrl Pts',(13.9866203202806,-0.61834519870257,5.79586836367053));
#238=CARTESIAN_POINT('Ctrl Pts',(13.9913982219828,-0.505926170077026,5.87282144441628));
#239=CARTESIAN_POINT('Ctrl Pts',(13.998136104895,-0.259559404269999,5.97488844500538));
#240=CARTESIAN_POINT('Ctrl Pts',(14.,-0.125608068887399,6.));
#241=CARTESIAN_POINT('Ctrl Pts',(14.,-1.04083408558608E-16,6.));
#242=CARTESIAN_POINT('',(8.,-1.,5.));
#243=CARTESIAN_POINT('Ctrl Pts',(14.,3.12250225675825E-16,4.));
#244=CARTESIAN_POINT('Ctrl Pts',(14.,-0.125608068887398,4.));
#245=CARTESIAN_POINT('Ctrl Pts',(13.998136104895,-0.259559404269999,4.02511155499462));
#246=CARTESIAN_POINT('Ctrl Pts',(13.9913982219828,-0.505926170077025,4.12717855558372));
#247=CARTESIAN_POINT('Ctrl Pts',(13.9866203202806,-0.618345198702568,4.20413163632947));
#248=CARTESIAN_POINT('Ctrl Pts',(13.9776425839795,-0.795868441955167,4.38165487958207));
#249=CARTESIAN_POINT('Ctrl Pts',(13.9728593529907,-0.872821462422646,4.49407387336737));
#250=CARTESIAN_POINT('Ctrl Pts',(13.9661092787676,-0.974888415676284,4.74044052495508));
#251=CARTESIAN_POINT('Ctrl Pts',(13.9642400437689,-1.,4.87439182033063));
#252=CARTESIAN_POINT('Ctrl Pts',(13.9642400437689,-1.,5.));
#253=CARTESIAN_POINT('Origin',(14.,0.,5.39260384428426E-32));
#254=CARTESIAN_POINT('',(14.,0.,5.39260384428426E-32));
#255=CARTESIAN_POINT('',(-14.,-1.71450551880629E-15,0.));
#256=CARTESIAN_POINT('Origin',(0.,0.,0.));
#257=CARTESIAN_POINT('Origin',(0.,0.,0.));
#258=CARTESIAN_POINT('Origin',(0.,0.,5.));
#259=CARTESIAN_POINT('',(14.,0.,10.));
#260=CARTESIAN_POINT('',(-14.,-1.71450551880629E-15,10.));
#261=CARTESIAN_POINT('Origin',(0.,0.,10.));
#262=CARTESIAN_POINT('Origin',(0.,0.,10.));
#263=CARTESIAN_POINT('',(-14.,-1.71450551880629E-15,5.));
#264=CARTESIAN_POINT('Origin',(4.,0.,10.));
#265=CARTESIAN_POINT('',(4.,0.,10.));
#266=CARTESIAN_POINT('',(-4.,-4.89858719658941E-16,10.));
#267=CARTESIAN_POINT('Origin',(0.,0.,10.));
#268=CARTESIAN_POINT('Origin',(0.,0.,10.));
#269=CARTESIAN_POINT('Origin',(0.,0.,27.75));
#270=CARTESIAN_POINT('',(4.,0.,45.5));
#271=CARTESIAN_POINT('',(-4.,-4.89858719658941E-16,45.5));
#272=CARTESIAN_POINT('Origin',(0.,0.,45.5));
#273=CARTESIAN_POINT('Origin',(0.,0.,45.5));
#274=CARTESIAN_POINT('',(-4.,-4.89858719658941E-16,27.75));
#275=CARTESIAN_POINT('Origin',(0.,0.,45.5));
#276=UNCERTAINTY_MEASURE_WITH_UNIT(LENGTH_MEASURE(0.01),#280,
'DISTANCE_ACCURACY_VALUE',
'Maximum model space distance between geometric entities at asserted c
onnectivities');
#277=UNCERTAINTY_MEASURE_WITH_UNIT(LENGTH_MEASURE(0.01),#280,
'DISTANCE_ACCURACY_VALUE',
'Maximum model space distance between geometric entities at asserted c
onnectivities');
#278=(
GEOMETRIC_REPRESENTATION_CONTEXT(3)
GLOBAL_UNCERTAINTY_ASSIGNED_CONTEXT((#276))
GLOBAL_UNIT_ASSIGNED_CONTEXT((#280,#283,#282))
REPRESENTATION_CONTEXT('','3D')
);
#279=(
GEOMETRIC_REPRESENTATION_CONTEXT(3)
GLOBAL_UNCERTAINTY_ASSIGNED_CONTEXT((#277))
GLOBAL_UNIT_ASSIGNED_CONTEXT((#280,#283,#282))
REPRESENTATION_CONTEXT('','3D')
);
#280=(
LENGTH_UNIT()
NAMED_UNIT(*)
SI_UNIT(.MILLI.,.METRE.)
);
#281=(
LENGTH_UNIT()
NAMED_UNIT(*)
SI_UNIT(.CENTI.,.METRE.)
);
#282=(
NAMED_UNIT(*)
SI_UNIT($,.STERADIAN.)
SOLID_ANGLE_UNIT()
);
#283=(
NAMED_UNIT(*)
PLANE_ANGLE_UNIT()
SI_UNIT($,.RADIAN.)
);
#284=SHAPE_DEFINITION_REPRESENTATION(#285,#286);
#285=PRODUCT_DEFINITION_SHAPE('',$,#288);
#286=SHAPE_REPRESENTATION('',(#144),#278);
#287=PRODUCT_DEFINITION_CONTEXT('part definition',#292,'design');
#288=PRODUCT_DEFINITION('PlungerT','PlungerT',#289,#287);
#289=PRODUCT_DEFINITION_FORMATION('',$,#294);
#290=PRODUCT_RELATED_PRODUCT_CATEGORY('PlungerT','PlungerT',(#294));
#291=APPLICATION_PROTOCOL_DEFINITION('international standard',
'automotive_design',2009,#292);
#292=APPLICATION_CONTEXT(
'Core Data for Automotive Mechanical Design Process');
#293=PRODUCT_CONTEXT('part definition',#292,'mechanical');
#294=PRODUCT('PlungerT','PlungerT',$,(#293));
#295=PRESENTATION_STYLE_ASSIGNMENT((#296));
#296=SURFACE_STYLE_USAGE(.BOTH.,#297);
#297=SURFACE_SIDE_STYLE('',(#298));
#298=SURFACE_STYLE_FILL_AREA(#299);
#299=FILL_AREA_STYLE('Stainless Steel - Satin',(#300));
#300=FILL_AREA_STYLE_COLOUR('Stainless Steel - Satin',#301);
#301=COLOUR_RGB('Stainless Steel - Satin',0.796078431372549,0.796078431372549,
0.796078431372549);
ENDSEC;
END-ISO-10303-21;
