ISO-10303-21;
HEADER;
/* Generated by software containing ST-Developer
 * from STEP Tools, Inc. (www.steptools.com) 
 */

FILE_DESCRIPTION(
/* description */ (''),
/* implementation_level */ '2;1');

FILE_NAME(
/* name */ 
'C:/Users/thomas.dargon/Documents/ALL SOLID STATE CELL/STEP/23-04-18/A
SSC_06.step',
/* time_stamp */ '2018-04-23T16:04:01+02:00',
/* author */ (''),
/* organization */ (''),
/* preprocessor_version */ 'ST-DEVELOPER v17',
/* originating_system */ 'Autodesk Translation Framework v7.1.0.215',
/* authorisation */ '');

FILE_SCHEMA (('AUTOMOTIVE_DESIGN { 1 0 10303 214 3 1 1 }'));
ENDSEC;

DATA;
#10=MECHANICAL_DESIGN_GEOMETRIC_PRESENTATION_REPRESENTATION('',(#13),#194);
#11=SHAPE_REPRESENTATION_RELATIONSHIP('SRR','None',#201,#12);
#12=ADVANCED_BREP_SHAPE_REPRESENTATION('',(#14),#193);
#13=STYLED_ITEM('',(#210),#14);
#14=MANIFOLD_SOLID_BREP('Body1',#101);
#15=FACE_BOUND('',#30,.T.);
#16=PLANE('',#120);
#17=PLANE('',#123);
#18=PLANE('',#127);
#19=CYLINDRICAL_SURFACE('',#117,6.);
#20=CYLINDRICAL_SURFACE('',#124,15.);
#21=FACE_OUTER_BOUND('',#27,.T.);
#22=FACE_OUTER_BOUND('',#28,.T.);
#23=FACE_OUTER_BOUND('',#29,.T.);
#24=FACE_OUTER_BOUND('',#31,.T.);
#25=FACE_OUTER_BOUND('',#32,.T.);
#26=FACE_OUTER_BOUND('',#33,.T.);
#27=EDGE_LOOP('',(#70,#71,#72,#73,#74));
#28=EDGE_LOOP('',(#75,#76,#77,#78,#79,#80));
#29=EDGE_LOOP('',(#81,#82));
#30=EDGE_LOOP('',(#83));
#31=EDGE_LOOP('',(#84,#85));
#32=EDGE_LOOP('',(#86,#87,#88,#89,#90,#91));
#33=EDGE_LOOP('',(#92,#93));
#34=LINE('',#168,#37);
#35=LINE('',#176,#38);
#36=LINE('',#189,#39);
#37=VECTOR('',#134,6.5);
#38=VECTOR('',#143,6.);
#39=VECTOR('',#160,15.);
#40=CIRCLE('',#114,7.);
#41=CIRCLE('',#115,6.);
#42=CIRCLE('',#116,6.);
#43=CIRCLE('',#118,6.);
#44=CIRCLE('',#119,6.);
#45=CIRCLE('',#121,15.);
#46=CIRCLE('',#122,15.);
#47=CIRCLE('',#125,15.);
#48=CIRCLE('',#126,15.);
#49=VERTEX_POINT('',#165);
#50=VERTEX_POINT('',#167);
#51=VERTEX_POINT('',#169);
#52=VERTEX_POINT('',#173);
#53=VERTEX_POINT('',#174);
#54=VERTEX_POINT('',#179);
#55=VERTEX_POINT('',#180);
#56=VERTEX_POINT('',#185);
#57=VERTEX_POINT('',#186);
#58=EDGE_CURVE('',#49,#49,#40,.T.);
#59=EDGE_CURVE('',#49,#50,#34,.T.);
#60=EDGE_CURVE('',#50,#51,#41,.T.);
#61=EDGE_CURVE('',#51,#50,#42,.T.);
#62=EDGE_CURVE('',#52,#53,#43,.T.);
#63=EDGE_CURVE('',#53,#51,#35,.T.);
#64=EDGE_CURVE('',#53,#52,#44,.T.);
#65=EDGE_CURVE('',#54,#55,#45,.T.);
#66=EDGE_CURVE('',#55,#54,#46,.T.);
#67=EDGE_CURVE('',#56,#57,#47,.T.);
#68=EDGE_CURVE('',#57,#56,#48,.T.);
#69=EDGE_CURVE('',#57,#55,#36,.T.);
#70=ORIENTED_EDGE('',*,*,#58,.T.);
#71=ORIENTED_EDGE('',*,*,#59,.T.);
#72=ORIENTED_EDGE('',*,*,#60,.T.);
#73=ORIENTED_EDGE('',*,*,#61,.T.);
#74=ORIENTED_EDGE('',*,*,#59,.F.);
#75=ORIENTED_EDGE('',*,*,#62,.T.);
#76=ORIENTED_EDGE('',*,*,#63,.T.);
#77=ORIENTED_EDGE('',*,*,#60,.F.);
#78=ORIENTED_EDGE('',*,*,#61,.F.);
#79=ORIENTED_EDGE('',*,*,#63,.F.);
#80=ORIENTED_EDGE('',*,*,#64,.T.);
#81=ORIENTED_EDGE('',*,*,#65,.F.);
#82=ORIENTED_EDGE('',*,*,#66,.F.);
#83=ORIENTED_EDGE('',*,*,#58,.F.);
#84=ORIENTED_EDGE('',*,*,#62,.F.);
#85=ORIENTED_EDGE('',*,*,#64,.F.);
#86=ORIENTED_EDGE('',*,*,#67,.F.);
#87=ORIENTED_EDGE('',*,*,#68,.F.);
#88=ORIENTED_EDGE('',*,*,#69,.T.);
#89=ORIENTED_EDGE('',*,*,#66,.T.);
#90=ORIENTED_EDGE('',*,*,#65,.T.);
#91=ORIENTED_EDGE('',*,*,#69,.F.);
#92=ORIENTED_EDGE('',*,*,#67,.T.);
#93=ORIENTED_EDGE('',*,*,#68,.T.);
#94=CONICAL_SURFACE('',#113,6.5,0.785398163397449);
#95=ADVANCED_FACE('',(#21),#94,.F.);
#96=ADVANCED_FACE('',(#22),#19,.F.);
#97=ADVANCED_FACE('',(#23,#15),#16,.T.);
#98=ADVANCED_FACE('',(#24),#17,.T.);
#99=ADVANCED_FACE('',(#25),#20,.T.);
#100=ADVANCED_FACE('',(#26),#18,.T.);
#101=CLOSED_SHELL('',(#95,#96,#97,#98,#99,#100));
#102=DERIVED_UNIT_ELEMENT(#196,3.);
#103=DERIVED_UNIT((#102));
#104=MEASURE_REPRESENTATION_ITEM('density measure',
POSITIVE_RATIO_MEASURE(0.),#103);
#105=PROPERTY_DEFINITION_REPRESENTATION(#110,#107);
#106=PROPERTY_DEFINITION_REPRESENTATION(#111,#108);
#107=REPRESENTATION('material name',(#109),#193);
#108=REPRESENTATION('density',(#104),#193);
#109=DESCRIPTIVE_REPRESENTATION_ITEM('',$);
#110=PROPERTY_DEFINITION('material property','material name',#203);
#111=PROPERTY_DEFINITION('material property','density of part',#203);
#112=AXIS2_PLACEMENT_3D('placement',#163,#128,#129);
#113=AXIS2_PLACEMENT_3D('',#164,#130,#131);
#114=AXIS2_PLACEMENT_3D('',#166,#132,#133);
#115=AXIS2_PLACEMENT_3D('',#170,#135,#136);
#116=AXIS2_PLACEMENT_3D('',#171,#137,#138);
#117=AXIS2_PLACEMENT_3D('',#172,#139,#140);
#118=AXIS2_PLACEMENT_3D('',#175,#141,#142);
#119=AXIS2_PLACEMENT_3D('',#177,#144,#145);
#120=AXIS2_PLACEMENT_3D('',#178,#146,#147);
#121=AXIS2_PLACEMENT_3D('',#181,#148,#149);
#122=AXIS2_PLACEMENT_3D('',#182,#150,#151);
#123=AXIS2_PLACEMENT_3D('',#183,#152,#153);
#124=AXIS2_PLACEMENT_3D('',#184,#154,#155);
#125=AXIS2_PLACEMENT_3D('',#187,#156,#157);
#126=AXIS2_PLACEMENT_3D('',#188,#158,#159);
#127=AXIS2_PLACEMENT_3D('',#190,#161,#162);
#128=DIRECTION('axis',(0.,0.,1.));
#129=DIRECTION('refdir',(1.,0.,0.));
#130=DIRECTION('center_axis',(-7.40148683083438E-17,0.,1.));
#131=DIRECTION('ref_axis',(1.,0.,6.93475917054087E-17));
#132=DIRECTION('center_axis',(-7.40148683083438E-17,0.,1.));
#133=DIRECTION('ref_axis',(1.,0.,7.40148683083438E-17));
#134=DIRECTION('',(0.707106781186548,8.65956056235494E-17,-0.707106781186547));
#135=DIRECTION('center_axis',(7.40148683083438E-17,0.,-1.));
#136=DIRECTION('ref_axis',(1.,0.,6.39024356686511E-17));
#137=DIRECTION('center_axis',(7.40148683083438E-17,0.,-1.));
#138=DIRECTION('ref_axis',(1.,0.,6.39024356686511E-17));
#139=DIRECTION('center_axis',(7.40148683083438E-17,0.,-1.));
#140=DIRECTION('ref_axis',(-1.,0.,-6.39024356686511E-17));
#141=DIRECTION('center_axis',(7.40148683083438E-17,0.,-1.));
#142=DIRECTION('ref_axis',(1.,0.,7.40148683083438E-17));
#143=DIRECTION('',(-7.40148683083438E-17,0.,1.));
#144=DIRECTION('center_axis',(7.40148683083438E-17,0.,-1.));
#145=DIRECTION('ref_axis',(1.,0.,7.40148683083438E-17));
#146=DIRECTION('center_axis',(-7.40148683083438E-17,0.,1.));
#147=DIRECTION('ref_axis',(1.,0.,7.40148683083438E-17));
#148=DIRECTION('center_axis',(7.40148683083438E-17,0.,-1.));
#149=DIRECTION('ref_axis',(1.,0.,7.40148683083438E-17));
#150=DIRECTION('center_axis',(7.40148683083438E-17,0.,-1.));
#151=DIRECTION('ref_axis',(1.,0.,7.40148683083438E-17));
#152=DIRECTION('center_axis',(-7.40148683083438E-17,0.,1.));
#153=DIRECTION('ref_axis',(1.,0.,7.40148683083438E-17));
#154=DIRECTION('center_axis',(7.40148683083438E-17,0.,-1.));
#155=DIRECTION('ref_axis',(-1.,0.,-6.39024356686511E-17));
#156=DIRECTION('center_axis',(7.40148683083438E-17,0.,-1.));
#157=DIRECTION('ref_axis',(1.,0.,7.40148683083438E-17));
#158=DIRECTION('center_axis',(7.40148683083438E-17,0.,-1.));
#159=DIRECTION('ref_axis',(1.,0.,7.40148683083438E-17));
#160=DIRECTION('',(-7.40148683083438E-17,0.,1.));
#161=DIRECTION('center_axis',(7.40148683083438E-17,0.,-1.));
#162=DIRECTION('ref_axis',(-1.,0.,-7.40148683083438E-17));
#163=CARTESIAN_POINT('',(0.,0.,0.));
#164=CARTESIAN_POINT('Origin',(-3.21502084214368E-16,0.,4.5));
#165=CARTESIAN_POINT('',(-7.,-8.57252759403147E-16,5.));
#166=CARTESIAN_POINT('Origin',(-3.5850951836854E-16,0.,5.));
#167=CARTESIAN_POINT('',(-6.,7.34788079488412E-16,4.));
#168=CARTESIAN_POINT('',(-6.5,-7.9602041944578E-16,4.5));
#169=CARTESIAN_POINT('',(6.,-7.34788079488412E-16,4.));
#170=CARTESIAN_POINT('Origin',(-2.84494650060196E-16,0.,4.));
#171=CARTESIAN_POINT('Origin',(-2.84494650060196E-16,0.,4.));
#172=CARTESIAN_POINT('Origin',(-2.84494650060196E-16,0.,4.));
#173=CARTESIAN_POINT('',(-6.,0.,3.));
#174=CARTESIAN_POINT('',(6.,-7.34788079488412E-16,3.));
#175=CARTESIAN_POINT('Origin',(-2.10479781751852E-16,0.,3.));
#176=CARTESIAN_POINT('',(6.,-7.34788079488412E-16,4.));
#177=CARTESIAN_POINT('Origin',(-2.10479781751852E-16,0.,3.));
#178=CARTESIAN_POINT('Origin',(-15.,0.,5.));
#179=CARTESIAN_POINT('',(-15.,0.,5.));
#180=CARTESIAN_POINT('',(15.,-1.83697019872103E-15,5.));
#181=CARTESIAN_POINT('Origin',(-3.5850951836854E-16,0.,5.));
#182=CARTESIAN_POINT('Origin',(-3.5850951836854E-16,0.,5.));
#183=CARTESIAN_POINT('Origin',(-6.,0.,3.));
#184=CARTESIAN_POINT('Origin',(-1.73472347597681E-16,0.,2.5));
#185=CARTESIAN_POINT('',(-15.,0.,-2.22044604925031E-15));
#186=CARTESIAN_POINT('',(15.,-1.83697019872103E-15,-2.77555756156289E-16));
#187=CARTESIAN_POINT('Origin',(1.15648231731788E-17,0.,-1.11022302462516E-15));
#188=CARTESIAN_POINT('Origin',(1.15648231731788E-17,0.,-1.11022302462516E-15));
#189=CARTESIAN_POINT('',(15.,-1.83697019872103E-15,2.5));
#190=CARTESIAN_POINT('Origin',(0.,0.,0.));
#191=UNCERTAINTY_MEASURE_WITH_UNIT(LENGTH_MEASURE(0.01),#195,
'DISTANCE_ACCURACY_VALUE',
'Maximum model space distance between geometric entities at asserted c
onnectivities');
#192=UNCERTAINTY_MEASURE_WITH_UNIT(LENGTH_MEASURE(0.01),#195,
'DISTANCE_ACCURACY_VALUE',
'Maximum model space distance between geometric entities at asserted c
onnectivities');
#193=(
GEOMETRIC_REPRESENTATION_CONTEXT(3)
GLOBAL_UNCERTAINTY_ASSIGNED_CONTEXT((#191))
GLOBAL_UNIT_ASSIGNED_CONTEXT((#195,#198,#197))
REPRESENTATION_CONTEXT('','3D')
);
#194=(
GEOMETRIC_REPRESENTATION_CONTEXT(3)
GLOBAL_UNCERTAINTY_ASSIGNED_CONTEXT((#192))
GLOBAL_UNIT_ASSIGNED_CONTEXT((#195,#198,#197))
REPRESENTATION_CONTEXT('','3D')
);
#195=(
LENGTH_UNIT()
NAMED_UNIT(*)
SI_UNIT(.MILLI.,.METRE.)
);
#196=(
LENGTH_UNIT()
NAMED_UNIT(*)
SI_UNIT(.CENTI.,.METRE.)
);
#197=(
NAMED_UNIT(*)
SI_UNIT($,.STERADIAN.)
SOLID_ANGLE_UNIT()
);
#198=(
NAMED_UNIT(*)
PLANE_ANGLE_UNIT()
SI_UNIT($,.RADIAN.)
);
#199=SHAPE_DEFINITION_REPRESENTATION(#200,#201);
#200=PRODUCT_DEFINITION_SHAPE('',$,#203);
#201=SHAPE_REPRESENTATION('',(#112),#193);
#202=PRODUCT_DEFINITION_CONTEXT('part definition',#207,'design');
#203=PRODUCT_DEFINITION('Washer Thin','Washer Thin',#204,#202);
#204=PRODUCT_DEFINITION_FORMATION('',$,#209);
#205=PRODUCT_RELATED_PRODUCT_CATEGORY('Washer Thin','Washer Thin',(#209));
#206=APPLICATION_PROTOCOL_DEFINITION('international standard',
'automotive_design',2009,#207);
#207=APPLICATION_CONTEXT(
'Core Data for Automotive Mechanical Design Process');
#208=PRODUCT_CONTEXT('part definition',#207,'mechanical');
#209=PRODUCT('Washer Thin','Washer Thin',$,(#208));
#210=PRESENTATION_STYLE_ASSIGNMENT((#211));
#211=SURFACE_STYLE_USAGE(.BOTH.,#212);
#212=SURFACE_SIDE_STYLE('',(#213));
#213=SURFACE_STYLE_FILL_AREA(#214);
#214=FILL_AREA_STYLE('Stainless Steel - Satin',(#215));
#215=FILL_AREA_STYLE_COLOUR('Stainless Steel - Satin',#216);
#216=COLOUR_RGB('Stainless Steel - Satin',0.796078431372549,0.796078431372549,
0.796078431372549);
ENDSEC;
END-ISO-10303-21;
