ISO-10303-21;
HEADER;
/* Generated by software containing ST-Developer
 * from STEP Tools, Inc. (www.steptools.com) 
 */

FILE_DESCRIPTION(
/* description */ (''),
/* implementation_level */ '2;1');

FILE_NAME(
/* name */ 
'C:/Users/thomas.dargon/Documents/ALL SOLID STATE CELL/STEP/23-04-18/A
SSC_08.step',
/* time_stamp */ '2018-04-23T16:07:23+02:00',
/* author */ (''),
/* organization */ (''),
/* preprocessor_version */ 'ST-DEVELOPER v17',
/* originating_system */ 'Autodesk Translation Framework v7.1.0.215',
/* authorisation */ '');

FILE_SCHEMA (('AUTOMOTIVE_DESIGN { 1 0 10303 214 3 1 1 }'));
ENDSEC;

DATA;
#10=MECHANICAL_DESIGN_GEOMETRIC_PRESENTATION_REPRESENTATION('',(#13),#541);
#11=SHAPE_REPRESENTATION_RELATIONSHIP('SRR','None',#548,#12);
#12=ADVANCED_BREP_SHAPE_REPRESENTATION('',(#14),#540);
#13=STYLED_ITEM('',(#557),#14);
#14=MANIFOLD_SOLID_BREP('Body1',#289);
#15=B_SPLINE_CURVE_WITH_KNOTS('',3,(#490,#491,#492,#493,#494,#495,#496,
#497,#498,#499,#500,#501,#502,#503,#504,#505,#506,#507),.UNSPECIFIED.,.F.,
 .F.,(4,2,2,2,2,2,2,2,4),(0.150729749134059,0.188412169800279,0.226094590466498,
0.263777044367308,0.301459498268118,0.339141952168928,0.376824406069738,
0.414506826735957,0.452189247402177),.UNSPECIFIED.);
#16=B_SPLINE_CURVE_WITH_KNOTS('',3,(#509,#510,#511,#512,#513,#514,#515,
#516,#517,#518),.UNSPECIFIED.,.F.,.F.,(4,2,2,2,4),(0.602918996536236,0.640601450437046,
0.678283904337856,0.715966325004075,0.753648745670295),.UNSPECIFIED.);
#17=B_SPLINE_CURVE_WITH_KNOTS('',3,(#520,#521,#522,#523,#524,#525,#526,
#527,#528,#529),.UNSPECIFIED.,.F.,.F.,(4,2,2,2,4),(0.452189247402177,0.489871668068397,
0.527554088734616,0.565236542635426,0.602918996536236),.UNSPECIFIED.);
#18=CONICAL_SURFACE('',#324,0.5,1.02974425867665);
#19=FACE_BOUND('',#51,.T.);
#20=FACE_BOUND('',#57,.T.);
#21=FACE_BOUND('',#63,.T.);
#22=PLANE('',#304);
#23=PLANE('',#308);
#24=PLANE('',#312);
#25=PLANE('',#313);
#26=PLANE('',#314);
#27=PLANE('',#316);
#28=PLANE('',#317);
#29=PLANE('',#323);
#30=PLANE('',#332);
#31=FACE_OUTER_BOUND('',#47,.T.);
#32=FACE_OUTER_BOUND('',#48,.T.);
#33=FACE_OUTER_BOUND('',#49,.T.);
#34=FACE_OUTER_BOUND('',#50,.T.);
#35=FACE_OUTER_BOUND('',#52,.T.);
#36=FACE_OUTER_BOUND('',#53,.T.);
#37=FACE_OUTER_BOUND('',#54,.T.);
#38=FACE_OUTER_BOUND('',#55,.T.);
#39=FACE_OUTER_BOUND('',#56,.T.);
#40=FACE_OUTER_BOUND('',#58,.T.);
#41=FACE_OUTER_BOUND('',#59,.T.);
#42=FACE_OUTER_BOUND('',#60,.T.);
#43=FACE_OUTER_BOUND('',#61,.T.);
#44=FACE_OUTER_BOUND('',#62,.T.);
#45=FACE_OUTER_BOUND('',#64,.T.);
#46=FACE_OUTER_BOUND('',#65,.T.);
#47=EDGE_LOOP('',(#189,#190,#191,#192));
#48=EDGE_LOOP('',(#193,#194,#195,#196));
#49=EDGE_LOOP('',(#197,#198,#199,#200));
#50=EDGE_LOOP('',(#201,#202,#203,#204,#205,#206,#207,#208));
#51=EDGE_LOOP('',(#209));
#52=EDGE_LOOP('',(#210,#211,#212,#213));
#53=EDGE_LOOP('',(#214,#215,#216,#217));
#54=EDGE_LOOP('',(#218,#219,#220,#221,#222,#223));
#55=EDGE_LOOP('',(#224,#225,#226,#227));
#56=EDGE_LOOP('',(#228,#229));
#57=EDGE_LOOP('',(#230,#231));
#58=EDGE_LOOP('',(#232,#233,#234,#235));
#59=EDGE_LOOP('',(#236));
#60=EDGE_LOOP('',(#237,#238,#239,#240));
#61=EDGE_LOOP('',(#241,#242,#243,#244,#245,#246,#247));
#62=EDGE_LOOP('',(#248,#249,#250,#251,#252,#253,#254,#255));
#63=EDGE_LOOP('',(#256,#257,#258));
#64=EDGE_LOOP('',(#259,#260,#261,#262,#263,#264));
#65=EDGE_LOOP('',(#265,#266));
#66=LINE('',#425,#86);
#67=LINE('',#428,#87);
#68=LINE('',#431,#88);
#69=LINE('',#433,#89);
#70=LINE('',#434,#90);
#71=LINE('',#440,#91);
#72=LINE('',#443,#92);
#73=LINE('',#445,#93);
#74=LINE('',#447,#94);
#75=LINE('',#451,#95);
#76=LINE('',#457,#96);
#77=LINE('',#458,#97);
#78=LINE('',#460,#98);
#79=LINE('',#465,#99);
#80=LINE('',#467,#100);
#81=LINE('',#468,#101);
#82=LINE('',#477,#102);
#83=LINE('',#486,#103);
#84=LINE('',#519,#104);
#85=LINE('',#536,#105);
#86=VECTOR('',#339,10.);
#87=VECTOR('',#342,10.);
#88=VECTOR('',#345,10.);
#89=VECTOR('',#346,10.);
#90=VECTOR('',#347,10.);
#91=VECTOR('',#352,10.);
#92=VECTOR('',#355,10.);
#93=VECTOR('',#358,10.);
#94=VECTOR('',#359,10.);
#95=VECTOR('',#362,10.);
#96=VECTOR('',#369,10.);
#97=VECTOR('',#370,10.);
#98=VECTOR('',#373,10.);
#99=VECTOR('',#380,10.);
#100=VECTOR('',#381,10.);
#101=VECTOR('',#382,10.);
#102=VECTOR('',#393,2.00000002980232);
#103=VECTOR('',#404,0.5);
#104=VECTOR('',#407,1.);
#105=VECTOR('',#416,3.99999999999999);
#106=CIRCLE('',#302,1.);
#107=CIRCLE('',#303,1.);
#108=CIRCLE('',#306,1.);
#109=CIRCLE('',#307,1.);
#110=CIRCLE('',#309,14.);
#111=CIRCLE('',#310,14.);
#112=CIRCLE('',#311,2.00000002980232);
#113=CIRCLE('',#315,14.);
#114=CIRCLE('',#318,14.);
#115=CIRCLE('',#319,4.);
#116=CIRCLE('',#320,4.);
#117=CIRCLE('',#322,2.00000002980232);
#118=CIRCLE('',#325,1.);
#119=CIRCLE('',#326,1.);
#120=CIRCLE('',#330,3.99999999999999);
#121=CIRCLE('',#331,3.99999999999999);
#122=VERTEX_POINT('',#421);
#123=VERTEX_POINT('',#422);
#124=VERTEX_POINT('',#424);
#125=VERTEX_POINT('',#426);
#126=VERTEX_POINT('',#430);
#127=VERTEX_POINT('',#432);
#128=VERTEX_POINT('',#436);
#129=VERTEX_POINT('',#437);
#130=VERTEX_POINT('',#439);
#131=VERTEX_POINT('',#441);
#132=VERTEX_POINT('',#446);
#133=VERTEX_POINT('',#448);
#134=VERTEX_POINT('',#450);
#135=VERTEX_POINT('',#453);
#136=VERTEX_POINT('',#456);
#137=VERTEX_POINT('',#464);
#138=VERTEX_POINT('',#466);
#139=VERTEX_POINT('',#471);
#140=VERTEX_POINT('',#472);
#141=VERTEX_POINT('',#476);
#142=VERTEX_POINT('',#481);
#143=VERTEX_POINT('',#482);
#144=VERTEX_POINT('',#485);
#145=VERTEX_POINT('',#488);
#146=VERTEX_POINT('',#489);
#147=VERTEX_POINT('',#508);
#148=VERTEX_POINT('',#532);
#149=VERTEX_POINT('',#533);
#150=EDGE_CURVE('',#122,#123,#106,.T.);
#151=EDGE_CURVE('',#122,#124,#66,.T.);
#152=EDGE_CURVE('',#124,#125,#107,.T.);
#153=EDGE_CURVE('',#125,#123,#67,.T.);
#154=EDGE_CURVE('',#122,#126,#68,.T.);
#155=EDGE_CURVE('',#127,#126,#69,.T.);
#156=EDGE_CURVE('',#124,#127,#70,.T.);
#157=EDGE_CURVE('',#128,#129,#108,.T.);
#158=EDGE_CURVE('',#128,#130,#71,.T.);
#159=EDGE_CURVE('',#130,#131,#109,.T.);
#160=EDGE_CURVE('',#131,#129,#72,.T.);
#161=EDGE_CURVE('',#128,#123,#73,.T.);
#162=EDGE_CURVE('',#132,#129,#74,.T.);
#163=EDGE_CURVE('',#133,#132,#110,.T.);
#164=EDGE_CURVE('',#134,#133,#75,.T.);
#165=EDGE_CURVE('',#126,#134,#111,.T.);
#166=EDGE_CURVE('',#135,#135,#112,.T.);
#167=EDGE_CURVE('',#136,#131,#76,.T.);
#168=EDGE_CURVE('',#132,#136,#77,.T.);
#169=EDGE_CURVE('',#130,#125,#78,.T.);
#170=EDGE_CURVE('',#136,#127,#113,.T.);
#171=EDGE_CURVE('',#137,#133,#79,.T.);
#172=EDGE_CURVE('',#138,#137,#80,.T.);
#173=EDGE_CURVE('',#134,#138,#81,.T.);
#174=EDGE_CURVE('',#137,#138,#114,.T.);
#175=EDGE_CURVE('',#139,#140,#115,.T.);
#176=EDGE_CURVE('',#140,#139,#116,.T.);
#177=EDGE_CURVE('',#135,#141,#82,.T.);
#178=EDGE_CURVE('',#141,#141,#117,.T.);
#179=EDGE_CURVE('',#142,#143,#118,.T.);
#180=EDGE_CURVE('',#143,#142,#119,.T.);
#181=EDGE_CURVE('',#143,#144,#83,.T.);
#182=EDGE_CURVE('',#145,#146,#15,.T.);
#183=EDGE_CURVE('',#147,#145,#16,.T.);
#184=EDGE_CURVE('',#147,#143,#84,.T.);
#185=EDGE_CURVE('',#146,#147,#17,.T.);
#186=EDGE_CURVE('',#148,#149,#120,.T.);
#187=EDGE_CURVE('',#149,#148,#121,.T.);
#188=EDGE_CURVE('',#149,#140,#85,.T.);
#189=ORIENTED_EDGE('',*,*,#150,.F.);
#190=ORIENTED_EDGE('',*,*,#151,.T.);
#191=ORIENTED_EDGE('',*,*,#152,.T.);
#192=ORIENTED_EDGE('',*,*,#153,.T.);
#193=ORIENTED_EDGE('',*,*,#151,.F.);
#194=ORIENTED_EDGE('',*,*,#154,.T.);
#195=ORIENTED_EDGE('',*,*,#155,.F.);
#196=ORIENTED_EDGE('',*,*,#156,.F.);
#197=ORIENTED_EDGE('',*,*,#157,.F.);
#198=ORIENTED_EDGE('',*,*,#158,.T.);
#199=ORIENTED_EDGE('',*,*,#159,.T.);
#200=ORIENTED_EDGE('',*,*,#160,.T.);
#201=ORIENTED_EDGE('',*,*,#150,.T.);
#202=ORIENTED_EDGE('',*,*,#161,.F.);
#203=ORIENTED_EDGE('',*,*,#157,.T.);
#204=ORIENTED_EDGE('',*,*,#162,.F.);
#205=ORIENTED_EDGE('',*,*,#163,.F.);
#206=ORIENTED_EDGE('',*,*,#164,.F.);
#207=ORIENTED_EDGE('',*,*,#165,.F.);
#208=ORIENTED_EDGE('',*,*,#154,.F.);
#209=ORIENTED_EDGE('',*,*,#166,.F.);
#210=ORIENTED_EDGE('',*,*,#160,.F.);
#211=ORIENTED_EDGE('',*,*,#167,.F.);
#212=ORIENTED_EDGE('',*,*,#168,.F.);
#213=ORIENTED_EDGE('',*,*,#162,.T.);
#214=ORIENTED_EDGE('',*,*,#153,.F.);
#215=ORIENTED_EDGE('',*,*,#169,.F.);
#216=ORIENTED_EDGE('',*,*,#158,.F.);
#217=ORIENTED_EDGE('',*,*,#161,.T.);
#218=ORIENTED_EDGE('',*,*,#167,.T.);
#219=ORIENTED_EDGE('',*,*,#159,.F.);
#220=ORIENTED_EDGE('',*,*,#169,.T.);
#221=ORIENTED_EDGE('',*,*,#152,.F.);
#222=ORIENTED_EDGE('',*,*,#156,.T.);
#223=ORIENTED_EDGE('',*,*,#170,.F.);
#224=ORIENTED_EDGE('',*,*,#164,.T.);
#225=ORIENTED_EDGE('',*,*,#171,.F.);
#226=ORIENTED_EDGE('',*,*,#172,.F.);
#227=ORIENTED_EDGE('',*,*,#173,.F.);
#228=ORIENTED_EDGE('',*,*,#172,.T.);
#229=ORIENTED_EDGE('',*,*,#174,.T.);
#230=ORIENTED_EDGE('',*,*,#175,.F.);
#231=ORIENTED_EDGE('',*,*,#176,.F.);
#232=ORIENTED_EDGE('',*,*,#166,.T.);
#233=ORIENTED_EDGE('',*,*,#177,.T.);
#234=ORIENTED_EDGE('',*,*,#178,.T.);
#235=ORIENTED_EDGE('',*,*,#177,.F.);
#236=ORIENTED_EDGE('',*,*,#178,.F.);
#237=ORIENTED_EDGE('',*,*,#179,.F.);
#238=ORIENTED_EDGE('',*,*,#180,.F.);
#239=ORIENTED_EDGE('',*,*,#181,.T.);
#240=ORIENTED_EDGE('',*,*,#181,.F.);
#241=ORIENTED_EDGE('',*,*,#182,.F.);
#242=ORIENTED_EDGE('',*,*,#183,.F.);
#243=ORIENTED_EDGE('',*,*,#184,.T.);
#244=ORIENTED_EDGE('',*,*,#180,.T.);
#245=ORIENTED_EDGE('',*,*,#179,.T.);
#246=ORIENTED_EDGE('',*,*,#184,.F.);
#247=ORIENTED_EDGE('',*,*,#185,.F.);
#248=ORIENTED_EDGE('',*,*,#168,.T.);
#249=ORIENTED_EDGE('',*,*,#170,.T.);
#250=ORIENTED_EDGE('',*,*,#155,.T.);
#251=ORIENTED_EDGE('',*,*,#165,.T.);
#252=ORIENTED_EDGE('',*,*,#173,.T.);
#253=ORIENTED_EDGE('',*,*,#174,.F.);
#254=ORIENTED_EDGE('',*,*,#171,.T.);
#255=ORIENTED_EDGE('',*,*,#163,.T.);
#256=ORIENTED_EDGE('',*,*,#182,.T.);
#257=ORIENTED_EDGE('',*,*,#185,.T.);
#258=ORIENTED_EDGE('',*,*,#183,.T.);
#259=ORIENTED_EDGE('',*,*,#186,.F.);
#260=ORIENTED_EDGE('',*,*,#187,.F.);
#261=ORIENTED_EDGE('',*,*,#188,.T.);
#262=ORIENTED_EDGE('',*,*,#176,.T.);
#263=ORIENTED_EDGE('',*,*,#175,.T.);
#264=ORIENTED_EDGE('',*,*,#188,.F.);
#265=ORIENTED_EDGE('',*,*,#186,.T.);
#266=ORIENTED_EDGE('',*,*,#187,.T.);
#267=CYLINDRICAL_SURFACE('',#301,1.);
#268=CYLINDRICAL_SURFACE('',#305,1.);
#269=CYLINDRICAL_SURFACE('',#321,2.00000002980232);
#270=CYLINDRICAL_SURFACE('',#327,1.);
#271=CYLINDRICAL_SURFACE('',#328,14.);
#272=CYLINDRICAL_SURFACE('',#329,3.99999999999999);
#273=ADVANCED_FACE('',(#31),#267,.F.);
#274=ADVANCED_FACE('',(#32),#22,.F.);
#275=ADVANCED_FACE('',(#33),#268,.F.);
#276=ADVANCED_FACE('',(#34,#19),#23,.F.);
#277=ADVANCED_FACE('',(#35),#24,.F.);
#278=ADVANCED_FACE('',(#36),#25,.F.);
#279=ADVANCED_FACE('',(#37),#26,.T.);
#280=ADVANCED_FACE('',(#38),#27,.F.);
#281=ADVANCED_FACE('',(#39,#20),#28,.T.);
#282=ADVANCED_FACE('',(#40),#269,.F.);
#283=ADVANCED_FACE('',(#41),#29,.T.);
#284=ADVANCED_FACE('',(#42),#18,.F.);
#285=ADVANCED_FACE('',(#43),#270,.F.);
#286=ADVANCED_FACE('',(#44,#21),#271,.T.);
#287=ADVANCED_FACE('',(#45),#272,.T.);
#288=ADVANCED_FACE('',(#46),#30,.T.);
#289=CLOSED_SHELL('',(#273,#274,#275,#276,#277,#278,#279,#280,#281,#282,
#283,#284,#285,#286,#287,#288));
#290=DERIVED_UNIT_ELEMENT(#543,3.);
#291=DERIVED_UNIT((#290));
#292=MEASURE_REPRESENTATION_ITEM('density measure',
POSITIVE_RATIO_MEASURE(0.),#291);
#293=PROPERTY_DEFINITION_REPRESENTATION(#298,#295);
#294=PROPERTY_DEFINITION_REPRESENTATION(#299,#296);
#295=REPRESENTATION('material name',(#297),#540);
#296=REPRESENTATION('density',(#292),#540);
#297=DESCRIPTIVE_REPRESENTATION_ITEM('',$);
#298=PROPERTY_DEFINITION('material property','material name',#550);
#299=PROPERTY_DEFINITION('material property','density of part',#550);
#300=AXIS2_PLACEMENT_3D('placement',#419,#333,#334);
#301=AXIS2_PLACEMENT_3D('',#420,#335,#336);
#302=AXIS2_PLACEMENT_3D('',#423,#337,#338);
#303=AXIS2_PLACEMENT_3D('',#427,#340,#341);
#304=AXIS2_PLACEMENT_3D('',#429,#343,#344);
#305=AXIS2_PLACEMENT_3D('',#435,#348,#349);
#306=AXIS2_PLACEMENT_3D('',#438,#350,#351);
#307=AXIS2_PLACEMENT_3D('',#442,#353,#354);
#308=AXIS2_PLACEMENT_3D('',#444,#356,#357);
#309=AXIS2_PLACEMENT_3D('',#449,#360,#361);
#310=AXIS2_PLACEMENT_3D('',#452,#363,#364);
#311=AXIS2_PLACEMENT_3D('',#454,#365,#366);
#312=AXIS2_PLACEMENT_3D('',#455,#367,#368);
#313=AXIS2_PLACEMENT_3D('',#459,#371,#372);
#314=AXIS2_PLACEMENT_3D('',#461,#374,#375);
#315=AXIS2_PLACEMENT_3D('',#462,#376,#377);
#316=AXIS2_PLACEMENT_3D('',#463,#378,#379);
#317=AXIS2_PLACEMENT_3D('',#469,#383,#384);
#318=AXIS2_PLACEMENT_3D('',#470,#385,#386);
#319=AXIS2_PLACEMENT_3D('',#473,#387,#388);
#320=AXIS2_PLACEMENT_3D('',#474,#389,#390);
#321=AXIS2_PLACEMENT_3D('',#475,#391,#392);
#322=AXIS2_PLACEMENT_3D('',#478,#394,#395);
#323=AXIS2_PLACEMENT_3D('',#479,#396,#397);
#324=AXIS2_PLACEMENT_3D('',#480,#398,#399);
#325=AXIS2_PLACEMENT_3D('',#483,#400,#401);
#326=AXIS2_PLACEMENT_3D('',#484,#402,#403);
#327=AXIS2_PLACEMENT_3D('',#487,#405,#406);
#328=AXIS2_PLACEMENT_3D('',#530,#408,#409);
#329=AXIS2_PLACEMENT_3D('',#531,#410,#411);
#330=AXIS2_PLACEMENT_3D('',#534,#412,#413);
#331=AXIS2_PLACEMENT_3D('',#535,#414,#415);
#332=AXIS2_PLACEMENT_3D('',#537,#417,#418);
#333=DIRECTION('axis',(0.,0.,1.));
#334=DIRECTION('refdir',(1.,0.,0.));
#335=DIRECTION('center_axis',(0.,0.,1.));
#336=DIRECTION('ref_axis',(0.707106781186547,0.707106781186548,0.));
#337=DIRECTION('center_axis',(0.,0.,-1.));
#338=DIRECTION('ref_axis',(0.707106781186547,0.707106781186548,0.));
#339=DIRECTION('',(0.,0.,-1.));
#340=DIRECTION('center_axis',(0.,0.,-1.));
#341=DIRECTION('ref_axis',(0.707106781186547,0.707106781186548,0.));
#342=DIRECTION('',(0.,0.,1.));
#343=DIRECTION('center_axis',(0.,1.,0.));
#344=DIRECTION('ref_axis',(-1.,0.,0.));
#345=DIRECTION('',(-1.,0.,0.));
#346=DIRECTION('',(0.,0.,1.));
#347=DIRECTION('',(-1.,0.,0.));
#348=DIRECTION('center_axis',(0.,0.,1.));
#349=DIRECTION('ref_axis',(0.707106781186548,-0.707106781186547,0.));
#350=DIRECTION('center_axis',(0.,0.,-1.));
#351=DIRECTION('ref_axis',(0.707106781186548,-0.707106781186547,0.));
#352=DIRECTION('',(0.,0.,-1.));
#353=DIRECTION('center_axis',(0.,0.,-1.));
#354=DIRECTION('ref_axis',(0.707106781186548,-0.707106781186547,0.));
#355=DIRECTION('',(0.,0.,1.));
#356=DIRECTION('center_axis',(0.,0.,1.));
#357=DIRECTION('ref_axis',(1.,0.,0.));
#358=DIRECTION('',(0.,1.,0.));
#359=DIRECTION('',(1.,0.,0.));
#360=DIRECTION('center_axis',(0.,0.,1.));
#361=DIRECTION('ref_axis',(1.,0.,0.));
#362=DIRECTION('',(0.,-1.,0.));
#363=DIRECTION('center_axis',(0.,0.,1.));
#364=DIRECTION('ref_axis',(1.,0.,0.));
#365=DIRECTION('center_axis',(0.,0.,-1.));
#366=DIRECTION('ref_axis',(1.,0.,0.));
#367=DIRECTION('center_axis',(0.,-1.,0.));
#368=DIRECTION('ref_axis',(1.,0.,0.));
#369=DIRECTION('',(1.,0.,0.));
#370=DIRECTION('',(0.,0.,-1.));
#371=DIRECTION('center_axis',(1.,0.,0.));
#372=DIRECTION('ref_axis',(0.,1.,0.));
#373=DIRECTION('',(0.,1.,0.));
#374=DIRECTION('center_axis',(0.,0.,-1.));
#375=DIRECTION('ref_axis',(-1.,0.,0.));
#376=DIRECTION('center_axis',(0.,0.,1.));
#377=DIRECTION('ref_axis',(1.,0.,0.));
#378=DIRECTION('center_axis',(1.,0.,0.));
#379=DIRECTION('ref_axis',(0.,1.,0.));
#380=DIRECTION('',(0.,0.,-1.));
#381=DIRECTION('',(0.,-1.,0.));
#382=DIRECTION('',(0.,0.,1.));
#383=DIRECTION('center_axis',(0.,0.,1.));
#384=DIRECTION('ref_axis',(1.,0.,0.));
#385=DIRECTION('center_axis',(0.,0.,1.));
#386=DIRECTION('ref_axis',(1.,0.,0.));
#387=DIRECTION('center_axis',(0.,0.,1.));
#388=DIRECTION('ref_axis',(1.,0.,0.));
#389=DIRECTION('center_axis',(0.,0.,1.));
#390=DIRECTION('ref_axis',(1.,0.,0.));
#391=DIRECTION('center_axis',(0.,0.,1.));
#392=DIRECTION('ref_axis',(1.,0.,0.));
#393=DIRECTION('',(0.,0.,1.));
#394=DIRECTION('center_axis',(0.,0.,1.));
#395=DIRECTION('ref_axis',(1.,0.,0.));
#396=DIRECTION('center_axis',(0.,0.,-1.));
#397=DIRECTION('ref_axis',(1.,0.,0.));
#398=DIRECTION('center_axis',(1.,0.,0.));
#399=DIRECTION('ref_axis',(0.,1.,0.));
#400=DIRECTION('center_axis',(-1.,0.,0.));
#401=DIRECTION('ref_axis',(0.,1.,0.));
#402=DIRECTION('center_axis',(-1.,0.,0.));
#403=DIRECTION('ref_axis',(0.,1.,0.));
#404=DIRECTION('',(-0.515038074910054,0.857167300702112,-1.04972719113862E-16));
#405=DIRECTION('center_axis',(-1.,0.,0.));
#406=DIRECTION('ref_axis',(0.,1.,0.));
#407=DIRECTION('',(-1.,0.,0.));
#408=DIRECTION('center_axis',(0.,0.,1.));
#409=DIRECTION('ref_axis',(1.,0.,0.));
#410=DIRECTION('center_axis',(0.,0.,1.));
#411=DIRECTION('ref_axis',(1.,0.,0.));
#412=DIRECTION('center_axis',(0.,0.,1.));
#413=DIRECTION('ref_axis',(1.,0.,0.));
#414=DIRECTION('center_axis',(0.,0.,1.));
#415=DIRECTION('ref_axis',(1.,0.,0.));
#416=DIRECTION('',(0.,0.,-1.));
#417=DIRECTION('center_axis',(0.,0.,1.));
#418=DIRECTION('ref_axis',(1.,0.,0.));
#419=CARTESIAN_POINT('',(0.,0.,0.));
#420=CARTESIAN_POINT('Origin',(2.,6.5,0.));
#421=CARTESIAN_POINT('',(2.,7.5,10.));
#422=CARTESIAN_POINT('',(3.,6.5,10.));
#423=CARTESIAN_POINT('Origin',(2.,6.5,10.));
#424=CARTESIAN_POINT('',(2.,7.5,-1.77185554883626E-31));
#425=CARTESIAN_POINT('',(2.,7.5,0.));
#426=CARTESIAN_POINT('',(3.,6.5,-1.77185554883626E-31));
#427=CARTESIAN_POINT('Origin',(2.,6.5,-1.77185554883626E-31));
#428=CARTESIAN_POINT('',(3.,6.5,0.));
#429=CARTESIAN_POINT('Origin',(3.,7.5,0.));
#430=CARTESIAN_POINT('',(-11.8215904175369,7.5,10.));
#431=CARTESIAN_POINT('',(3.,7.5,10.));
#432=CARTESIAN_POINT('',(-11.8215904175369,7.5,0.));
#433=CARTESIAN_POINT('',(-11.8215904175369,7.5,7.5));
#434=CARTESIAN_POINT('',(8.5,7.5,-1.77185554883626E-31));
#435=CARTESIAN_POINT('Origin',(2.,-6.5,0.));
#436=CARTESIAN_POINT('',(3.,-6.5,10.));
#437=CARTESIAN_POINT('',(2.,-7.5,10.));
#438=CARTESIAN_POINT('Origin',(2.,-6.5,10.));
#439=CARTESIAN_POINT('',(3.,-6.5,-1.77185554883626E-31));
#440=CARTESIAN_POINT('',(3.,-6.5,0.));
#441=CARTESIAN_POINT('',(2.,-7.5,-1.77185554883626E-31));
#442=CARTESIAN_POINT('Origin',(2.,-6.5,-1.77185554883626E-31));
#443=CARTESIAN_POINT('',(2.,-7.5,0.));
#444=CARTESIAN_POINT('Origin',(-4.5,0.,10.));
#445=CARTESIAN_POINT('',(3.,-7.5,10.));
#446=CARTESIAN_POINT('',(-11.8215904175369,-7.5,10.));
#447=CARTESIAN_POINT('',(-12.,-7.5,10.));
#448=CARTESIAN_POINT('',(-12.,-7.21110255092799,10.));
#449=CARTESIAN_POINT('Origin',(-1.85565550742926E-15,0.,10.));
#450=CARTESIAN_POINT('',(-12.,7.21110255092799,10.));
#451=CARTESIAN_POINT('',(-12.,-12.0000001788139,10.));
#452=CARTESIAN_POINT('Origin',(-1.85565550742926E-15,0.,10.));
#453=CARTESIAN_POINT('',(-2.00000002980232,2.44929363479203E-16,10.));
#454=CARTESIAN_POINT('Origin',(-9.18641340311517E-16,0.,10.));
#455=CARTESIAN_POINT('Origin',(-12.,-7.5,0.));
#456=CARTESIAN_POINT('',(-11.8215904175369,-7.5,0.));
#457=CARTESIAN_POINT('',(1.,-7.5,-1.77185554883626E-31));
#458=CARTESIAN_POINT('',(-11.8215904175369,-7.5,7.5));
#459=CARTESIAN_POINT('Origin',(3.,-7.5,0.));
#460=CARTESIAN_POINT('',(3.,-3.75,-1.77185554883626E-31));
#461=CARTESIAN_POINT('Origin',(14.,0.,-1.77185554883626E-31));
#462=CARTESIAN_POINT('Origin',(-1.85565550742926E-15,0.,0.));
#463=CARTESIAN_POINT('Origin',(-12.,-24.0000003576279,0.));
#464=CARTESIAN_POINT('',(-12.,-7.21110255092799,15.));
#465=CARTESIAN_POINT('',(-12.,-7.21110255092799,7.5));
#466=CARTESIAN_POINT('',(-12.,7.21110255092799,15.));
#467=CARTESIAN_POINT('',(-12.,-12.0000001788139,15.));
#468=CARTESIAN_POINT('',(-12.,7.21110255092799,7.5));
#469=CARTESIAN_POINT('Origin',(4.,0.,15.));
#470=CARTESIAN_POINT('Origin',(-1.85565550742926E-15,0.,15.));
#471=CARTESIAN_POINT('',(4.,0.,15.));
#472=CARTESIAN_POINT('',(-3.99999999999999,-4.8985871965894E-16,15.));
#473=CARTESIAN_POINT('Origin',(-1.85565550742926E-15,0.,15.));
#474=CARTESIAN_POINT('Origin',(-1.85565550742926E-15,0.,15.));
#475=CARTESIAN_POINT('Origin',(-9.18641340311517E-16,0.,0.));
#476=CARTESIAN_POINT('',(-2.00000002980232,2.44929363479203E-16,47.5));
#477=CARTESIAN_POINT('',(-2.00000002980232,-2.44929363479203E-16,0.));
#478=CARTESIAN_POINT('Origin',(-9.18641340311517E-16,0.,47.5));
#479=CARTESIAN_POINT('Origin',(-8.32667268468867E-16,0.,47.5));
#480=CARTESIAN_POINT('Origin',(5.69956969048622,4.59242549680259E-16,12.5));
#481=CARTESIAN_POINT('',(6.00000000000001,1.,12.5));
#482=CARTESIAN_POINT('',(6.00000000000001,-1.,12.5));
#483=CARTESIAN_POINT('Origin',(6.00000000000001,4.59242549680259E-16,12.5));
#484=CARTESIAN_POINT('Origin',(6.00000000000001,4.59242549680259E-16,12.5));
#485=CARTESIAN_POINT('',(5.39913938097244,4.59242549680259E-16,12.5));
#486=CARTESIAN_POINT('',(5.69956969048622,-0.5,12.5));
#487=CARTESIAN_POINT('Origin',(10.,4.59242549680259E-16,12.5));
#488=CARTESIAN_POINT('',(14.,3.69778549322349E-31,13.5));
#489=CARTESIAN_POINT('',(14.,3.69778549322349E-31,11.5));
#490=CARTESIAN_POINT('Ctrl Pts',(14.,2.25514051876985E-16,13.5));
#491=CARTESIAN_POINT('Ctrl Pts',(14.,0.125608068887399,13.5));
#492=CARTESIAN_POINT('Ctrl Pts',(13.998136104895,0.259559404269997,13.4748884450054));
#493=CARTESIAN_POINT('Ctrl Pts',(13.9913982219827,0.505926170077024,13.3728214444163));
#494=CARTESIAN_POINT('Ctrl Pts',(13.9866203202806,0.618345198702569,13.2958683636705));
#495=CARTESIAN_POINT('Ctrl Pts',(13.9776425839795,0.795868441955168,13.1183451204179));
#496=CARTESIAN_POINT('Ctrl Pts',(13.9728593529907,0.872821462422645,13.0059261266326));
#497=CARTESIAN_POINT('Ctrl Pts',(13.9661092787676,0.974888415676284,12.7595594750449));
#498=CARTESIAN_POINT('Ctrl Pts',(13.9642400437689,1.,12.6256081796694));
#499=CARTESIAN_POINT('Ctrl Pts',(13.9642400437689,1.,12.3743918203306));
#500=CARTESIAN_POINT('Ctrl Pts',(13.9661092787676,0.974888415676285,12.2404405249551));
#501=CARTESIAN_POINT('Ctrl Pts',(13.9728593529907,0.872821462422647,11.9940738733674));
#502=CARTESIAN_POINT('Ctrl Pts',(13.9776425839795,0.795868441955168,11.8816548795821));
#503=CARTESIAN_POINT('Ctrl Pts',(13.9866203202806,0.61834519870257,11.7041316363295));
#504=CARTESIAN_POINT('Ctrl Pts',(13.9913982219827,0.505926170077027,11.6271785555837));
#505=CARTESIAN_POINT('Ctrl Pts',(13.998136104895,0.25955940427,11.5251115549946));
#506=CARTESIAN_POINT('Ctrl Pts',(14.,0.1256080688874,11.5));
#507=CARTESIAN_POINT('Ctrl Pts',(14.,7.97972798949331E-16,11.5));
#508=CARTESIAN_POINT('',(13.9642400437689,-1.,12.5));
#509=CARTESIAN_POINT('Ctrl Pts',(13.9642400437689,-1.,12.5));
#510=CARTESIAN_POINT('Ctrl Pts',(13.9642400437689,-1.,12.6256081796694));
#511=CARTESIAN_POINT('Ctrl Pts',(13.9661092787676,-0.974888415676284,12.7595594750449));
#512=CARTESIAN_POINT('Ctrl Pts',(13.9728593529907,-0.872821462422646,13.0059261266326));
#513=CARTESIAN_POINT('Ctrl Pts',(13.9776425839795,-0.795868441955167,13.1183451204179));
#514=CARTESIAN_POINT('Ctrl Pts',(13.9866203202806,-0.618345198702569,13.2958683636705));
#515=CARTESIAN_POINT('Ctrl Pts',(13.9913982219827,-0.505926170077025,13.3728214444163));
#516=CARTESIAN_POINT('Ctrl Pts',(13.998136104895,-0.259559404269998,13.4748884450054));
#517=CARTESIAN_POINT('Ctrl Pts',(14.,-0.125608068887399,13.5));
#518=CARTESIAN_POINT('Ctrl Pts',(14.,3.81639164714898E-16,13.5));
#519=CARTESIAN_POINT('',(10.,-1.,12.5));
#520=CARTESIAN_POINT('Ctrl Pts',(14.,7.97972798949331E-16,11.5));
#521=CARTESIAN_POINT('Ctrl Pts',(14.,-0.125608068887398,11.5));
#522=CARTESIAN_POINT('Ctrl Pts',(13.998136104895,-0.259559404269997,11.5251115549946));
#523=CARTESIAN_POINT('Ctrl Pts',(13.9913982219827,-0.505926170077024,11.6271785555837));
#524=CARTESIAN_POINT('Ctrl Pts',(13.9866203202806,-0.618345198702568,11.7041316363295));
#525=CARTESIAN_POINT('Ctrl Pts',(13.9776425839795,-0.795868441955167,11.8816548795821));
#526=CARTESIAN_POINT('Ctrl Pts',(13.9728593529907,-0.872821462422646,11.9940738733674));
#527=CARTESIAN_POINT('Ctrl Pts',(13.9661092787676,-0.974888415676284,12.2404405249551));
#528=CARTESIAN_POINT('Ctrl Pts',(13.9642400437689,-1.,12.3743918203306));
#529=CARTESIAN_POINT('Ctrl Pts',(13.9642400437689,-1.,12.5));
#530=CARTESIAN_POINT('Origin',(-1.85565550742926E-15,0.,7.5));
#531=CARTESIAN_POINT('Origin',(-1.85565550742926E-15,0.,32.75));
#532=CARTESIAN_POINT('',(3.99999999999998,0.,50.5));
#533=CARTESIAN_POINT('',(-3.99999999999999,-4.8985871965894E-16,50.5));
#534=CARTESIAN_POINT('Origin',(-1.85565550742926E-15,0.,50.5));
#535=CARTESIAN_POINT('Origin',(-1.85565550742926E-15,0.,50.5));
#536=CARTESIAN_POINT('',(-3.99999999999999,-4.8985871965894E-16,32.75));
#537=CARTESIAN_POINT('Origin',(-3.88578058618805E-15,0.,50.5));
#538=UNCERTAINTY_MEASURE_WITH_UNIT(LENGTH_MEASURE(0.01),#542,
'DISTANCE_ACCURACY_VALUE',
'Maximum model space distance between geometric entities at asserted c
onnectivities');
#539=UNCERTAINTY_MEASURE_WITH_UNIT(LENGTH_MEASURE(0.01),#542,
'DISTANCE_ACCURACY_VALUE',
'Maximum model space distance between geometric entities at asserted c
onnectivities');
#540=(
GEOMETRIC_REPRESENTATION_CONTEXT(3)
GLOBAL_UNCERTAINTY_ASSIGNED_CONTEXT((#538))
GLOBAL_UNIT_ASSIGNED_CONTEXT((#542,#545,#544))
REPRESENTATION_CONTEXT('','3D')
);
#541=(
GEOMETRIC_REPRESENTATION_CONTEXT(3)
GLOBAL_UNCERTAINTY_ASSIGNED_CONTEXT((#539))
GLOBAL_UNIT_ASSIGNED_CONTEXT((#542,#545,#544))
REPRESENTATION_CONTEXT('','3D')
);
#542=(
LENGTH_UNIT()
NAMED_UNIT(*)
SI_UNIT(.MILLI.,.METRE.)
);
#543=(
LENGTH_UNIT()
NAMED_UNIT(*)
SI_UNIT(.CENTI.,.METRE.)
);
#544=(
NAMED_UNIT(*)
SI_UNIT($,.STERADIAN.)
SOLID_ANGLE_UNIT()
);
#545=(
NAMED_UNIT(*)
PLANE_ANGLE_UNIT()
SI_UNIT($,.RADIAN.)
);
#546=SHAPE_DEFINITION_REPRESENTATION(#547,#548);
#547=PRODUCT_DEFINITION_SHAPE('',$,#550);
#548=SHAPE_REPRESENTATION('',(#300),#540);
#549=PRODUCT_DEFINITION_CONTEXT('part definition',#554,'design');
#550=PRODUCT_DEFINITION('Plunger B ','Plunger B ',#551,#549);
#551=PRODUCT_DEFINITION_FORMATION('',$,#556);
#552=PRODUCT_RELATED_PRODUCT_CATEGORY('Plunger B ','Plunger B ',(#556));
#553=APPLICATION_PROTOCOL_DEFINITION('international standard',
'automotive_design',2009,#554);
#554=APPLICATION_CONTEXT(
'Core Data for Automotive Mechanical Design Process');
#555=PRODUCT_CONTEXT('part definition',#554,'mechanical');
#556=PRODUCT('Plunger B ','Plunger B ',$,(#555));
#557=PRESENTATION_STYLE_ASSIGNMENT((#558));
#558=SURFACE_STYLE_USAGE(.BOTH.,#559);
#559=SURFACE_SIDE_STYLE('',(#560));
#560=SURFACE_STYLE_FILL_AREA(#561);
#561=FILL_AREA_STYLE('Stainless Steel - Satin',(#562));
#562=FILL_AREA_STYLE_COLOUR('Stainless Steel - Satin',#563);
#563=COLOUR_RGB('Stainless Steel - Satin',0.796078431372549,0.796078431372549,
0.796078431372549);
ENDSEC;
END-ISO-10303-21;
