ISO-10303-21;
HEADER;
/* Generated by software containing ST-Developer
 * from STEP Tools, Inc. (www.steptools.com) 
 */

FILE_DESCRIPTION(
/* description */ (''),
/* implementation_level */ '2;1');

FILE_NAME(
/* name */ 
'C:/Users/thomas.dargon/Documents/ALL SOLID STATE CELL/STEP/23-04-18/A
SSC_07.step',
/* time_stamp */ '2018-04-23T16:07:04+02:00',
/* author */ (''),
/* organization */ (''),
/* preprocessor_version */ 'ST-DEVELOPER v17',
/* originating_system */ 'Autodesk Translation Framework v7.1.0.215',
/* authorisation */ '');

FILE_SCHEMA (('AUTOMOTIVE_DESIGN { 1 0 10303 214 3 1 1 }'));
ENDSEC;

DATA;
#10=MECHANICAL_DESIGN_GEOMETRIC_PRESENTATION_REPRESENTATION('',(#13),#188);
#11=SHAPE_REPRESENTATION_RELATIONSHIP('SRR','None',#195,#12);
#12=ADVANCED_BREP_SHAPE_REPRESENTATION('',(#14),#187);
#13=STYLED_ITEM('',(#204),#14);
#14=MANIFOLD_SOLID_BREP('Body1',#99);
#15=CYLINDRICAL_SURFACE('',#118,6.);
#16=CYLINDRICAL_SURFACE('',#121,15.);
#17=FACE_BOUND('',#28,.T.);
#18=FACE_BOUND('',#32,.T.);
#19=PLANE('',#115);
#20=PLANE('',#124);
#21=FACE_OUTER_BOUND('',#26,.T.);
#22=FACE_OUTER_BOUND('',#27,.T.);
#23=FACE_OUTER_BOUND('',#29,.T.);
#24=FACE_OUTER_BOUND('',#30,.T.);
#25=FACE_OUTER_BOUND('',#31,.T.);
#26=EDGE_LOOP('',(#69,#70,#71,#72,#73));
#27=EDGE_LOOP('',(#74,#75));
#28=EDGE_LOOP('',(#76));
#29=EDGE_LOOP('',(#77,#78,#79,#80,#81,#82));
#30=EDGE_LOOP('',(#83,#84,#85,#86,#87,#88));
#31=EDGE_LOOP('',(#89,#90));
#32=EDGE_LOOP('',(#91,#92));
#33=LINE('',#163,#36);
#34=LINE('',#176,#37);
#35=LINE('',#183,#38);
#36=VECTOR('',#131,6.5);
#37=VECTOR('',#146,6.);
#38=VECTOR('',#155,15.);
#39=CIRCLE('',#112,7.);
#40=CIRCLE('',#113,6.);
#41=CIRCLE('',#114,6.);
#42=CIRCLE('',#116,15.);
#43=CIRCLE('',#117,15.);
#44=CIRCLE('',#119,6.);
#45=CIRCLE('',#120,6.);
#46=CIRCLE('',#122,15.);
#47=CIRCLE('',#123,15.);
#48=VERTEX_POINT('',#160);
#49=VERTEX_POINT('',#162);
#50=VERTEX_POINT('',#164);
#51=VERTEX_POINT('',#168);
#52=VERTEX_POINT('',#169);
#53=VERTEX_POINT('',#173);
#54=VERTEX_POINT('',#174);
#55=VERTEX_POINT('',#179);
#56=VERTEX_POINT('',#180);
#57=EDGE_CURVE('',#48,#48,#39,.T.);
#58=EDGE_CURVE('',#48,#49,#33,.T.);
#59=EDGE_CURVE('',#49,#50,#40,.T.);
#60=EDGE_CURVE('',#50,#49,#41,.T.);
#61=EDGE_CURVE('',#51,#52,#42,.T.);
#62=EDGE_CURVE('',#52,#51,#43,.T.);
#63=EDGE_CURVE('',#53,#54,#44,.T.);
#64=EDGE_CURVE('',#54,#50,#34,.T.);
#65=EDGE_CURVE('',#54,#53,#45,.T.);
#66=EDGE_CURVE('',#55,#56,#46,.T.);
#67=EDGE_CURVE('',#56,#55,#47,.T.);
#68=EDGE_CURVE('',#56,#52,#35,.T.);
#69=ORIENTED_EDGE('',*,*,#57,.T.);
#70=ORIENTED_EDGE('',*,*,#58,.T.);
#71=ORIENTED_EDGE('',*,*,#59,.T.);
#72=ORIENTED_EDGE('',*,*,#60,.T.);
#73=ORIENTED_EDGE('',*,*,#58,.F.);
#74=ORIENTED_EDGE('',*,*,#61,.F.);
#75=ORIENTED_EDGE('',*,*,#62,.F.);
#76=ORIENTED_EDGE('',*,*,#57,.F.);
#77=ORIENTED_EDGE('',*,*,#63,.T.);
#78=ORIENTED_EDGE('',*,*,#64,.T.);
#79=ORIENTED_EDGE('',*,*,#59,.F.);
#80=ORIENTED_EDGE('',*,*,#60,.F.);
#81=ORIENTED_EDGE('',*,*,#64,.F.);
#82=ORIENTED_EDGE('',*,*,#65,.T.);
#83=ORIENTED_EDGE('',*,*,#66,.F.);
#84=ORIENTED_EDGE('',*,*,#67,.F.);
#85=ORIENTED_EDGE('',*,*,#68,.T.);
#86=ORIENTED_EDGE('',*,*,#62,.T.);
#87=ORIENTED_EDGE('',*,*,#61,.T.);
#88=ORIENTED_EDGE('',*,*,#68,.F.);
#89=ORIENTED_EDGE('',*,*,#66,.T.);
#90=ORIENTED_EDGE('',*,*,#67,.T.);
#91=ORIENTED_EDGE('',*,*,#63,.F.);
#92=ORIENTED_EDGE('',*,*,#65,.F.);
#93=CONICAL_SURFACE('',#111,6.5,0.78539816339745);
#94=ADVANCED_FACE('',(#21),#93,.F.);
#95=ADVANCED_FACE('',(#22,#17),#19,.T.);
#96=ADVANCED_FACE('',(#23),#15,.F.);
#97=ADVANCED_FACE('',(#24),#16,.T.);
#98=ADVANCED_FACE('',(#25,#18),#20,.T.);
#99=CLOSED_SHELL('',(#94,#95,#96,#97,#98));
#100=DERIVED_UNIT_ELEMENT(#190,3.);
#101=DERIVED_UNIT((#100));
#102=MEASURE_REPRESENTATION_ITEM('density measure',
POSITIVE_RATIO_MEASURE(0.),#101);
#103=PROPERTY_DEFINITION_REPRESENTATION(#108,#105);
#104=PROPERTY_DEFINITION_REPRESENTATION(#109,#106);
#105=REPRESENTATION('material name',(#107),#187);
#106=REPRESENTATION('density',(#102),#187);
#107=DESCRIPTIVE_REPRESENTATION_ITEM('',$);
#108=PROPERTY_DEFINITION('material property','material name',#197);
#109=PROPERTY_DEFINITION('material property','density of part',#197);
#110=AXIS2_PLACEMENT_3D('placement',#158,#125,#126);
#111=AXIS2_PLACEMENT_3D('',#159,#127,#128);
#112=AXIS2_PLACEMENT_3D('',#161,#129,#130);
#113=AXIS2_PLACEMENT_3D('',#165,#132,#133);
#114=AXIS2_PLACEMENT_3D('',#166,#134,#135);
#115=AXIS2_PLACEMENT_3D('',#167,#136,#137);
#116=AXIS2_PLACEMENT_3D('',#170,#138,#139);
#117=AXIS2_PLACEMENT_3D('',#171,#140,#141);
#118=AXIS2_PLACEMENT_3D('',#172,#142,#143);
#119=AXIS2_PLACEMENT_3D('',#175,#144,#145);
#120=AXIS2_PLACEMENT_3D('',#177,#147,#148);
#121=AXIS2_PLACEMENT_3D('',#178,#149,#150);
#122=AXIS2_PLACEMENT_3D('',#181,#151,#152);
#123=AXIS2_PLACEMENT_3D('',#182,#153,#154);
#124=AXIS2_PLACEMENT_3D('',#184,#156,#157);
#125=DIRECTION('axis',(0.,0.,1.));
#126=DIRECTION('refdir',(1.,0.,0.));
#127=DIRECTION('center_axis',(0.,0.,1.));
#128=DIRECTION('ref_axis',(0.,-1.,0.));
#129=DIRECTION('center_axis',(0.,0.,1.));
#130=DIRECTION('ref_axis',(0.,-1.,0.));
#131=DIRECTION('',(8.65956056235494E-17,-0.707106781186548,-0.707106781186547));
#132=DIRECTION('center_axis',(0.,0.,-1.));
#133=DIRECTION('ref_axis',(0.,-1.,0.));
#134=DIRECTION('center_axis',(0.,0.,-1.));
#135=DIRECTION('ref_axis',(0.,-1.,0.));
#136=DIRECTION('center_axis',(0.,0.,1.));
#137=DIRECTION('ref_axis',(1.,0.,0.));
#138=DIRECTION('center_axis',(0.,0.,-1.));
#139=DIRECTION('ref_axis',(1.,0.,0.));
#140=DIRECTION('center_axis',(0.,0.,-1.));
#141=DIRECTION('ref_axis',(1.,0.,0.));
#142=DIRECTION('center_axis',(0.,0.,-1.));
#143=DIRECTION('ref_axis',(0.,1.,0.));
#144=DIRECTION('center_axis',(0.,0.,-1.));
#145=DIRECTION('ref_axis',(1.,0.,0.));
#146=DIRECTION('',(0.,0.,1.));
#147=DIRECTION('center_axis',(0.,0.,-1.));
#148=DIRECTION('ref_axis',(1.,0.,0.));
#149=DIRECTION('center_axis',(0.,0.,-1.));
#150=DIRECTION('ref_axis',(0.,1.,0.));
#151=DIRECTION('center_axis',(0.,0.,-1.));
#152=DIRECTION('ref_axis',(1.,0.,0.));
#153=DIRECTION('center_axis',(0.,0.,-1.));
#154=DIRECTION('ref_axis',(1.,0.,0.));
#155=DIRECTION('',(0.,0.,1.));
#156=DIRECTION('center_axis',(0.,0.,-1.));
#157=DIRECTION('ref_axis',(-1.,0.,0.));
#158=CARTESIAN_POINT('',(0.,0.,0.));
#159=CARTESIAN_POINT('Origin',(0.,0.,9.5));
#160=CARTESIAN_POINT('',(-8.57252759403147E-16,7.,10.));
#161=CARTESIAN_POINT('Origin',(0.,0.,10.));
#162=CARTESIAN_POINT('',(7.34788079488412E-16,6.,9.));
#163=CARTESIAN_POINT('',(-7.9602041944578E-16,6.5,9.5));
#164=CARTESIAN_POINT('',(-7.34788079488412E-16,-6.,9.));
#165=CARTESIAN_POINT('Origin',(0.,0.,9.));
#166=CARTESIAN_POINT('Origin',(0.,0.,9.));
#167=CARTESIAN_POINT('Origin',(0.,15.,10.));
#168=CARTESIAN_POINT('',(0.,15.,10.));
#169=CARTESIAN_POINT('',(-1.83697019872103E-15,-15.,10.));
#170=CARTESIAN_POINT('Origin',(0.,0.,10.));
#171=CARTESIAN_POINT('Origin',(0.,0.,10.));
#172=CARTESIAN_POINT('Origin',(0.,0.,5.));
#173=CARTESIAN_POINT('',(0.,6.,0.));
#174=CARTESIAN_POINT('',(-7.34788079488412E-16,-6.,0.));
#175=CARTESIAN_POINT('Origin',(0.,0.,0.));
#176=CARTESIAN_POINT('',(-7.34788079488412E-16,-6.,5.));
#177=CARTESIAN_POINT('Origin',(0.,0.,0.));
#178=CARTESIAN_POINT('Origin',(0.,0.,5.));
#179=CARTESIAN_POINT('',(0.,15.,0.));
#180=CARTESIAN_POINT('',(-1.83697019872103E-15,-15.,0.));
#181=CARTESIAN_POINT('Origin',(0.,0.,0.));
#182=CARTESIAN_POINT('Origin',(0.,0.,0.));
#183=CARTESIAN_POINT('',(-1.83697019872103E-15,-15.,5.));
#184=CARTESIAN_POINT('Origin',(0.,6.,0.));
#185=UNCERTAINTY_MEASURE_WITH_UNIT(LENGTH_MEASURE(0.01),#189,
'DISTANCE_ACCURACY_VALUE',
'Maximum model space distance between geometric entities at asserted c
onnectivities');
#186=UNCERTAINTY_MEASURE_WITH_UNIT(LENGTH_MEASURE(0.01),#189,
'DISTANCE_ACCURACY_VALUE',
'Maximum model space distance between geometric entities at asserted c
onnectivities');
#187=(
GEOMETRIC_REPRESENTATION_CONTEXT(3)
GLOBAL_UNCERTAINTY_ASSIGNED_CONTEXT((#185))
GLOBAL_UNIT_ASSIGNED_CONTEXT((#189,#192,#191))
REPRESENTATION_CONTEXT('','3D')
);
#188=(
GEOMETRIC_REPRESENTATION_CONTEXT(3)
GLOBAL_UNCERTAINTY_ASSIGNED_CONTEXT((#186))
GLOBAL_UNIT_ASSIGNED_CONTEXT((#189,#192,#191))
REPRESENTATION_CONTEXT('','3D')
);
#189=(
LENGTH_UNIT()
NAMED_UNIT(*)
SI_UNIT(.MILLI.,.METRE.)
);
#190=(
LENGTH_UNIT()
NAMED_UNIT(*)
SI_UNIT(.CENTI.,.METRE.)
);
#191=(
NAMED_UNIT(*)
SI_UNIT($,.STERADIAN.)
SOLID_ANGLE_UNIT()
);
#192=(
NAMED_UNIT(*)
PLANE_ANGLE_UNIT()
SI_UNIT($,.RADIAN.)
);
#193=SHAPE_DEFINITION_REPRESENTATION(#194,#195);
#194=PRODUCT_DEFINITION_SHAPE('',$,#197);
#195=SHAPE_REPRESENTATION('',(#110),#187);
#196=PRODUCT_DEFINITION_CONTEXT('part definition',#201,'design');
#197=PRODUCT_DEFINITION('Washer Thick','Washer Thick',#198,#196);
#198=PRODUCT_DEFINITION_FORMATION('',$,#203);
#199=PRODUCT_RELATED_PRODUCT_CATEGORY('Washer Thick','Washer Thick',(#203));
#200=APPLICATION_PROTOCOL_DEFINITION('international standard',
'automotive_design',2009,#201);
#201=APPLICATION_CONTEXT(
'Core Data for Automotive Mechanical Design Process');
#202=PRODUCT_CONTEXT('part definition',#201,'mechanical');
#203=PRODUCT('Washer Thick','Washer Thick',$,(#202));
#204=PRESENTATION_STYLE_ASSIGNMENT((#205));
#205=SURFACE_STYLE_USAGE(.BOTH.,#206);
#206=SURFACE_SIDE_STYLE('',(#207));
#207=SURFACE_STYLE_FILL_AREA(#208);
#208=FILL_AREA_STYLE('Stainless Steel - Satin',(#209));
#209=FILL_AREA_STYLE_COLOUR('Stainless Steel - Satin',#210);
#210=COLOUR_RGB('Stainless Steel - Satin',0.796078431372549,0.796078431372549,
0.796078431372549);
ENDSEC;
END-ISO-10303-21;
