ISO-10303-21;
HEADER;
FILE_DESCRIPTION(('STEP AP203'),'1');
FILE_NAME('Oreillede levage.step','2018-05-31T06:11:24',(' '),(' '),'Spatial InterOp 3D',' ',' ');
FILE_SCHEMA(('CONFIG_CONTROL_DESIGN'));
ENDSEC;
DATA;
#1=DESIGN_CONTEXT('',#27,'design');
#2=APPLICATION_PROTOCOL_DEFINITION('INTERNATIONAL STANDARD','config_control_design',1994,#27);
#3=PRODUCT_CATEGORY_RELATIONSHIP('NONE','NONE',#28,#29);
#4=DATE_AND_TIME(#30,#31);
#5=DATE_TIME_ROLE('creation_date');
#6=DATE_TIME_ROLE('classification_date');
#7=PERSON_AND_ORGANIZATION_ROLE('creator');
#8=PERSON_AND_ORGANIZATION_ROLE('design_supplier');
#9=PERSON_AND_ORGANIZATION_ROLE('classification_officer');
#10=PERSON_AND_ORGANIZATION_ROLE('design_owner');
#11=APPROVAL_PERSON_ORGANIZATION(#32,#33,#34);
#12=APPROVAL_DATE_TIME(#4,#33);
#13=CC_DESIGN_APPROVAL(#33,(#35,#36,#37));
#14=CC_DESIGN_DATE_AND_TIME_ASSIGNMENT(#4,#5,(#37));
#15=CC_DESIGN_DATE_AND_TIME_ASSIGNMENT(#4,#6,(#35));
#16=CC_DESIGN_PERSON_AND_ORGANIZATION_ASSIGNMENT(#32,#10,(#38));
#17=CC_DESIGN_PERSON_AND_ORGANIZATION_ASSIGNMENT(#32,#7,(#37));
#18=CC_DESIGN_PERSON_AND_ORGANIZATION_ASSIGNMENT(#32,#7,(#36));
#19=CC_DESIGN_PERSON_AND_ORGANIZATION_ASSIGNMENT(#32,#8,(#36));
#20=CC_DESIGN_SECURITY_CLASSIFICATION(#35,(#36));
#21=CC_DESIGN_PERSON_AND_ORGANIZATION_ASSIGNMENT(#32,#9,(#35));
#22=SHAPE_DEFINITION_REPRESENTATION(#39,#40);
#23= (GEOMETRIC_REPRESENTATION_CONTEXT(3)GLOBAL_UNCERTAINTY_ASSIGNED_CONTEXT((#43))GLOBAL_UNIT_ASSIGNED_CONTEXT((#45,#46,#47))REPRESENTATION_CONTEXT('NONE','WORKSPACE'));
#27=APPLICATION_CONTEXT('CONFIGURATION CONTROLLED 3D DESIGNS OF MECHANICAL PARTS AND ASSEMBLIES');
#28=PRODUCT_CATEGORY('part','NONE');
#29=PRODUCT_RELATED_PRODUCT_CATEGORY('detail',' ',(#38));
#30=CALENDAR_DATE(2018,31,4);
#31=LOCAL_TIME(8,11,24.0,#49);
#32=PERSON_AND_ORGANIZATION(#50,#51);
#33=APPROVAL(#52,'SOLID MODEL');
#34=APPROVAL_ROLE('APPROVED');
#35=SECURITY_CLASSIFICATION('','',#53);
#36=PRODUCT_DEFINITION_FORMATION_WITH_SPECIFIED_SOURCE(' ','NONE',#38,.NOT_KNOWN.);
#37=PRODUCT_DEFINITION('NONE','NONE',#36,#1);
#38=PRODUCT('1','1','PART-1-DESC',(#54));
#39=PRODUCT_DEFINITION_SHAPE('NONE','NONE',#37);
#40=ADVANCED_BREP_SHAPE_REPRESENTATION('1',(#55,#56),#23);
#43=UNCERTAINTY_MEASURE_WITH_UNIT(LENGTH_MEASURE(0.001),#45,'','');
#45= (CONVERSION_BASED_UNIT('MILLIMETRE',#59)LENGTH_UNIT()NAMED_UNIT(#62));
#46= (NAMED_UNIT(#64)PLANE_ANGLE_UNIT()SI_UNIT($,.RADIAN.));
#47= (NAMED_UNIT(#64)SOLID_ANGLE_UNIT()SI_UNIT($,.STERADIAN.));
#49=COORDINATED_UNIVERSAL_TIME_OFFSET(1,0,.AHEAD.);
#50=PERSON('','UNSPECIFIED',$,$,$,$);
#51=ORGANIZATION('UNSPECIFIED','UNSPECIFIED','UNSPECIFIED');
#52=APPROVAL_STATUS('approved');
#53=SECURITY_CLASSIFICATION_LEVEL('unclassified');
#54=MECHANICAL_CONTEXT('',#27,'mechanical');
#55=MANIFOLD_SOLID_BREP('1',#70);
#56=AXIS2_PLACEMENT_3D('',#71,#72,#73);
#59=LENGTH_MEASURE_WITH_UNIT(LENGTH_MEASURE(1.0),#74);
#62=DIMENSIONAL_EXPONENTS(1.0,0.0,0.0,0.0,0.0,0.0,0.0);
#64=DIMENSIONAL_EXPONENTS(0.0,0.0,0.0,0.0,0.0,0.0,0.0);
#70=CLOSED_SHELL('',(#75,#76,#77,#78,#79,#80,#81,#82,#83,#84,#85));
#71=CARTESIAN_POINT('',(0.0,0.0,0.0));
#72=DIRECTION('',(0.0,0.0,1.0));
#73=DIRECTION('',(1.0,0.0,0.0));
#74= (NAMED_UNIT(#62)LENGTH_UNIT()SI_UNIT(.MILLI.,.METRE.));
#75=ADVANCED_FACE('',(#87),#88,.T.);
#76=ADVANCED_FACE('',(#89),#90,.T.);
#77=ADVANCED_FACE('',(#91),#92,.T.);
#78=ADVANCED_FACE('',(#93),#94,.T.);
#79=ADVANCED_FACE('',(#95),#96,.T.);
#80=ADVANCED_FACE('',(#97),#98,.T.);
#81=ADVANCED_FACE('',(#99),#100,.T.);
#82=ADVANCED_FACE('',(#101,#102),#103,.T.);
#83=ADVANCED_FACE('',(#104,#105),#106,.F.);
#84=ADVANCED_FACE('',(#107,#108),#109,.F.);
#85=ADVANCED_FACE('',(#110),#111,.T.);
#87=FACE_OUTER_BOUND('',#112,.T.);
#88=CYLINDRICAL_SURFACE('',#113,80.0);
#89=FACE_OUTER_BOUND('',#114,.T.);
#90=PLANE('',#115);
#91=FACE_OUTER_BOUND('',#116,.T.);
#92=PLANE('',#117);
#93=FACE_OUTER_BOUND('',#118,.T.);
#94=PLANE('',#119);
#95=FACE_OUTER_BOUND('',#120,.T.);
#96=PLANE('',#121);
#97=FACE_OUTER_BOUND('',#122,.T.);
#98=PLANE('',#123);
#99=FACE_OUTER_BOUND('',#124,.T.);
#100=PLANE('',#125);
#101=FACE_BOUND('',#126,.T.);
#102=FACE_OUTER_BOUND('',#127,.T.);
#103=PLANE('',#128);
#104=FACE_BOUND('',#129,.T.);
#105=FACE_OUTER_BOUND('',#130,.T.);
#106=PLANE('',#131);
#107=FACE_OUTER_BOUND('',#132,.T.);
#108=FACE_OUTER_BOUND('',#133,.T.);
#109=CYLINDRICAL_SURFACE('',#134,31.0);
#110=FACE_OUTER_BOUND('',#135,.T.);
#111=PLANE('',#136);
#112=EDGE_LOOP('',(#137,#138,#139,#140));
#113=AXIS2_PLACEMENT_3D('',#141,#142,#143);
#114=EDGE_LOOP('',(#144,#145,#146,#147));
#115=AXIS2_PLACEMENT_3D('',#148,#149,#150);
#116=EDGE_LOOP('',(#151,#152,#153,#154));
#117=AXIS2_PLACEMENT_3D('',#155,#156,#157);
#118=EDGE_LOOP('',(#158,#159,#160,#161));
#119=AXIS2_PLACEMENT_3D('',#162,#163,#164);
#120=EDGE_LOOP('',(#165,#166,#167,#168));
#121=AXIS2_PLACEMENT_3D('',#169,#170,#171);
#122=EDGE_LOOP('',(#172,#173,#174,#175));
#123=AXIS2_PLACEMENT_3D('',#176,#177,#178);
#124=EDGE_LOOP('',(#179,#180,#181,#182));
#125=AXIS2_PLACEMENT_3D('',#183,#184,#185);
#126=EDGE_LOOP('',(#186));
#127=EDGE_LOOP('',(#187,#188,#189,#190,#191,#192,#193,#194));
#128=AXIS2_PLACEMENT_3D('',#195,#196,#197);
#129=EDGE_LOOP('',(#198));
#130=EDGE_LOOP('',(#199,#200,#201,#202,#203,#204,#205,#206));
#131=AXIS2_PLACEMENT_3D('',#207,#208,#209);
#132=EDGE_LOOP('',(#210));
#133=EDGE_LOOP('',(#211));
#134=AXIS2_PLACEMENT_3D('',#212,#213,#214);
#135=EDGE_LOOP('',(#215,#216,#217,#218));
#136=AXIS2_PLACEMENT_3D('',#219,#220,#221);
#137=ORIENTED_EDGE('',*,*,#222,.T.);
#138=ORIENTED_EDGE('',*,*,#223,.T.);
#139=ORIENTED_EDGE('',*,*,#224,.F.);
#140=ORIENTED_EDGE('',*,*,#225,.F.);
#141=CARTESIAN_POINT('',(115.862915010152,94.0,0.0));
#142=DIRECTION('',(0.0,0.0,1.0));
#143=DIRECTION('',(1.0,0.0,0.0));
#144=ORIENTED_EDGE('',*,*,#224,.T.);
#145=ORIENTED_EDGE('',*,*,#226,.T.);
#146=ORIENTED_EDGE('',*,*,#227,.F.);
#147=ORIENTED_EDGE('',*,*,#228,.F.);
#148=CARTESIAN_POINT('',(172.431457505076,150.568542494924,0.0));
#149=DIRECTION('',(0.707106781186548,0.707106781186546,0.0));
#150=DIRECTION('',(-0.707106781186547,0.707106781186549,0.0));
#151=ORIENTED_EDGE('',*,*,#229,.T.);
#152=ORIENTED_EDGE('',*,*,#230,.T.);
#153=ORIENTED_EDGE('',*,*,#222,.F.);
#154=ORIENTED_EDGE('',*,*,#231,.F.);
#155=CARTESIAN_POINT('',(135.0,1.38777878078145E-014,0.0));
#156=DIRECTION('',(0.707106781186547,-0.707106781186547,0.0));
#157=DIRECTION('',(0.707106781186548,0.707106781186548,0.0));
#158=ORIENTED_EDGE('',*,*,#232,.T.);
#159=ORIENTED_EDGE('',*,*,#233,.T.);
#160=ORIENTED_EDGE('',*,*,#229,.F.);
#161=ORIENTED_EDGE('',*,*,#234,.F.);
#162=CARTESIAN_POINT('',(20.0,0.0,0.0));
#163=DIRECTION('',(0.0,-1.0,0.0));
#164=DIRECTION('',(1.0,0.0,0.0));
#165=ORIENTED_EDGE('',*,*,#227,.T.);
#166=ORIENTED_EDGE('',*,*,#235,.T.);
#167=ORIENTED_EDGE('',*,*,#236,.F.);
#168=ORIENTED_EDGE('',*,*,#237,.F.);
#169=CARTESIAN_POINT('',(135.0,188.0,0.0));
#170=DIRECTION('',(0.0,1.0,0.0));
#171=DIRECTION('',(-1.0,0.0,0.0));
#172=ORIENTED_EDGE('',*,*,#236,.T.);
#173=ORIENTED_EDGE('',*,*,#238,.T.);
#174=ORIENTED_EDGE('',*,*,#239,.F.);
#175=ORIENTED_EDGE('',*,*,#240,.F.);
#176=CARTESIAN_POINT('',(20.0,188.0,0.0));
#177=DIRECTION('',(-0.707106781186547,0.707106781186548,0.0));
#178=DIRECTION('',(-0.707106781186548,-0.707106781186547,0.0));
#179=ORIENTED_EDGE('',*,*,#239,.T.);
#180=ORIENTED_EDGE('',*,*,#241,.T.);
#181=ORIENTED_EDGE('',*,*,#242,.F.);
#182=ORIENTED_EDGE('',*,*,#243,.F.);
#183=CARTESIAN_POINT('',(0.0,168.0,0.0));
#184=DIRECTION('',(-1.0,0.0,0.0));
#185=DIRECTION('',(0.0,-1.0,0.0));
#186=ORIENTED_EDGE('',*,*,#244,.F.);
#187=ORIENTED_EDGE('',*,*,#243,.T.);
#188=ORIENTED_EDGE('',*,*,#245,.T.);
#189=ORIENTED_EDGE('',*,*,#234,.T.);
#190=ORIENTED_EDGE('',*,*,#231,.T.);
#191=ORIENTED_EDGE('',*,*,#225,.T.);
#192=ORIENTED_EDGE('',*,*,#228,.T.);
#193=ORIENTED_EDGE('',*,*,#237,.T.);
#194=ORIENTED_EDGE('',*,*,#240,.T.);
#195=CARTESIAN_POINT('',(115.862915010152,94.0,60.0));
#196=DIRECTION('',(0.0,0.0,1.0));
#197=DIRECTION('',(1.0,0.0,0.0));
#198=ORIENTED_EDGE('',*,*,#246,.T.);
#199=ORIENTED_EDGE('',*,*,#241,.F.);
#200=ORIENTED_EDGE('',*,*,#238,.F.);
#201=ORIENTED_EDGE('',*,*,#235,.F.);
#202=ORIENTED_EDGE('',*,*,#226,.F.);
#203=ORIENTED_EDGE('',*,*,#223,.F.);
#204=ORIENTED_EDGE('',*,*,#230,.F.);
#205=ORIENTED_EDGE('',*,*,#233,.F.);
#206=ORIENTED_EDGE('',*,*,#247,.F.);
#207=CARTESIAN_POINT('',(115.862915010152,94.0,0.0));
#208=DIRECTION('',(0.0,0.0,1.0));
#209=DIRECTION('',(1.0,0.0,0.0));
#210=ORIENTED_EDGE('',*,*,#244,.T.);
#211=ORIENTED_EDGE('',*,*,#246,.F.);
#212=CARTESIAN_POINT('',(110.0,94.0,60.0));
#213=DIRECTION('',(0.0,0.0,-1.0));
#214=DIRECTION('',(-1.0,0.0,0.0));
#215=ORIENTED_EDGE('',*,*,#245,.F.);
#216=ORIENTED_EDGE('',*,*,#242,.T.);
#217=ORIENTED_EDGE('',*,*,#247,.T.);
#218=ORIENTED_EDGE('',*,*,#232,.F.);
#219=CARTESIAN_POINT('',(0.0,20.0,0.0));
#220=DIRECTION('',(-0.707106781186547,-0.707106781186547,0.0));
#221=DIRECTION('',(0.707106781186548,-0.707106781186548,0.0));
#222=EDGE_CURVE('',#248,#249,#250,.F.);
#223=EDGE_CURVE('',#249,#251,#252,.T.);
#224=EDGE_CURVE('',#253,#251,#254,.F.);
#225=EDGE_CURVE('',#248,#253,#255,.T.);
#226=EDGE_CURVE('',#251,#256,#257,.T.);
#227=EDGE_CURVE('',#258,#256,#259,.F.);
#228=EDGE_CURVE('',#253,#258,#260,.T.);
#229=EDGE_CURVE('',#261,#262,#263,.F.);
#230=EDGE_CURVE('',#262,#249,#264,.T.);
#231=EDGE_CURVE('',#261,#248,#265,.T.);
#232=EDGE_CURVE('',#266,#267,#268,.F.);
#233=EDGE_CURVE('',#267,#262,#269,.T.);
#234=EDGE_CURVE('',#266,#261,#270,.T.);
#235=EDGE_CURVE('',#256,#271,#272,.T.);
#236=EDGE_CURVE('',#273,#271,#274,.F.);
#237=EDGE_CURVE('',#258,#273,#275,.F.);
#238=EDGE_CURVE('',#271,#276,#277,.T.);
#239=EDGE_CURVE('',#278,#276,#279,.F.);
#240=EDGE_CURVE('',#273,#278,#280,.T.);
#241=EDGE_CURVE('',#276,#281,#282,.T.);
#242=EDGE_CURVE('',#283,#281,#284,.F.);
#243=EDGE_CURVE('',#278,#283,#285,.F.);
#244=EDGE_CURVE('',#286,#286,#287,.T.);
#245=EDGE_CURVE('',#283,#266,#288,.T.);
#246=EDGE_CURVE('',#289,#289,#290,.T.);
#247=EDGE_CURVE('',#281,#267,#291,.T.);
#248=VERTEX_POINT('',#292);
#249=VERTEX_POINT('',#293);
#250=LINE('',#294,#295);
#251=VERTEX_POINT('',#296);
#252=CIRCLE('',#297,80.0);
#253=VERTEX_POINT('',#298);
#254=LINE('',#299,#300);
#255=CIRCLE('',#301,80.0);
#256=VERTEX_POINT('',#302);
#257=LINE('',#303,#304);
#258=VERTEX_POINT('',#305);
#259=LINE('',#306,#307);
#260=LINE('',#308,#309);
#261=VERTEX_POINT('',#310);
#262=VERTEX_POINT('',#311);
#263=LINE('',#312,#313);
#264=LINE('',#314,#315);
#265=LINE('',#316,#317);
#266=VERTEX_POINT('',#318);
#267=VERTEX_POINT('',#319);
#268=LINE('',#320,#321);
#269=LINE('',#322,#323);
#270=LINE('',#324,#325);
#271=VERTEX_POINT('',#326);
#272=LINE('',#327,#328);
#273=VERTEX_POINT('',#329);
#274=LINE('',#330,#331);
#275=LINE('',#332,#333);
#276=VERTEX_POINT('',#334);
#277=LINE('',#335,#336);
#278=VERTEX_POINT('',#337);
#279=LINE('',#338,#339);
#280=LINE('',#340,#341);
#281=VERTEX_POINT('',#342);
#282=LINE('',#343,#344);
#283=VERTEX_POINT('',#345);
#284=LINE('',#346,#347);
#285=LINE('',#348,#349);
#286=VERTEX_POINT('',#350);
#287=CIRCLE('',#351,31.0);
#288=LINE('',#352,#353);
#289=VERTEX_POINT('',#354);
#290=CIRCLE('',#355,31.0);
#291=LINE('',#356,#357);
#292=CARTESIAN_POINT('',(172.431457505076,37.4314575050762,60.0));
#293=CARTESIAN_POINT('',(172.431457505076,37.4314575050762,0.0));
#294=CARTESIAN_POINT('',(172.431457505076,37.4314575050762,0.0));
#295=VECTOR('',#358,1.0);
#296=CARTESIAN_POINT('',(172.431457505076,150.568542494924,0.0));
#297=AXIS2_PLACEMENT_3D('',#359,#360,#361);
#298=CARTESIAN_POINT('',(172.431457505076,150.568542494924,60.0));
#299=CARTESIAN_POINT('',(172.431457505076,150.568542494924,0.0));
#300=VECTOR('',#362,1.0);
#301=AXIS2_PLACEMENT_3D('',#363,#364,#365);
#302=CARTESIAN_POINT('',(135.0,188.0,0.0));
#303=CARTESIAN_POINT('',(172.431457505076,150.568542494924,0.0));
#304=VECTOR('',#366,1.0);
#305=CARTESIAN_POINT('',(135.0,188.0,60.0));
#306=CARTESIAN_POINT('',(135.0,188.0,0.0));
#307=VECTOR('',#367,1.0);
#308=CARTESIAN_POINT('',(172.431457505076,150.568542494924,60.0));
#309=VECTOR('',#368,1.0);
#310=CARTESIAN_POINT('',(135.0,0.0,60.0));
#311=CARTESIAN_POINT('',(135.0,0.0,0.0));
#312=CARTESIAN_POINT('',(135.0,0.0,0.0));
#313=VECTOR('',#369,1.0);
#314=CARTESIAN_POINT('',(135.0,1.38777878078145E-014,0.0));
#315=VECTOR('',#370,1.0);
#316=CARTESIAN_POINT('',(135.0,1.38777878078145E-014,60.0));
#317=VECTOR('',#371,1.0);
#318=CARTESIAN_POINT('',(20.0,0.0,60.0));
#319=CARTESIAN_POINT('',(20.0,0.0,0.0));
#320=CARTESIAN_POINT('',(20.0,0.0,0.0));
#321=VECTOR('',#372,1.0);
#322=CARTESIAN_POINT('',(20.0,0.0,0.0));
#323=VECTOR('',#373,1.0);
#324=CARTESIAN_POINT('',(115.862915010152,0.0,60.0));
#325=VECTOR('',#374,1.0);
#326=CARTESIAN_POINT('',(20.0,188.0,0.0));
#327=CARTESIAN_POINT('',(135.0,188.0,0.0));
#328=VECTOR('',#375,1.0);
#329=CARTESIAN_POINT('',(20.0,188.0,60.0));
#330=CARTESIAN_POINT('',(20.0,188.0,0.0));
#331=VECTOR('',#376,1.0);
#332=CARTESIAN_POINT('',(115.862915010152,188.0,60.0));
#333=VECTOR('',#377,1.0);
#334=CARTESIAN_POINT('',(0.0,168.0,0.0));
#335=CARTESIAN_POINT('',(20.0,188.0,0.0));
#336=VECTOR('',#378,1.0);
#337=CARTESIAN_POINT('',(0.0,168.0,60.0));
#338=CARTESIAN_POINT('',(0.0,168.0,0.0));
#339=VECTOR('',#379,1.0);
#340=CARTESIAN_POINT('',(20.0,188.0,60.0));
#341=VECTOR('',#380,1.0);
#342=CARTESIAN_POINT('',(0.0,20.0,0.0));
#343=CARTESIAN_POINT('',(0.0,168.0,0.0));
#344=VECTOR('',#381,1.0);
#345=CARTESIAN_POINT('',(0.0,20.0,60.0));
#346=CARTESIAN_POINT('',(0.0,20.0,0.0));
#347=VECTOR('',#382,1.0);
#348=CARTESIAN_POINT('',(0.0,94.0,60.0));
#349=VECTOR('',#383,1.0);
#350=CARTESIAN_POINT('',(141.0,94.0,60.0));
#351=AXIS2_PLACEMENT_3D('',#384,#385,#386);
#352=CARTESIAN_POINT('',(0.0,20.0,60.0));
#353=VECTOR('',#387,1.0);
#354=CARTESIAN_POINT('',(141.0,94.0,0.0));
#355=AXIS2_PLACEMENT_3D('',#388,#389,#390);
#356=CARTESIAN_POINT('',(0.0,20.0,0.0));
#357=VECTOR('',#391,1.0);
#358=DIRECTION('',(0.0,0.0,1.0));
#359=CARTESIAN_POINT('',(115.862915010152,94.0,0.0));
#360=DIRECTION('',(0.0,0.0,1.0));
#361=DIRECTION('',(0.707106781186548,-0.707106781186547,0.0));
#362=DIRECTION('',(0.0,0.0,1.0));
#363=CARTESIAN_POINT('',(115.862915010152,94.0,60.0));
#364=DIRECTION('',(0.0,0.0,1.0));
#365=DIRECTION('',(1.0,0.0,0.0));
#366=DIRECTION('',(-0.707106781186547,0.707106781186549,0.0));
#367=DIRECTION('',(0.0,0.0,1.0));
#368=DIRECTION('',(-0.707106781186547,0.707106781186549,0.0));
#369=DIRECTION('',(0.0,0.0,1.0));
#370=DIRECTION('',(0.707106781186548,0.707106781186548,0.0));
#371=DIRECTION('',(0.707106781186548,0.707106781186548,0.0));
#372=DIRECTION('',(0.0,0.0,1.0));
#373=DIRECTION('',(1.0,0.0,0.0));
#374=DIRECTION('',(1.0,0.0,0.0));
#375=DIRECTION('',(-1.0,0.0,0.0));
#376=DIRECTION('',(0.0,0.0,1.0));
#377=DIRECTION('',(1.0,0.0,0.0));
#378=DIRECTION('',(-0.707106781186548,-0.707106781186547,0.0));
#379=DIRECTION('',(0.0,0.0,1.0));
#380=DIRECTION('',(-0.707106781186548,-0.707106781186547,0.0));
#381=DIRECTION('',(0.0,-1.0,0.0));
#382=DIRECTION('',(0.0,0.0,1.0));
#383=DIRECTION('',(0.0,1.0,0.0));
#384=CARTESIAN_POINT('',(110.0,94.0,60.0));
#385=DIRECTION('',(0.0,0.0,1.0));
#386=DIRECTION('',(1.0,0.0,0.0));
#387=DIRECTION('',(0.707106781186548,-0.707106781186548,0.0));
#388=CARTESIAN_POINT('',(110.0,94.0,0.0));
#389=DIRECTION('',(0.0,0.0,1.0));
#390=DIRECTION('',(1.0,0.0,0.0));
#391=DIRECTION('',(0.707106781186548,-0.707106781186548,0.0));
ENDSEC;
END-ISO-10303-21;
