ISO-10303-21;
HEADER;
FILE_DESCRIPTION(('CATIA V5 STEP Exchange'),'2;1');

FILE_NAME('D:\\Documents\\A\X2\00E9\X0\roIPSA\\Trident 2\\A Usiner\\AttacheServo.stp','2018-06-01T09:19:01+00:00',('none'),('none'),'CATIA Version 5 Release 17 (IN-10)','CATIA V5 STEP AP203','none');

FILE_SCHEMA(('CONFIG_CONTROL_DESIGN'));

ENDSEC;
/* file written by CATIA V5R17 */
DATA;
#5=PRODUCT('AttacheServo','','',(#2)) ;
#1=APPLICATION_CONTEXT('configuration controlled 3D design of mechanical parts and assemblies') ;
#14=PRODUCT_DEFINITION(' ',' ',#6,#3) ;
#16=SECURITY_CLASSIFICATION(' ',' ',#15) ;
#15=SECURITY_CLASSIFICATION_LEVEL('unclassified') ;
#47=CARTESIAN_POINT(' ',(0.,0.,0.)) ;
#52=CARTESIAN_POINT('Axis2P3D Location',(0.,20.,5.3290705182E-015)) ;
#57=CARTESIAN_POINT('Line Origine',(-1.5,20.,7.)) ;
#61=CARTESIAN_POINT('Vertex',(-6.,20.,7.)) ;
#63=CARTESIAN_POINT('Vertex',(3.,20.,7.)) ;
#66=CARTESIAN_POINT('Line Origine',(3.,20.,3.5)) ;
#70=CARTESIAN_POINT('Vertex',(3.,20.,5.3290705182E-015)) ;
#73=CARTESIAN_POINT('Line Origine',(3.,20.,-3.5)) ;
#77=CARTESIAN_POINT('Vertex',(3.,20.,-7.)) ;
#80=CARTESIAN_POINT('Line Origine',(-1.5,20.,-7.)) ;
#84=CARTESIAN_POINT('Vertex',(-6.,20.,-7.)) ;
#87=CARTESIAN_POINT('Axis2P3D Location',(-6.,20.,0.)) ;
#91=CARTESIAN_POINT('Vertex',(-13.,20.,-5.14524403986E-014)) ;
#94=CARTESIAN_POINT('Axis2P3D Location',(-6.,20.,0.)) ;
#107=CARTESIAN_POINT('Axis2P3D Location',(-6.,20.,0.)) ;
#111=CARTESIAN_POINT('Vertex',(-3.,20.,3.67381906147E-016)) ;
#113=CARTESIAN_POINT('Vertex',(-9.,20.,-7.34763812293E-016)) ;
#116=CARTESIAN_POINT('Axis2P3D Location',(-6.,20.,0.)) ;
#126=CARTESIAN_POINT('Axis2P3D Location',(0.,-20.,5.3290705182E-015)) ;
#131=CARTESIAN_POINT('Axis2P3D Location',(-6.,-20.,0.)) ;
#135=CARTESIAN_POINT('Vertex',(-13.,-20.,-5.14524403986E-014)) ;
#137=CARTESIAN_POINT('Vertex',(-6.,-20.,7.)) ;
#140=CARTESIAN_POINT('Axis2P3D Location',(-6.,-20.,0.)) ;
#144=CARTESIAN_POINT('Vertex',(-6.,-20.,-7.)) ;
#147=CARTESIAN_POINT('Line Origine',(-1.5,-20.,-7.)) ;
#151=CARTESIAN_POINT('Vertex',(3.,-20.,-7.)) ;
#154=CARTESIAN_POINT('Line Origine',(3.,-20.,-3.5)) ;
#158=CARTESIAN_POINT('Vertex',(3.,-20.,5.3290705182E-015)) ;
#161=CARTESIAN_POINT('Line Origine',(3.,-20.,3.5)) ;
#165=CARTESIAN_POINT('Vertex',(3.,-20.,7.)) ;
#168=CARTESIAN_POINT('Line Origine',(-1.5,-20.,7.)) ;
#181=CARTESIAN_POINT('Axis2P3D Location',(-6.,-20.,0.)) ;
#185=CARTESIAN_POINT('Vertex',(-9.,-20.,-7.34763812293E-016)) ;
#187=CARTESIAN_POINT('Vertex',(-3.,-20.,3.67381906147E-016)) ;
#190=CARTESIAN_POINT('Axis2P3D Location',(-6.,-20.,0.)) ;
#200=CARTESIAN_POINT('Axis2P3D Location',(-6.,0.,0.)) ;
#205=CARTESIAN_POINT('Line Origine',(-6.,0.,7.)) ;
#209=CARTESIAN_POINT('Vertex',(-6.,10.,7.)) ;
#212=CARTESIAN_POINT('Line Origine',(-13.,0.,0.)) ;
#216=CARTESIAN_POINT('Vertex',(-13.,10.,-2.03661957091E-014)) ;
#219=CARTESIAN_POINT('Axis2P3D Location',(-6.,10.,0.)) ;
#231=CARTESIAN_POINT('Line Origine',(-13.,0.,0.)) ;
#235=CARTESIAN_POINT('Vertex',(-13.,-10.,-2.03661957091E-014)) ;
#238=CARTESIAN_POINT('Line Origine',(-6.,0.,7.)) ;
#242=CARTESIAN_POINT('Vertex',(-6.,-10.,7.)) ;
#245=CARTESIAN_POINT('Axis2P3D Location',(-6.,-10.,0.)) ;
#257=CARTESIAN_POINT('Axis2P3D Location',(-6.,0.,0.)) ;
#262=CARTESIAN_POINT('Line Origine',(-6.,0.,-7.)) ;
#266=CARTESIAN_POINT('Vertex',(-6.,10.,-7.)) ;
#269=CARTESIAN_POINT('Axis2P3D Location',(-6.,10.,0.)) ;
#281=CARTESIAN_POINT('Line Origine',(-6.,0.,-7.)) ;
#285=CARTESIAN_POINT('Vertex',(-6.,-10.,-7.)) ;
#288=CARTESIAN_POINT('Axis2P3D Location',(-6.,-10.,0.)) ;
#300=CARTESIAN_POINT('Axis2P3D Location',(0.,-20.,-7.)) ;
#305=CARTESIAN_POINT('Line Origine',(3.,10.,-7.)) ;
#309=CARTESIAN_POINT('Vertex',(3.,1.22731685925E-015,-7.)) ;
#312=CARTESIAN_POINT('Line Origine',(3.,-10.,-7.)) ;
#317=CARTESIAN_POINT('Line Origine',(-4.5,-10.,-7.)) ;
#321=CARTESIAN_POINT('Vertex',(-3.,-10.,-7.)) ;
#324=CARTESIAN_POINT('Line Origine',(-3.,0.,-7.)) ;
#328=CARTESIAN_POINT('Vertex',(-3.,10.,-7.)) ;
#331=CARTESIAN_POINT('Line Origine',(-4.5,10.,-7.)) ;
#348=CARTESIAN_POINT('Axis2P3D Location',(0.,20.,7.)) ;
#353=CARTESIAN_POINT('Line Origine',(3.,-10.,7.)) ;
#357=CARTESIAN_POINT('Vertex',(3.,-1.42108547152E-014,7.)) ;
#360=CARTESIAN_POINT('Line Origine',(3.,10.,7.)) ;
#365=CARTESIAN_POINT('Line Origine',(-4.5,10.,7.)) ;
#369=CARTESIAN_POINT('Vertex',(-3.,10.,7.)) ;
#372=CARTESIAN_POINT('Line Origine',(-3.,0.,7.)) ;
#376=CARTESIAN_POINT('Vertex',(-3.,-10.,7.)) ;
#379=CARTESIAN_POINT('Line Origine',(-4.5,-10.,7.)) ;
#396=CARTESIAN_POINT('Axis2P3D Location',(-6.,0.,0.)) ;
#401=CARTESIAN_POINT('Axis2P3D Location',(-6.,10.,0.)) ;
#405=CARTESIAN_POINT('Vertex',(-9.,10.,-7.34763812293E-016)) ;
#407=CARTESIAN_POINT('Vertex',(-3.,10.,3.67381906147E-016)) ;
#410=CARTESIAN_POINT('Line Origine',(-3.,0.,3.67381906147E-016)) ;
#415=CARTESIAN_POINT('Line Origine',(-9.,0.,-7.34763812293E-016)) ;
#427=CARTESIAN_POINT('Axis2P3D Location',(-6.,-10.,0.)) ;
#431=CARTESIAN_POINT('Vertex',(-9.,-10.,-7.34763812293E-016)) ;
#433=CARTESIAN_POINT('Vertex',(-3.,-10.,3.67381906147E-016)) ;
#436=CARTESIAN_POINT('Line Origine',(-9.,0.,-7.34763812293E-016)) ;
#441=CARTESIAN_POINT('Line Origine',(-3.,0.,3.67381906147E-016)) ;
#453=CARTESIAN_POINT('Axis2P3D Location',(-6.,0.,0.)) ;
#458=CARTESIAN_POINT('Axis2P3D Location',(-6.,10.,0.)) ;
#470=CARTESIAN_POINT('Axis2P3D Location',(-6.,-10.,0.)) ;
#482=CARTESIAN_POINT('Axis2P3D Location',(-3.,10.,-1.69712383998E-015)) ;
#487=CARTESIAN_POINT('Line Origine',(-3.,10.,3.5)) ;
#492=CARTESIAN_POINT('Line Origine',(-11.,10.,-1.69712383998E-015)) ;
#505=CARTESIAN_POINT('Axis2P3D Location',(-3.,-10.,-1.69712383998E-015)) ;
#510=CARTESIAN_POINT('Line Origine',(-11.,-10.,-1.69712383998E-015)) ;
#515=CARTESIAN_POINT('Line Origine',(-3.,-10.,3.5)) ;
#528=CARTESIAN_POINT('Line Origine',(-3.,10.,-3.5)) ;
#541=CARTESIAN_POINT('Line Origine',(-3.,-10.,-3.5)) ;
#554=CARTESIAN_POINT('Axis2P3D Location',(-3.,0.,0.)) ;
#567=CARTESIAN_POINT('Axis2P3D Location',(-3.,4.4408920985E-016,4.4408920985E-016)) ;
#571=CARTESIAN_POINT('Vertex',(-3.,-2.5,3.06151588456E-016)) ;
#573=CARTESIAN_POINT('Vertex',(-3.,2.5,0.)) ;
#576=CARTESIAN_POINT('Axis2P3D Location',(-3.,-2.22044604925E-016,-6.66133814775E-016)) ;
#586=CARTESIAN_POINT('Axis2P3D Location',(3.,0.,0.)) ;
#601=CARTESIAN_POINT('Axis2P3D Location',(3.,0.,0.)) ;
#605=CARTESIAN_POINT('Vertex',(3.,2.5,0.)) ;
#607=CARTESIAN_POINT('Vertex',(3.,-2.5,3.06151588456E-016)) ;
#610=CARTESIAN_POINT('Axis2P3D Location',(3.,0.,0.)) ;
#620=CARTESIAN_POINT('Axis2P3D Location',(-17.,0.,0.)) ;
#625=CARTESIAN_POINT('Line Origine',(-17.,-2.5,3.06151588456E-016)) ;
#630=CARTESIAN_POINT('Line Origine',(-17.,2.5,-6.12303176911E-016)) ;
#53=DIRECTION('Axis2P3D Direction',(0.,1.,0.)) ;
#54=DIRECTION('Axis2P3D XDirection',(0.,0.,1.)) ;
#58=DIRECTION('Vector Direction',(-1.,0.,0.)) ;
#67=DIRECTION('Vector Direction',(0.,0.,1.)) ;
#74=DIRECTION('Vector Direction',(0.,0.,-1.)) ;
#81=DIRECTION('Vector Direction',(-1.,0.,0.)) ;
#88=DIRECTION('Axis2P3D Direction',(0.,1.,0.)) ;
#95=DIRECTION('Axis2P3D Direction',(0.,1.,0.)) ;
#108=DIRECTION('Axis2P3D Direction',(0.,1.,0.)) ;
#117=DIRECTION('Axis2P3D Direction',(0.,1.,0.)) ;
#127=DIRECTION('Axis2P3D Direction',(0.,1.,0.)) ;
#128=DIRECTION('Axis2P3D XDirection',(0.,0.,1.)) ;
#132=DIRECTION('Axis2P3D Direction',(0.,1.,0.)) ;
#141=DIRECTION('Axis2P3D Direction',(0.,1.,0.)) ;
#148=DIRECTION('Vector Direction',(-1.,0.,0.)) ;
#155=DIRECTION('Vector Direction',(0.,0.,-1.)) ;
#162=DIRECTION('Vector Direction',(0.,0.,1.)) ;
#169=DIRECTION('Vector Direction',(1.,0.,0.)) ;
#182=DIRECTION('Axis2P3D Direction',(0.,1.,0.)) ;
#191=DIRECTION('Axis2P3D Direction',(0.,1.,0.)) ;
#201=DIRECTION('Axis2P3D Direction',(0.,1.,0.)) ;
#202=DIRECTION('Axis2P3D XDirection',(-1.,0.,0.)) ;
#206=DIRECTION('Vector Direction',(0.,1.,0.)) ;
#213=DIRECTION('Vector Direction',(0.,1.,0.)) ;
#220=DIRECTION('Axis2P3D Direction',(0.,1.,0.)) ;
#232=DIRECTION('Vector Direction',(0.,1.,0.)) ;
#239=DIRECTION('Vector Direction',(0.,1.,0.)) ;
#246=DIRECTION('Axis2P3D Direction',(0.,1.,0.)) ;
#258=DIRECTION('Axis2P3D Direction',(0.,1.,0.)) ;
#259=DIRECTION('Axis2P3D XDirection',(1.83690953073E-016,0.,-1.)) ;
#263=DIRECTION('Vector Direction',(0.,1.,0.)) ;
#270=DIRECTION('Axis2P3D Direction',(0.,1.,0.)) ;
#282=DIRECTION('Vector Direction',(0.,1.,0.)) ;
#289=DIRECTION('Axis2P3D Direction',(0.,1.,0.)) ;
#301=DIRECTION('Axis2P3D Direction',(0.,0.,-1.)) ;
#302=DIRECTION('Axis2P3D XDirection',(0.,1.,0.)) ;
#306=DIRECTION('Vector Direction',(0.,-1.,0.)) ;
#313=DIRECTION('Vector Direction',(0.,1.,0.)) ;
#318=DIRECTION('Vector Direction',(1.,0.,0.)) ;
#325=DIRECTION('Vector Direction',(0.,-1.,0.)) ;
#332=DIRECTION('Vector Direction',(1.,0.,0.)) ;
#349=DIRECTION('Axis2P3D Direction',(0.,0.,1.)) ;
#350=DIRECTION('Axis2P3D XDirection',(0.,-1.,0.)) ;
#354=DIRECTION('Vector Direction',(0.,1.,0.)) ;
#361=DIRECTION('Vector Direction',(0.,-1.,0.)) ;
#366=DIRECTION('Vector Direction',(1.,0.,0.)) ;
#373=DIRECTION('Vector Direction',(0.,-1.,0.)) ;
#380=DIRECTION('Vector Direction',(1.,0.,0.)) ;
#397=DIRECTION('Axis2P3D Direction',(0.,1.,0.)) ;
#398=DIRECTION('Axis2P3D XDirection',(1.,0.,1.22460635382E-016)) ;
#402=DIRECTION('Axis2P3D Direction',(0.,1.,0.)) ;
#411=DIRECTION('Vector Direction',(0.,1.,0.)) ;
#416=DIRECTION('Vector Direction',(0.,1.,0.)) ;
#428=DIRECTION('Axis2P3D Direction',(0.,1.,0.)) ;
#437=DIRECTION('Vector Direction',(0.,1.,0.)) ;
#442=DIRECTION('Vector Direction',(0.,1.,0.)) ;
#454=DIRECTION('Axis2P3D Direction',(0.,1.,0.)) ;
#455=DIRECTION('Axis2P3D XDirection',(-1.,0.,0.)) ;
#459=DIRECTION('Axis2P3D Direction',(0.,1.,0.)) ;
#471=DIRECTION('Axis2P3D Direction',(0.,1.,0.)) ;
#483=DIRECTION('Axis2P3D Direction',(0.,-1.,0.)) ;
#484=DIRECTION('Axis2P3D XDirection',(0.,0.,1.)) ;
#488=DIRECTION('Vector Direction',(0.,0.,1.)) ;
#493=DIRECTION('Vector Direction',(-1.,0.,0.)) ;
#506=DIRECTION('Axis2P3D Direction',(0.,-1.,0.)) ;
#507=DIRECTION('Axis2P3D XDirection',(0.,0.,1.)) ;
#511=DIRECTION('Vector Direction',(-1.,0.,0.)) ;
#516=DIRECTION('Vector Direction',(0.,0.,1.)) ;
#529=DIRECTION('Vector Direction',(0.,0.,-1.)) ;
#542=DIRECTION('Vector Direction',(0.,0.,-1.)) ;
#555=DIRECTION('Axis2P3D Direction',(-1.,0.,0.)) ;
#556=DIRECTION('Axis2P3D XDirection',(0.,-1.,0.)) ;
#568=DIRECTION('Axis2P3D Direction',(-1.,0.,0.)) ;
#577=DIRECTION('Axis2P3D Direction',(-1.,0.,0.)) ;
#587=DIRECTION('Axis2P3D Direction',(1.,0.,0.)) ;
#588=DIRECTION('Axis2P3D XDirection',(0.,1.,0.)) ;
#602=DIRECTION('Axis2P3D Direction',(1.,0.,0.)) ;
#611=DIRECTION('Axis2P3D Direction',(1.,0.,0.)) ;
#621=DIRECTION('Axis2P3D Direction',(1.,0.,0.)) ;
#622=DIRECTION('Axis2P3D XDirection',(0.,1.,0.)) ;
#626=DIRECTION('Vector Direction',(1.,0.,0.)) ;
#631=DIRECTION('Vector Direction',(1.,0.,0.)) ;
#48=AXIS2_PLACEMENT_3D(' ',#47,$,$) ;
#55=AXIS2_PLACEMENT_3D('Plane Axis2P3D',#52,#53,#54) ;
#89=AXIS2_PLACEMENT_3D('Circle Axis2P3D',#87,#88,$) ;
#96=AXIS2_PLACEMENT_3D('Circle Axis2P3D',#94,#95,$) ;
#109=AXIS2_PLACEMENT_3D('Circle Axis2P3D',#107,#108,$) ;
#118=AXIS2_PLACEMENT_3D('Circle Axis2P3D',#116,#117,$) ;
#129=AXIS2_PLACEMENT_3D('Plane Axis2P3D',#126,#127,#128) ;
#133=AXIS2_PLACEMENT_3D('Circle Axis2P3D',#131,#132,$) ;
#142=AXIS2_PLACEMENT_3D('Circle Axis2P3D',#140,#141,$) ;
#183=AXIS2_PLACEMENT_3D('Circle Axis2P3D',#181,#182,$) ;
#192=AXIS2_PLACEMENT_3D('Circle Axis2P3D',#190,#191,$) ;
#203=AXIS2_PLACEMENT_3D('Cylinder Axis2P3D',#200,#201,#202) ;
#221=AXIS2_PLACEMENT_3D('Circle Axis2P3D',#219,#220,$) ;
#247=AXIS2_PLACEMENT_3D('Circle Axis2P3D',#245,#246,$) ;
#260=AXIS2_PLACEMENT_3D('Cylinder Axis2P3D',#257,#258,#259) ;
#271=AXIS2_PLACEMENT_3D('Circle Axis2P3D',#269,#270,$) ;
#290=AXIS2_PLACEMENT_3D('Circle Axis2P3D',#288,#289,$) ;
#303=AXIS2_PLACEMENT_3D('Plane Axis2P3D',#300,#301,#302) ;
#351=AXIS2_PLACEMENT_3D('Plane Axis2P3D',#348,#349,#350) ;
#399=AXIS2_PLACEMENT_3D('Cylinder Axis2P3D',#396,#397,#398) ;
#403=AXIS2_PLACEMENT_3D('Circle Axis2P3D',#401,#402,$) ;
#429=AXIS2_PLACEMENT_3D('Circle Axis2P3D',#427,#428,$) ;
#456=AXIS2_PLACEMENT_3D('Cylinder Axis2P3D',#453,#454,#455) ;
#460=AXIS2_PLACEMENT_3D('Circle Axis2P3D',#458,#459,$) ;
#472=AXIS2_PLACEMENT_3D('Circle Axis2P3D',#470,#471,$) ;
#485=AXIS2_PLACEMENT_3D('Plane Axis2P3D',#482,#483,#484) ;
#508=AXIS2_PLACEMENT_3D('Plane Axis2P3D',#505,#506,#507) ;
#557=AXIS2_PLACEMENT_3D('Plane Axis2P3D',#554,#555,#556) ;
#569=AXIS2_PLACEMENT_3D('Circle Axis2P3D',#567,#568,$) ;
#578=AXIS2_PLACEMENT_3D('Circle Axis2P3D',#576,#577,$) ;
#589=AXIS2_PLACEMENT_3D('Plane Axis2P3D',#586,#587,#588) ;
#603=AXIS2_PLACEMENT_3D('Circle Axis2P3D',#601,#602,$) ;
#612=AXIS2_PLACEMENT_3D('Circle Axis2P3D',#610,#611,$) ;
#623=AXIS2_PLACEMENT_3D('Cylinder Axis2P3D',#620,#621,#622) ;
#40=PRODUCT_DEFINITION_SHAPE(' ',' ',#14) ;
#31=APPROVAL_PERSON_ORGANIZATION(#25,#21,#19) ;
#25=PERSON_AND_ORGANIZATION(#22,#23) ;
#22=PERSON(' ',' ',' ',$,$,$) ;
#23=ORGANIZATION(' ',' ',' ') ;
#21=APPROVAL(#20,' ') ;
#20=APPROVAL_STATUS('not_yet_approved') ;
#19=APPROVAL_ROLE('APPROVER') ;
#13=DATE_AND_TIME(#11,#12) ;
#12=LOCAL_TIME(11,19,1.,#10) ;
#10=COORDINATED_UNIVERSAL_TIME_OFFSET(0,0,.AHEAD.) ;
#100=ORIENTED_EDGE('',*,*,#65,.T.) ;
#101=ORIENTED_EDGE('',*,*,#72,.F.) ;
#102=ORIENTED_EDGE('',*,*,#79,.F.) ;
#103=ORIENTED_EDGE('',*,*,#86,.T.) ;
#104=ORIENTED_EDGE('',*,*,#93,.T.) ;
#105=ORIENTED_EDGE('',*,*,#98,.T.) ;
#122=ORIENTED_EDGE('',*,*,#115,.F.) ;
#123=ORIENTED_EDGE('',*,*,#120,.F.) ;
#174=ORIENTED_EDGE('',*,*,#139,.F.) ;
#175=ORIENTED_EDGE('',*,*,#146,.F.) ;
#176=ORIENTED_EDGE('',*,*,#153,.F.) ;
#177=ORIENTED_EDGE('',*,*,#160,.F.) ;
#178=ORIENTED_EDGE('',*,*,#167,.F.) ;
#179=ORIENTED_EDGE('',*,*,#172,.F.) ;
#196=ORIENTED_EDGE('',*,*,#189,.T.) ;
#197=ORIENTED_EDGE('',*,*,#194,.T.) ;
#225=ORIENTED_EDGE('',*,*,#211,.F.) ;
#226=ORIENTED_EDGE('',*,*,#98,.F.) ;
#227=ORIENTED_EDGE('',*,*,#218,.T.) ;
#228=ORIENTED_EDGE('',*,*,#223,.F.) ;
#251=ORIENTED_EDGE('',*,*,#237,.T.) ;
#252=ORIENTED_EDGE('',*,*,#139,.T.) ;
#253=ORIENTED_EDGE('',*,*,#244,.F.) ;
#254=ORIENTED_EDGE('',*,*,#249,.T.) ;
#275=ORIENTED_EDGE('',*,*,#218,.F.) ;
#276=ORIENTED_EDGE('',*,*,#93,.F.) ;
#277=ORIENTED_EDGE('',*,*,#268,.T.) ;
#278=ORIENTED_EDGE('',*,*,#273,.F.) ;
#294=ORIENTED_EDGE('',*,*,#287,.T.) ;
#295=ORIENTED_EDGE('',*,*,#146,.T.) ;
#296=ORIENTED_EDGE('',*,*,#237,.F.) ;
#297=ORIENTED_EDGE('',*,*,#292,.T.) ;
#337=ORIENTED_EDGE('',*,*,#268,.F.) ;
#338=ORIENTED_EDGE('',*,*,#86,.F.) ;
#339=ORIENTED_EDGE('',*,*,#311,.F.) ;
#340=ORIENTED_EDGE('',*,*,#316,.F.) ;
#341=ORIENTED_EDGE('',*,*,#153,.T.) ;
#342=ORIENTED_EDGE('',*,*,#287,.F.) ;
#343=ORIENTED_EDGE('',*,*,#323,.T.) ;
#344=ORIENTED_EDGE('',*,*,#330,.F.) ;
#345=ORIENTED_EDGE('',*,*,#335,.F.) ;
#385=ORIENTED_EDGE('',*,*,#244,.T.) ;
#386=ORIENTED_EDGE('',*,*,#172,.T.) ;
#387=ORIENTED_EDGE('',*,*,#359,.F.) ;
#388=ORIENTED_EDGE('',*,*,#364,.F.) ;
#389=ORIENTED_EDGE('',*,*,#65,.F.) ;
#390=ORIENTED_EDGE('',*,*,#211,.T.) ;
#391=ORIENTED_EDGE('',*,*,#371,.T.) ;
#392=ORIENTED_EDGE('',*,*,#378,.T.) ;
#393=ORIENTED_EDGE('',*,*,#383,.F.) ;
#421=ORIENTED_EDGE('',*,*,#409,.T.) ;
#422=ORIENTED_EDGE('',*,*,#414,.F.) ;
#423=ORIENTED_EDGE('',*,*,#115,.T.) ;
#424=ORIENTED_EDGE('',*,*,#419,.T.) ;
#447=ORIENTED_EDGE('',*,*,#435,.F.) ;
#448=ORIENTED_EDGE('',*,*,#440,.T.) ;
#449=ORIENTED_EDGE('',*,*,#194,.F.) ;
#450=ORIENTED_EDGE('',*,*,#445,.F.) ;
#464=ORIENTED_EDGE('',*,*,#462,.T.) ;
#465=ORIENTED_EDGE('',*,*,#419,.F.) ;
#466=ORIENTED_EDGE('',*,*,#120,.T.) ;
#467=ORIENTED_EDGE('',*,*,#414,.T.) ;
#476=ORIENTED_EDGE('',*,*,#474,.F.) ;
#477=ORIENTED_EDGE('',*,*,#445,.T.) ;
#478=ORIENTED_EDGE('',*,*,#189,.F.) ;
#479=ORIENTED_EDGE('',*,*,#440,.F.) ;
#498=ORIENTED_EDGE('',*,*,#462,.F.) ;
#499=ORIENTED_EDGE('',*,*,#491,.F.) ;
#500=ORIENTED_EDGE('',*,*,#371,.F.) ;
#501=ORIENTED_EDGE('',*,*,#223,.T.) ;
#502=ORIENTED_EDGE('',*,*,#496,.F.) ;
#521=ORIENTED_EDGE('',*,*,#514,.T.) ;
#522=ORIENTED_EDGE('',*,*,#249,.F.) ;
#523=ORIENTED_EDGE('',*,*,#383,.T.) ;
#524=ORIENTED_EDGE('',*,*,#519,.F.) ;
#525=ORIENTED_EDGE('',*,*,#474,.T.) ;
#534=ORIENTED_EDGE('',*,*,#409,.F.) ;
#535=ORIENTED_EDGE('',*,*,#496,.T.) ;
#536=ORIENTED_EDGE('',*,*,#273,.T.) ;
#537=ORIENTED_EDGE('',*,*,#335,.T.) ;
#538=ORIENTED_EDGE('',*,*,#532,.F.) ;
#547=ORIENTED_EDGE('',*,*,#545,.F.) ;
#548=ORIENTED_EDGE('',*,*,#323,.F.) ;
#549=ORIENTED_EDGE('',*,*,#292,.F.) ;
#550=ORIENTED_EDGE('',*,*,#514,.F.) ;
#551=ORIENTED_EDGE('',*,*,#435,.T.) ;
#560=ORIENTED_EDGE('',*,*,#378,.F.) ;
#561=ORIENTED_EDGE('',*,*,#491,.T.) ;
#562=ORIENTED_EDGE('',*,*,#532,.T.) ;
#563=ORIENTED_EDGE('',*,*,#330,.T.) ;
#564=ORIENTED_EDGE('',*,*,#545,.T.) ;
#565=ORIENTED_EDGE('',*,*,#519,.T.) ;
#582=ORIENTED_EDGE('',*,*,#575,.F.) ;
#583=ORIENTED_EDGE('',*,*,#580,.F.) ;
#592=ORIENTED_EDGE('',*,*,#72,.T.) ;
#593=ORIENTED_EDGE('',*,*,#364,.T.) ;
#594=ORIENTED_EDGE('',*,*,#359,.T.) ;
#595=ORIENTED_EDGE('',*,*,#167,.T.) ;
#596=ORIENTED_EDGE('',*,*,#160,.T.) ;
#597=ORIENTED_EDGE('',*,*,#316,.T.) ;
#598=ORIENTED_EDGE('',*,*,#311,.T.) ;
#599=ORIENTED_EDGE('',*,*,#79,.T.) ;
#616=ORIENTED_EDGE('',*,*,#609,.F.) ;
#617=ORIENTED_EDGE('',*,*,#614,.F.) ;
#636=ORIENTED_EDGE('',*,*,#580,.T.) ;
#637=ORIENTED_EDGE('',*,*,#629,.F.) ;
#638=ORIENTED_EDGE('',*,*,#614,.T.) ;
#639=ORIENTED_EDGE('',*,*,#634,.T.) ;
#643=ORIENTED_EDGE('',*,*,#575,.T.) ;
#644=ORIENTED_EDGE('',*,*,#634,.F.) ;
#645=ORIENTED_EDGE('',*,*,#609,.T.) ;
#646=ORIENTED_EDGE('',*,*,#629,.T.) ;
#124=FACE_BOUND('',#121,.T.) ;
#198=FACE_BOUND('',#195,.T.) ;
#584=FACE_BOUND('',#581,.T.) ;
#618=FACE_BOUND('',#615,.T.) ;
#51=CLOSED_SHELL('Closed Shell',(#125,#199,#230,#256,#280,#299,#347,#395,#426,#452,#469,#481,#504,#527,#540,#553,#585,#619,#641,#648)) ;
#59=VECTOR('Line Direction',#58,1.) ;
#68=VECTOR('Line Direction',#67,1.) ;
#75=VECTOR('Line Direction',#74,1.) ;
#82=VECTOR('Line Direction',#81,1.) ;
#149=VECTOR('Line Direction',#148,1.) ;
#156=VECTOR('Line Direction',#155,1.) ;
#163=VECTOR('Line Direction',#162,1.) ;
#170=VECTOR('Line Direction',#169,1.) ;
#207=VECTOR('Line Direction',#206,1.) ;
#214=VECTOR('Line Direction',#213,1.) ;
#233=VECTOR('Line Direction',#232,1.) ;
#240=VECTOR('Line Direction',#239,1.) ;
#264=VECTOR('Line Direction',#263,1.) ;
#283=VECTOR('Line Direction',#282,1.) ;
#307=VECTOR('Line Direction',#306,1.) ;
#314=VECTOR('Line Direction',#313,1.) ;
#319=VECTOR('Line Direction',#318,1.) ;
#326=VECTOR('Line Direction',#325,1.) ;
#333=VECTOR('Line Direction',#332,1.) ;
#355=VECTOR('Line Direction',#354,1.) ;
#362=VECTOR('Line Direction',#361,1.) ;
#367=VECTOR('Line Direction',#366,1.) ;
#374=VECTOR('Line Direction',#373,1.) ;
#381=VECTOR('Line Direction',#380,1.) ;
#412=VECTOR('Line Direction',#411,1.) ;
#417=VECTOR('Line Direction',#416,1.) ;
#438=VECTOR('Line Direction',#437,1.) ;
#443=VECTOR('Line Direction',#442,1.) ;
#489=VECTOR('Line Direction',#488,1.) ;
#494=VECTOR('Line Direction',#493,1.) ;
#512=VECTOR('Line Direction',#511,1.) ;
#517=VECTOR('Line Direction',#516,1.) ;
#530=VECTOR('Line Direction',#529,1.) ;
#543=VECTOR('Line Direction',#542,1.) ;
#627=VECTOR('Line Direction',#626,1.) ;
#632=VECTOR('Line Direction',#631,1.) ;
#650=ADVANCED_BREP_SHAPE_REPRESENTATION('NONE',(#649),#46) ;
#49=SHAPE_REPRESENTATION(' ',(#48),#46) ;
#125=ADVANCED_FACE('',(#106,#124),#56,.T.) ;
#199=ADVANCED_FACE('',(#180,#198),#130,.F.) ;
#230=ADVANCED_FACE('',(#229),#204,.T.) ;
#256=ADVANCED_FACE('',(#255),#204,.T.) ;
#280=ADVANCED_FACE('',(#279),#261,.T.) ;
#299=ADVANCED_FACE('',(#298),#261,.T.) ;
#347=ADVANCED_FACE('',(#346),#304,.T.) ;
#395=ADVANCED_FACE('',(#394),#352,.T.) ;
#426=ADVANCED_FACE('',(#425),#400,.F.) ;
#452=ADVANCED_FACE('',(#451),#400,.F.) ;
#469=ADVANCED_FACE('',(#468),#457,.F.) ;
#481=ADVANCED_FACE('',(#480),#457,.F.) ;
#504=ADVANCED_FACE('',(#503),#486,.T.) ;
#527=ADVANCED_FACE('',(#526),#509,.F.) ;
#540=ADVANCED_FACE('',(#539),#486,.T.) ;
#553=ADVANCED_FACE('',(#552),#509,.F.) ;
#585=ADVANCED_FACE('',(#566,#584),#558,.T.) ;
#619=ADVANCED_FACE('',(#600,#618),#590,.T.) ;
#641=ADVANCED_FACE('',(#640),#624,.F.) ;
#648=ADVANCED_FACE('',(#647),#624,.F.) ;
#4=APPLICATION_PROTOCOL_DEFINITION('international standard','config_control_design',1994,#1) ;
#32=APPROVAL_DATE_TIME(#13,#21) ;
#649=MANIFOLD_SOLID_BREP('Corps principal',#51) ;
#11=CALENDAR_DATE(2018,1,6) ;
#30=CC_DESIGN_APPROVAL(#21,(#16,#6,#14)) ;
#18=CC_DESIGN_DATE_AND_TIME_ASSIGNMENT(#13,#17,(#16)) ;
#29=CC_DESIGN_DATE_AND_TIME_ASSIGNMENT(#13,#28,(#14)) ;
#17=DATE_TIME_ROLE('classification_date') ;
#28=DATE_TIME_ROLE('creation_date') ;
#27=CC_DESIGN_PERSON_AND_ORGANIZATION_ASSIGNMENT(#25,#26,(#16)) ;
#33=CC_DESIGN_PERSON_AND_ORGANIZATION_ASSIGNMENT(#25,#34,(#6)) ;
#35=CC_DESIGN_PERSON_AND_ORGANIZATION_ASSIGNMENT(#25,#36,(#6,#14)) ;
#37=CC_DESIGN_PERSON_AND_ORGANIZATION_ASSIGNMENT(#25,#38,(#5)) ;
#26=PERSON_AND_ORGANIZATION_ROLE('classification_officer') ;
#34=PERSON_AND_ORGANIZATION_ROLE('design_supplier') ;
#36=PERSON_AND_ORGANIZATION_ROLE('creator') ;
#38=PERSON_AND_ORGANIZATION_ROLE('design_owner') ;
#39=CC_DESIGN_SECURITY_CLASSIFICATION(#16,(#6)) ;
#90=CIRCLE('generated circle',#89,7.) ;
#97=CIRCLE('generated circle',#96,7.) ;
#110=CIRCLE('generated circle',#109,3.) ;
#119=CIRCLE('generated circle',#118,3.) ;
#134=CIRCLE('generated circle',#133,7.) ;
#143=CIRCLE('generated circle',#142,7.) ;
#184=CIRCLE('generated circle',#183,3.) ;
#193=CIRCLE('generated circle',#192,3.) ;
#222=CIRCLE('generated circle',#221,7.) ;
#248=CIRCLE('generated circle',#247,7.) ;
#272=CIRCLE('generated circle',#271,7.) ;
#291=CIRCLE('generated circle',#290,7.) ;
#404=CIRCLE('generated circle',#403,3.) ;
#430=CIRCLE('generated circle',#429,3.) ;
#461=CIRCLE('generated circle',#460,3.) ;
#473=CIRCLE('generated circle',#472,3.) ;
#570=CIRCLE('generated circle',#569,2.5) ;
#579=CIRCLE('generated circle',#578,2.5) ;
#604=CIRCLE('generated circle',#603,2.5) ;
#613=CIRCLE('generated circle',#612,2.5) ;
#651=SHAPE_REPRESENTATION_RELATIONSHIP(' ',' ',#49,#650) ;
#204=CYLINDRICAL_SURFACE('generated cylinder',#203,7.) ;
#261=CYLINDRICAL_SURFACE('generated cylinder',#260,7.) ;
#400=CYLINDRICAL_SURFACE('generated cylinder',#399,3.) ;
#457=CYLINDRICAL_SURFACE('generated cylinder',#456,3.) ;
#624=CYLINDRICAL_SURFACE('generated cylinder',#623,2.5) ;
#3=DESIGN_CONTEXT(' ',#1,'design') ;
#65=EDGE_CURVE('',#62,#64,#60,.F.) ;
#72=EDGE_CURVE('',#71,#64,#69,.T.) ;
#79=EDGE_CURVE('',#78,#71,#76,.F.) ;
#86=EDGE_CURVE('',#78,#85,#83,.T.) ;
#93=EDGE_CURVE('',#85,#92,#90,.T.) ;
#98=EDGE_CURVE('',#92,#62,#97,.T.) ;
#115=EDGE_CURVE('',#112,#114,#110,.T.) ;
#120=EDGE_CURVE('',#114,#112,#119,.T.) ;
#139=EDGE_CURVE('',#136,#138,#134,.T.) ;
#146=EDGE_CURVE('',#145,#136,#143,.T.) ;
#153=EDGE_CURVE('',#152,#145,#150,.T.) ;
#160=EDGE_CURVE('',#159,#152,#157,.T.) ;
#167=EDGE_CURVE('',#166,#159,#164,.F.) ;
#172=EDGE_CURVE('',#138,#166,#171,.T.) ;
#189=EDGE_CURVE('',#186,#188,#184,.T.) ;
#194=EDGE_CURVE('',#188,#186,#193,.T.) ;
#211=EDGE_CURVE('',#62,#210,#208,.F.) ;
#218=EDGE_CURVE('',#92,#217,#215,.F.) ;
#223=EDGE_CURVE('',#210,#217,#222,.F.) ;
#237=EDGE_CURVE('',#236,#136,#234,.F.) ;
#244=EDGE_CURVE('',#243,#138,#241,.F.) ;
#249=EDGE_CURVE('',#243,#236,#248,.F.) ;
#268=EDGE_CURVE('',#85,#267,#265,.F.) ;
#273=EDGE_CURVE('',#217,#267,#272,.F.) ;
#287=EDGE_CURVE('',#286,#145,#284,.F.) ;
#292=EDGE_CURVE('',#236,#286,#291,.F.) ;
#311=EDGE_CURVE('',#310,#78,#308,.F.) ;
#316=EDGE_CURVE('',#152,#310,#315,.T.) ;
#323=EDGE_CURVE('',#286,#322,#320,.T.) ;
#330=EDGE_CURVE('',#329,#322,#327,.T.) ;
#335=EDGE_CURVE('',#267,#329,#334,.T.) ;
#359=EDGE_CURVE('',#358,#166,#356,.F.) ;
#364=EDGE_CURVE('',#64,#358,#363,.T.) ;
#371=EDGE_CURVE('',#210,#370,#368,.T.) ;
#378=EDGE_CURVE('',#370,#377,#375,.T.) ;
#383=EDGE_CURVE('',#243,#377,#382,.T.) ;
#409=EDGE_CURVE('',#406,#408,#404,.F.) ;
#414=EDGE_CURVE('',#112,#408,#413,.F.) ;
#419=EDGE_CURVE('',#114,#406,#418,.F.) ;
#435=EDGE_CURVE('',#432,#434,#430,.F.) ;
#440=EDGE_CURVE('',#432,#186,#439,.F.) ;
#445=EDGE_CURVE('',#434,#188,#444,.F.) ;
#462=EDGE_CURVE('',#408,#406,#461,.F.) ;
#474=EDGE_CURVE('',#434,#432,#473,.F.) ;
#491=EDGE_CURVE('',#370,#408,#490,.F.) ;
#496=EDGE_CURVE('',#406,#217,#495,.T.) ;
#514=EDGE_CURVE('',#432,#236,#513,.T.) ;
#519=EDGE_CURVE('',#434,#377,#518,.T.) ;
#532=EDGE_CURVE('',#408,#329,#531,.T.) ;
#545=EDGE_CURVE('',#322,#434,#544,.F.) ;
#575=EDGE_CURVE('',#572,#574,#570,.T.) ;
#580=EDGE_CURVE('',#574,#572,#579,.T.) ;
#609=EDGE_CURVE('',#606,#608,#604,.T.) ;
#614=EDGE_CURVE('',#608,#606,#613,.T.) ;
#629=EDGE_CURVE('',#608,#572,#628,.F.) ;
#634=EDGE_CURVE('',#606,#574,#633,.F.) ;
#99=EDGE_LOOP('',(#100,#101,#102,#103,#104,#105)) ;
#121=EDGE_LOOP('',(#122,#123)) ;
#173=EDGE_LOOP('',(#174,#175,#176,#177,#178,#179)) ;
#195=EDGE_LOOP('',(#196,#197)) ;
#224=EDGE_LOOP('',(#225,#226,#227,#228)) ;
#250=EDGE_LOOP('',(#251,#252,#253,#254)) ;
#274=EDGE_LOOP('',(#275,#276,#277,#278)) ;
#293=EDGE_LOOP('',(#294,#295,#296,#297)) ;
#336=EDGE_LOOP('',(#337,#338,#339,#340,#341,#342,#343,#344,#345)) ;
#384=EDGE_LOOP('',(#385,#386,#387,#388,#389,#390,#391,#392,#393)) ;
#420=EDGE_LOOP('',(#421,#422,#423,#424)) ;
#446=EDGE_LOOP('',(#447,#448,#449,#450)) ;
#463=EDGE_LOOP('',(#464,#465,#466,#467)) ;
#475=EDGE_LOOP('',(#476,#477,#478,#479)) ;
#497=EDGE_LOOP('',(#498,#499,#500,#501,#502)) ;
#520=EDGE_LOOP('',(#521,#522,#523,#524,#525)) ;
#533=EDGE_LOOP('',(#534,#535,#536,#537,#538)) ;
#546=EDGE_LOOP('',(#547,#548,#549,#550,#551)) ;
#559=EDGE_LOOP('',(#560,#561,#562,#563,#564,#565)) ;
#581=EDGE_LOOP('',(#582,#583)) ;
#591=EDGE_LOOP('',(#592,#593,#594,#595,#596,#597,#598,#599)) ;
#615=EDGE_LOOP('',(#616,#617)) ;
#635=EDGE_LOOP('',(#636,#637,#638,#639)) ;
#642=EDGE_LOOP('',(#643,#644,#645,#646)) ;
#106=FACE_OUTER_BOUND('',#99,.T.) ;
#180=FACE_OUTER_BOUND('',#173,.T.) ;
#229=FACE_OUTER_BOUND('',#224,.T.) ;
#255=FACE_OUTER_BOUND('',#250,.T.) ;
#279=FACE_OUTER_BOUND('',#274,.T.) ;
#298=FACE_OUTER_BOUND('',#293,.T.) ;
#346=FACE_OUTER_BOUND('',#336,.T.) ;
#394=FACE_OUTER_BOUND('',#384,.T.) ;
#425=FACE_OUTER_BOUND('',#420,.T.) ;
#451=FACE_OUTER_BOUND('',#446,.T.) ;
#468=FACE_OUTER_BOUND('',#463,.T.) ;
#480=FACE_OUTER_BOUND('',#475,.T.) ;
#503=FACE_OUTER_BOUND('',#497,.T.) ;
#526=FACE_OUTER_BOUND('',#520,.T.) ;
#539=FACE_OUTER_BOUND('',#533,.T.) ;
#552=FACE_OUTER_BOUND('',#546,.T.) ;
#566=FACE_OUTER_BOUND('',#559,.T.) ;
#600=FACE_OUTER_BOUND('',#591,.T.) ;
#640=FACE_OUTER_BOUND('',#635,.T.) ;
#647=FACE_OUTER_BOUND('',#642,.T.) ;
#45=UNCERTAINTY_MEASURE_WITH_UNIT(LENGTH_MEASURE(0.005),#41,'distance_accuracy_value','CONFUSED CURVE UNCERTAINTY') ;
#60=LINE('Line',#57,#59) ;
#69=LINE('Line',#66,#68) ;
#76=LINE('Line',#73,#75) ;
#83=LINE('Line',#80,#82) ;
#150=LINE('Line',#147,#149) ;
#157=LINE('Line',#154,#156) ;
#164=LINE('Line',#161,#163) ;
#171=LINE('Line',#168,#170) ;
#208=LINE('Line',#205,#207) ;
#215=LINE('Line',#212,#214) ;
#234=LINE('Line',#231,#233) ;
#241=LINE('Line',#238,#240) ;
#265=LINE('Line',#262,#264) ;
#284=LINE('Line',#281,#283) ;
#308=LINE('Line',#305,#307) ;
#315=LINE('Line',#312,#314) ;
#320=LINE('Line',#317,#319) ;
#327=LINE('Line',#324,#326) ;
#334=LINE('Line',#331,#333) ;
#356=LINE('Line',#353,#355) ;
#363=LINE('Line',#360,#362) ;
#368=LINE('Line',#365,#367) ;
#375=LINE('Line',#372,#374) ;
#382=LINE('Line',#379,#381) ;
#413=LINE('Line',#410,#412) ;
#418=LINE('Line',#415,#417) ;
#439=LINE('Line',#436,#438) ;
#444=LINE('Line',#441,#443) ;
#490=LINE('Line',#487,#489) ;
#495=LINE('Line',#492,#494) ;
#513=LINE('Line',#510,#512) ;
#518=LINE('Line',#515,#517) ;
#531=LINE('Line',#528,#530) ;
#544=LINE('Line',#541,#543) ;
#628=LINE('Line',#625,#627) ;
#633=LINE('Line',#630,#632) ;
#2=MECHANICAL_CONTEXT(' ',#1,'mechanical') ;
#24=PERSONAL_ADDRESS(' ',' ',' ',' ',' ',' ',' ',' ',' ',' ',' ',' ',(#22),' ') ;
#56=PLANE('Plane',#55) ;
#130=PLANE('Plane',#129) ;
#304=PLANE('Plane',#303) ;
#352=PLANE('Plane',#351) ;
#486=PLANE('Plane',#485) ;
#509=PLANE('Plane',#508) ;
#558=PLANE('Plane',#557) ;
#590=PLANE('Plane',#589) ;
#43=PLANE_ANGLE_MEASURE_WITH_UNIT(PLANE_ANGLE_MEASURE(0.0174532925199),#42) ;
#7=PRODUCT_CATEGORY('part',$) ;
#9=PRODUCT_CATEGORY_RELATIONSHIP(' ',' ',#7,#8) ;
#6=PRODUCT_DEFINITION_FORMATION_WITH_SPECIFIED_SOURCE('',' ',#5,.NOT_KNOWN.) ;
#8=PRODUCT_RELATED_PRODUCT_CATEGORY('detail',$,(#5)) ;
#50=SHAPE_DEFINITION_REPRESENTATION(#40,#49) ;
#62=VERTEX_POINT('',#61) ;
#64=VERTEX_POINT('',#63) ;
#71=VERTEX_POINT('',#70) ;
#78=VERTEX_POINT('',#77) ;
#85=VERTEX_POINT('',#84) ;
#92=VERTEX_POINT('',#91) ;
#112=VERTEX_POINT('',#111) ;
#114=VERTEX_POINT('',#113) ;
#136=VERTEX_POINT('',#135) ;
#138=VERTEX_POINT('',#137) ;
#145=VERTEX_POINT('',#144) ;
#152=VERTEX_POINT('',#151) ;
#159=VERTEX_POINT('',#158) ;
#166=VERTEX_POINT('',#165) ;
#186=VERTEX_POINT('',#185) ;
#188=VERTEX_POINT('',#187) ;
#210=VERTEX_POINT('',#209) ;
#217=VERTEX_POINT('',#216) ;
#236=VERTEX_POINT('',#235) ;
#243=VERTEX_POINT('',#242) ;
#267=VERTEX_POINT('',#266) ;
#286=VERTEX_POINT('',#285) ;
#310=VERTEX_POINT('',#309) ;
#322=VERTEX_POINT('',#321) ;
#329=VERTEX_POINT('',#328) ;
#358=VERTEX_POINT('',#357) ;
#370=VERTEX_POINT('',#369) ;
#377=VERTEX_POINT('',#376) ;
#406=VERTEX_POINT('',#405) ;
#408=VERTEX_POINT('',#407) ;
#432=VERTEX_POINT('',#431) ;
#434=VERTEX_POINT('',#433) ;
#572=VERTEX_POINT('',#571) ;
#574=VERTEX_POINT('',#573) ;
#606=VERTEX_POINT('',#605) ;
#608=VERTEX_POINT('',#607) ;
#41=(LENGTH_UNIT()NAMED_UNIT(*)SI_UNIT(.MILLI.,.METRE.)) ;
#42=(NAMED_UNIT(*)PLANE_ANGLE_UNIT()SI_UNIT($,.RADIAN.)) ;
#44=(NAMED_UNIT(*)SI_UNIT($,.STERADIAN.)SOLID_ANGLE_UNIT()) ;
#46=(GEOMETRIC_REPRESENTATION_CONTEXT(3)GLOBAL_UNCERTAINTY_ASSIGNED_CONTEXT((#45))GLOBAL_UNIT_ASSIGNED_CONTEXT((#41,#42,#44))REPRESENTATION_CONTEXT(' ',' ')) ;
ENDSEC;
END-ISO-10303-21;
