ISO-10303-21;
HEADER;
/* Generated by software containing ST-Developer
 * from STEP Tools, Inc. (www.steptools.com) 
 */

FILE_DESCRIPTION(
/* description */ (''),
/* implementation_level */ '2;1');

FILE_NAME(
/* name */ 
'F:\\_tmp\\adc\\inventor_projects\\shifter-shaft\\shifterShaft_long_M1
0.stp',
/* time_stamp */ '2018-05-04T14:25:39+02:00',
/* author */ ('poum'),
/* organization */ (''),
/* preprocessor_version */ 'ST-DEVELOPER v16.5',
/* originating_system */ 'Autodesk Inventor 2017',
/* authorisation */ '');

FILE_SCHEMA (('AUTOMOTIVE_DESIGN { 1 0 10303 214 3 1 1 }'));
ENDSEC;

DATA;
#10=MECHANICAL_DESIGN_GEOMETRIC_PRESENTATION_REPRESENTATION('',(#214,#220,
#217,#225,#219,#223,#224,#222,#221,#218,#216,#215,#230,#228,#226,#229,#227),
#535);
#11=SHAPE_REPRESENTATION_RELATIONSHIP('SRR','None',#544,#12);
#12=ADVANCED_BREP_SHAPE_REPRESENTATION('',(#13),#534);
#13=MANIFOLD_SOLID_BREP('Solid1',#249);
#14=LINE('',#472,#16);
#15=LINE('',#525,#17);
#16=VECTOR('',#341,10.);
#17=VECTOR('',#352,10.);
#18=B_SPLINE_CURVE_WITH_KNOTS('',3,(#393,#394,#395,#396,#397,#398,#399,
#400,#401,#402,#403,#404,#405,#406,#407,#408,#409,#410,#411,#412,#413,#414,
#415,#416,#417,#418,#419,#420,#421,#422,#423,#424,#425,#426),
 .UNSPECIFIED.,.T.,.F.,(4,2,2,2,2,2,2,2,2,2,2,2,2,2,2,2,4),(0.,0.114717111972579,
0.229434223945158,0.343994494824596,0.458554765704035,0.573115036583473,
0.687675307462912,0.802392419435491,0.91710953140807,1.03182664338065,1.14654375535323,
1.26110402623267,1.3756642971121,1.49022456799154,1.60478483887098,1.71950195084356,
1.83421906281614),.UNSPECIFIED.);
#19=B_SPLINE_CURVE_WITH_KNOTS('',3,(#428,#429,#430,#431,#432,#433,#434,
#435,#436,#437,#438,#439,#440,#441,#442,#443,#444,#445,#446,#447,#448,#449,
#450,#451,#452,#453,#454,#455,#456,#457,#458,#459,#460,#461),
 .UNSPECIFIED.,.T.,.F.,(4,2,2,2,2,2,2,2,2,2,2,2,2,2,2,2,4),(0.,0.114717111972579,
0.229434223945157,0.343994494824596,0.458554765704034,0.573115036583472,
0.68767530746291,0.802392419435489,0.917109531408068,1.03182664338065,1.14654375535323,
1.26110402623266,1.3756642971121,1.49022456799154,1.60478483887098,1.71950195084356,
1.83421906281614),.UNSPECIFIED.);
#20=B_SPLINE_CURVE_WITH_KNOTS('',3,(#478,#479,#480,#481,#482,#483,#484,
#485,#486,#487,#488,#489,#490,#491,#492,#493,#494,#495,#496,#497,#498,#499),
 .UNSPECIFIED.,.F.,.F.,(4,2,2,2,2,2,2,2,2,2,4),(0.,0.0644321202911706,0.128864240582341,
0.257728481164683,0.378673246329068,0.499618011493454,0.620562776657839,
0.741507541822225,0.870371782404566,0.934803902695737,0.999236022986908),
 .UNSPECIFIED.);
#21=B_SPLINE_CURVE_WITH_KNOTS('',3,(#502,#503,#504,#505,#506,#507,#508,
#509,#510,#511,#512,#513,#514,#515,#516,#517,#518,#519,#520,#521,#522,#523),
 .UNSPECIFIED.,.F.,.F.,(4,2,2,2,2,2,2,2,2,2,4),(-0.999236022986908,-0.934803902695737,
-0.870371782404566,-0.741507541822225,-0.620562776657839,-0.499618011493454,
-0.378673246329068,-0.257728481164682,-0.128864240582341,-0.0644321202911706,
0.),.UNSPECIFIED.);
#22=PLANE('',#262);
#23=PLANE('',#268);
#24=PLANE('',#275);
#25=PLANE('',#277);
#26=PLANE('',#280);
#27=PLANE('',#285);
#28=PLANE('',#290);
#29=CYLINDRICAL_SURFACE('',#260,5.);
#30=CYLINDRICAL_SURFACE('',#266,7.825);
#31=CYLINDRICAL_SURFACE('',#273,7.);
#32=CYLINDRICAL_SURFACE('',#279,3.75);
#33=CYLINDRICAL_SURFACE('',#282,3.4);
#34=CYLINDRICAL_SURFACE('',#286,3.);
#35=CYLINDRICAL_SURFACE('',#288,5.5);
#36=FACE_BOUND('',#73,.T.);
#37=FACE_BOUND('',#75,.T.);
#38=FACE_BOUND('',#78,.T.);
#39=FACE_BOUND('',#80,.T.);
#40=FACE_BOUND('',#82,.T.);
#41=FACE_BOUND('',#84,.T.);
#42=FACE_BOUND('',#86,.T.);
#43=FACE_BOUND('',#87,.T.);
#44=FACE_BOUND('',#88,.T.);
#45=FACE_BOUND('',#90,.T.);
#46=FACE_BOUND('',#92,.T.);
#47=FACE_BOUND('',#94,.T.);
#48=FACE_BOUND('',#97,.T.);
#49=FACE_BOUND('',#100,.T.);
#50=FACE_BOUND('',#101,.T.);
#51=FACE_BOUND('',#103,.T.);
#52=FACE_BOUND('',#105,.T.);
#53=FACE_BOUND('',#107,.T.);
#54=FACE_OUTER_BOUND('',#72,.T.);
#55=FACE_OUTER_BOUND('',#74,.T.);
#56=FACE_OUTER_BOUND('',#76,.T.);
#57=FACE_OUTER_BOUND('',#77,.T.);
#58=FACE_OUTER_BOUND('',#79,.T.);
#59=FACE_OUTER_BOUND('',#81,.T.);
#60=FACE_OUTER_BOUND('',#83,.T.);
#61=FACE_OUTER_BOUND('',#85,.T.);
#62=FACE_OUTER_BOUND('',#89,.T.);
#63=FACE_OUTER_BOUND('',#91,.T.);
#64=FACE_OUTER_BOUND('',#93,.T.);
#65=FACE_OUTER_BOUND('',#95,.T.);
#66=FACE_OUTER_BOUND('',#96,.T.);
#67=FACE_OUTER_BOUND('',#98,.T.);
#68=FACE_OUTER_BOUND('',#99,.T.);
#69=FACE_OUTER_BOUND('',#102,.T.);
#70=FACE_OUTER_BOUND('',#104,.T.);
#71=FACE_OUTER_BOUND('',#106,.T.);
#72=EDGE_LOOP('',(#166));
#73=EDGE_LOOP('',(#167));
#74=EDGE_LOOP('',(#168));
#75=EDGE_LOOP('',(#169));
#76=EDGE_LOOP('',(#170));
#77=EDGE_LOOP('',(#171));
#78=EDGE_LOOP('',(#172));
#79=EDGE_LOOP('',(#173));
#80=EDGE_LOOP('',(#174));
#81=EDGE_LOOP('',(#175));
#82=EDGE_LOOP('',(#176));
#83=EDGE_LOOP('',(#177));
#84=EDGE_LOOP('',(#178));
#85=EDGE_LOOP('',(#179));
#86=EDGE_LOOP('',(#180));
#87=EDGE_LOOP('',(#181));
#88=EDGE_LOOP('',(#182));
#89=EDGE_LOOP('',(#183));
#90=EDGE_LOOP('',(#184));
#91=EDGE_LOOP('',(#185));
#92=EDGE_LOOP('',(#186));
#93=EDGE_LOOP('',(#187));
#94=EDGE_LOOP('',(#188));
#95=EDGE_LOOP('',(#189,#190));
#96=EDGE_LOOP('',(#191));
#97=EDGE_LOOP('',(#192,#193,#194,#195));
#98=EDGE_LOOP('',(#196,#197));
#99=EDGE_LOOP('',(#198));
#100=EDGE_LOOP('',(#199,#200,#201,#202));
#101=EDGE_LOOP('',(#203));
#102=EDGE_LOOP('',(#204));
#103=EDGE_LOOP('',(#205));
#104=EDGE_LOOP('',(#206));
#105=EDGE_LOOP('',(#207));
#106=EDGE_LOOP('',(#208));
#107=EDGE_LOOP('',(#209));
#108=CIRCLE('',#258,5.);
#109=CIRCLE('',#259,4.7);
#110=CIRCLE('',#261,5.);
#111=CIRCLE('',#264,7.825);
#112=CIRCLE('',#265,7.525);
#113=CIRCLE('',#267,7.825);
#114=CIRCLE('',#269,3.75);
#115=CIRCLE('',#271,6.7);
#116=CIRCLE('',#272,7.);
#117=CIRCLE('',#274,7.);
#118=CIRCLE('',#276,5.5);
#119=CIRCLE('',#278,3.75);
#120=CIRCLE('',#281,3.4);
#121=CIRCLE('',#283,3.4);
#122=CIRCLE('',#284,3.4);
#123=CIRCLE('',#289,5.5);
#124=VERTEX_POINT('',#365);
#125=VERTEX_POINT('',#367);
#126=VERTEX_POINT('',#370);
#127=VERTEX_POINT('',#374);
#128=VERTEX_POINT('',#376);
#129=VERTEX_POINT('',#379);
#130=VERTEX_POINT('',#382);
#131=VERTEX_POINT('',#385);
#132=VERTEX_POINT('',#387);
#133=VERTEX_POINT('',#390);
#134=VERTEX_POINT('',#392);
#135=VERTEX_POINT('',#427);
#136=VERTEX_POINT('',#463);
#137=VERTEX_POINT('',#466);
#138=VERTEX_POINT('',#470);
#139=VERTEX_POINT('',#471);
#140=VERTEX_POINT('',#475);
#141=VERTEX_POINT('',#477);
#142=VERTEX_POINT('',#500);
#143=VERTEX_POINT('',#529);
#144=EDGE_CURVE('',#124,#124,#108,.T.);
#145=EDGE_CURVE('',#125,#125,#109,.T.);
#146=EDGE_CURVE('',#126,#126,#110,.T.);
#147=EDGE_CURVE('',#127,#127,#111,.T.);
#148=EDGE_CURVE('',#128,#128,#112,.T.);
#149=EDGE_CURVE('',#129,#129,#113,.T.);
#150=EDGE_CURVE('',#130,#130,#114,.T.);
#151=EDGE_CURVE('',#131,#131,#115,.T.);
#152=EDGE_CURVE('',#132,#132,#116,.T.);
#153=EDGE_CURVE('',#133,#133,#117,.T.);
#154=EDGE_CURVE('',#134,#134,#18,.T.);
#155=EDGE_CURVE('',#135,#135,#19,.T.);
#156=EDGE_CURVE('',#136,#136,#118,.T.);
#157=EDGE_CURVE('',#137,#137,#119,.T.);
#158=EDGE_CURVE('',#138,#139,#14,.T.);
#159=EDGE_CURVE('',#139,#138,#120,.T.);
#160=EDGE_CURVE('',#140,#140,#121,.T.);
#161=EDGE_CURVE('',#141,#138,#20,.T.);
#162=EDGE_CURVE('',#141,#142,#122,.T.);
#163=EDGE_CURVE('',#139,#142,#21,.T.);
#164=EDGE_CURVE('',#142,#141,#15,.T.);
#165=EDGE_CURVE('',#143,#143,#123,.T.);
#166=ORIENTED_EDGE('',*,*,#144,.T.);
#167=ORIENTED_EDGE('',*,*,#145,.T.);
#168=ORIENTED_EDGE('',*,*,#146,.T.);
#169=ORIENTED_EDGE('',*,*,#144,.F.);
#170=ORIENTED_EDGE('',*,*,#145,.F.);
#171=ORIENTED_EDGE('',*,*,#147,.T.);
#172=ORIENTED_EDGE('',*,*,#148,.T.);
#173=ORIENTED_EDGE('',*,*,#149,.F.);
#174=ORIENTED_EDGE('',*,*,#147,.F.);
#175=ORIENTED_EDGE('',*,*,#148,.F.);
#176=ORIENTED_EDGE('',*,*,#150,.T.);
#177=ORIENTED_EDGE('',*,*,#151,.T.);
#178=ORIENTED_EDGE('',*,*,#152,.T.);
#179=ORIENTED_EDGE('',*,*,#153,.F.);
#180=ORIENTED_EDGE('',*,*,#154,.T.);
#181=ORIENTED_EDGE('',*,*,#155,.T.);
#182=ORIENTED_EDGE('',*,*,#152,.F.);
#183=ORIENTED_EDGE('',*,*,#151,.F.);
#184=ORIENTED_EDGE('',*,*,#156,.T.);
#185=ORIENTED_EDGE('',*,*,#146,.F.);
#186=ORIENTED_EDGE('',*,*,#157,.T.);
#187=ORIENTED_EDGE('',*,*,#150,.F.);
#188=ORIENTED_EDGE('',*,*,#157,.F.);
#189=ORIENTED_EDGE('',*,*,#158,.F.);
#190=ORIENTED_EDGE('',*,*,#159,.F.);
#191=ORIENTED_EDGE('',*,*,#160,.F.);
#192=ORIENTED_EDGE('',*,*,#161,.F.);
#193=ORIENTED_EDGE('',*,*,#162,.T.);
#194=ORIENTED_EDGE('',*,*,#163,.F.);
#195=ORIENTED_EDGE('',*,*,#159,.T.);
#196=ORIENTED_EDGE('',*,*,#164,.F.);
#197=ORIENTED_EDGE('',*,*,#162,.F.);
#198=ORIENTED_EDGE('',*,*,#155,.F.);
#199=ORIENTED_EDGE('',*,*,#163,.T.);
#200=ORIENTED_EDGE('',*,*,#164,.T.);
#201=ORIENTED_EDGE('',*,*,#161,.T.);
#202=ORIENTED_EDGE('',*,*,#158,.T.);
#203=ORIENTED_EDGE('',*,*,#154,.F.);
#204=ORIENTED_EDGE('',*,*,#153,.T.);
#205=ORIENTED_EDGE('',*,*,#149,.T.);
#206=ORIENTED_EDGE('',*,*,#165,.T.);
#207=ORIENTED_EDGE('',*,*,#156,.F.);
#208=ORIENTED_EDGE('',*,*,#165,.F.);
#209=ORIENTED_EDGE('',*,*,#160,.T.);
#210=CONICAL_SURFACE('',#257,4.85,44.9999999999989);
#211=CONICAL_SURFACE('',#263,7.675,44.9999999999989);
#212=CONICAL_SURFACE('',#270,6.85,45.);
#213=CONICAL_SURFACE('',#287,7.825,6.72170911996021);
#214=STYLED_ITEM('',(#554),#231);
#215=STYLED_ITEM('',(#554),#232);
#216=STYLED_ITEM('',(#554),#233);
#217=STYLED_ITEM('',(#554),#234);
#218=STYLED_ITEM('',(#554),#235);
#219=STYLED_ITEM('',(#554),#236);
#220=STYLED_ITEM('',(#554),#237);
#221=STYLED_ITEM('',(#554),#238);
#222=STYLED_ITEM('',(#554),#239);
#223=STYLED_ITEM('',(#554),#240);
#224=STYLED_ITEM('',(#554),#241);
#225=STYLED_ITEM('',(#554),#243);
#226=STYLED_ITEM('',(#554),#245);
#227=STYLED_ITEM('',(#554),#246);
#228=STYLED_ITEM('',(#554),#247);
#229=STYLED_ITEM('',(#554),#248);
#230=STYLED_ITEM('',(#553),#13);
#231=ADVANCED_FACE('',(#54,#36),#210,.T.);
#232=ADVANCED_FACE('',(#55,#37),#29,.T.);
#233=ADVANCED_FACE('',(#56),#22,.F.);
#234=ADVANCED_FACE('',(#57,#38),#211,.T.);
#235=ADVANCED_FACE('',(#58,#39),#30,.T.);
#236=ADVANCED_FACE('',(#59,#40),#23,.F.);
#237=ADVANCED_FACE('',(#60,#41),#212,.T.);
#238=ADVANCED_FACE('',(#61,#42,#43,#44),#31,.T.);
#239=ADVANCED_FACE('',(#62,#45),#24,.T.);
#240=ADVANCED_FACE('',(#63,#46),#25,.T.);
#241=ADVANCED_FACE('',(#64,#47),#32,.T.);
#242=ADVANCED_FACE('',(#65),#26,.T.);
#243=ADVANCED_FACE('',(#66,#48),#33,.F.);
#244=ADVANCED_FACE('',(#67),#27,.T.);
#245=ADVANCED_FACE('',(#68,#49,#50),#34,.F.);
#246=ADVANCED_FACE('',(#69,#51),#213,.T.);
#247=ADVANCED_FACE('',(#70,#52),#35,.T.);
#248=ADVANCED_FACE('',(#71,#53),#28,.T.);
#249=CLOSED_SHELL('',(#231,#232,#233,#234,#235,#236,#237,#238,#239,#240,
#241,#242,#243,#244,#245,#246,#247,#248));
#250=DATE_TIME_ROLE('creation_date');
#251=APPLIED_DATE_AND_TIME_ASSIGNMENT(#252,#250,(#546));
#252=DATE_AND_TIME(#253,#254);
#253=CALENDAR_DATE(2018,25,4);
#254=LOCAL_TIME(11,44,0.,#255);
#255=COORDINATED_UNIVERSAL_TIME_OFFSET(0,0,.BEHIND.);
#256=AXIS2_PLACEMENT_3D('placement',#363,#291,#292);
#257=AXIS2_PLACEMENT_3D('',#364,#293,#294);
#258=AXIS2_PLACEMENT_3D('',#366,#295,#296);
#259=AXIS2_PLACEMENT_3D('',#368,#297,#298);
#260=AXIS2_PLACEMENT_3D('',#369,#299,#300);
#261=AXIS2_PLACEMENT_3D('',#371,#301,#302);
#262=AXIS2_PLACEMENT_3D('',#372,#303,#304);
#263=AXIS2_PLACEMENT_3D('',#373,#305,#306);
#264=AXIS2_PLACEMENT_3D('',#375,#307,#308);
#265=AXIS2_PLACEMENT_3D('',#377,#309,#310);
#266=AXIS2_PLACEMENT_3D('',#378,#311,#312);
#267=AXIS2_PLACEMENT_3D('',#380,#313,#314);
#268=AXIS2_PLACEMENT_3D('',#381,#315,#316);
#269=AXIS2_PLACEMENT_3D('',#383,#317,#318);
#270=AXIS2_PLACEMENT_3D('',#384,#319,#320);
#271=AXIS2_PLACEMENT_3D('',#386,#321,#322);
#272=AXIS2_PLACEMENT_3D('',#388,#323,#324);
#273=AXIS2_PLACEMENT_3D('',#389,#325,#326);
#274=AXIS2_PLACEMENT_3D('',#391,#327,#328);
#275=AXIS2_PLACEMENT_3D('',#462,#329,#330);
#276=AXIS2_PLACEMENT_3D('',#464,#331,#332);
#277=AXIS2_PLACEMENT_3D('',#465,#333,#334);
#278=AXIS2_PLACEMENT_3D('',#467,#335,#336);
#279=AXIS2_PLACEMENT_3D('',#468,#337,#338);
#280=AXIS2_PLACEMENT_3D('',#469,#339,#340);
#281=AXIS2_PLACEMENT_3D('',#473,#342,#343);
#282=AXIS2_PLACEMENT_3D('',#474,#344,#345);
#283=AXIS2_PLACEMENT_3D('',#476,#346,#347);
#284=AXIS2_PLACEMENT_3D('',#501,#348,#349);
#285=AXIS2_PLACEMENT_3D('',#524,#350,#351);
#286=AXIS2_PLACEMENT_3D('',#526,#353,#354);
#287=AXIS2_PLACEMENT_3D('',#527,#355,#356);
#288=AXIS2_PLACEMENT_3D('',#528,#357,#358);
#289=AXIS2_PLACEMENT_3D('',#530,#359,#360);
#290=AXIS2_PLACEMENT_3D('',#531,#361,#362);
#291=DIRECTION('axis',(0.,0.,1.));
#292=DIRECTION('refdir',(1.,0.,0.));
#293=DIRECTION('center_axis',(0.,1.,0.));
#294=DIRECTION('ref_axis',(1.,0.,0.));
#295=DIRECTION('center_axis',(0.,-1.,0.));
#296=DIRECTION('ref_axis',(1.,0.,0.));
#297=DIRECTION('center_axis',(0.,1.,0.));
#298=DIRECTION('ref_axis',(1.,0.,0.));
#299=DIRECTION('center_axis',(0.,-1.,0.));
#300=DIRECTION('ref_axis',(1.,0.,0.));
#301=DIRECTION('center_axis',(0.,-1.,0.));
#302=DIRECTION('ref_axis',(1.,0.,0.));
#303=DIRECTION('center_axis',(0.,1.,0.));
#304=DIRECTION('ref_axis',(0.,0.,1.));
#305=DIRECTION('center_axis',(0.,1.,0.));
#306=DIRECTION('ref_axis',(1.,0.,0.));
#307=DIRECTION('center_axis',(0.,-1.,0.));
#308=DIRECTION('ref_axis',(1.,0.,0.));
#309=DIRECTION('center_axis',(0.,1.,0.));
#310=DIRECTION('ref_axis',(1.,0.,0.));
#311=DIRECTION('center_axis',(0.,-1.,0.));
#312=DIRECTION('ref_axis',(1.,0.,0.));
#313=DIRECTION('center_axis',(0.,1.,0.));
#314=DIRECTION('ref_axis',(1.,0.,0.));
#315=DIRECTION('center_axis',(0.,1.,0.));
#316=DIRECTION('ref_axis',(0.,0.,1.));
#317=DIRECTION('center_axis',(0.,1.,0.));
#318=DIRECTION('ref_axis',(1.,0.,0.));
#319=DIRECTION('center_axis',(0.,-1.,0.));
#320=DIRECTION('ref_axis',(1.,0.,0.));
#321=DIRECTION('center_axis',(0.,-1.,0.));
#322=DIRECTION('ref_axis',(1.,0.,0.));
#323=DIRECTION('center_axis',(0.,1.,0.));
#324=DIRECTION('ref_axis',(1.,0.,0.));
#325=DIRECTION('center_axis',(0.,-1.,0.));
#326=DIRECTION('ref_axis',(1.,0.,0.));
#327=DIRECTION('center_axis',(0.,-1.,0.));
#328=DIRECTION('ref_axis',(1.,0.,0.));
#329=DIRECTION('center_axis',(0.,1.,0.));
#330=DIRECTION('ref_axis',(0.,0.,1.));
#331=DIRECTION('center_axis',(0.,-1.,0.));
#332=DIRECTION('ref_axis',(1.,0.,0.));
#333=DIRECTION('center_axis',(0.,1.,0.));
#334=DIRECTION('ref_axis',(0.,0.,1.));
#335=DIRECTION('center_axis',(0.,-1.,0.));
#336=DIRECTION('ref_axis',(1.,0.,0.));
#337=DIRECTION('center_axis',(0.,-1.,0.));
#338=DIRECTION('ref_axis',(1.,0.,0.));
#339=DIRECTION('center_axis',(0.,1.,0.));
#340=DIRECTION('ref_axis',(0.,0.,1.));
#341=DIRECTION('',(-1.,0.,0.));
#342=DIRECTION('center_axis',(0.,-1.,0.));
#343=DIRECTION('ref_axis',(1.,0.,0.));
#344=DIRECTION('center_axis',(0.,-1.,0.));
#345=DIRECTION('ref_axis',(1.,0.,0.));
#346=DIRECTION('center_axis',(0.,-1.,0.));
#347=DIRECTION('ref_axis',(1.,0.,0.));
#348=DIRECTION('center_axis',(0.,-1.,0.));
#349=DIRECTION('ref_axis',(1.,0.,0.));
#350=DIRECTION('center_axis',(0.,1.,0.));
#351=DIRECTION('ref_axis',(0.,0.,1.));
#352=DIRECTION('',(1.,0.,0.));
#353=DIRECTION('center_axis',(1.,0.,0.));
#354=DIRECTION('ref_axis',(0.,-1.,0.));
#355=DIRECTION('center_axis',(0.,-1.,0.));
#356=DIRECTION('ref_axis',(1.,0.,0.));
#357=DIRECTION('center_axis',(0.,-1.,0.));
#358=DIRECTION('ref_axis',(1.,0.,0.));
#359=DIRECTION('center_axis',(0.,-1.,0.));
#360=DIRECTION('ref_axis',(1.,0.,0.));
#361=DIRECTION('center_axis',(0.,1.,0.));
#362=DIRECTION('ref_axis',(0.,0.,1.));
#363=CARTESIAN_POINT('',(0.,0.,0.));
#364=CARTESIAN_POINT('Origin',(0.,-222.85,0.));
#365=CARTESIAN_POINT('',(-5.,-222.7,-6.12323399573677E-16));
#366=CARTESIAN_POINT('Origin',(0.,-222.7,0.));
#367=CARTESIAN_POINT('',(-4.7,-223.,5.75583995599256E-16));
#368=CARTESIAN_POINT('Origin',(0.,-223.,0.));
#369=CARTESIAN_POINT('Origin',(0.,-208.,0.));
#370=CARTESIAN_POINT('',(-5.,-208.,6.12323399573677E-16));
#371=CARTESIAN_POINT('Origin',(0.,-208.,0.));
#372=CARTESIAN_POINT('Origin',(0.,-223.,0.));
#373=CARTESIAN_POINT('Origin',(0.,-205.85,0.));
#374=CARTESIAN_POINT('',(-7.825,-205.7,-9.58286120332804E-16));
#375=CARTESIAN_POINT('Origin',(0.,-205.7,0.));
#376=CARTESIAN_POINT('',(-7.525,-206.,9.21546716358383E-16));
#377=CARTESIAN_POINT('Origin',(0.,-206.,0.));
#378=CARTESIAN_POINT('Origin',(0.,-33.,0.));
#379=CARTESIAN_POINT('',(7.825,-33.,0.));
#380=CARTESIAN_POINT('Origin',(0.,-33.,0.));
#381=CARTESIAN_POINT('Origin',(0.,-206.,0.));
#382=CARTESIAN_POINT('',(-3.75,-206.,4.59242549680257E-16));
#383=CARTESIAN_POINT('Origin',(0.,-206.,0.));
#384=CARTESIAN_POINT('Origin',(0.,-2.15,0.));
#385=CARTESIAN_POINT('',(-6.7,-2.,-8.20513355428727E-16));
#386=CARTESIAN_POINT('Origin',(0.,-2.,0.));
#387=CARTESIAN_POINT('',(-7.,-2.3,8.57252759403147E-16));
#388=CARTESIAN_POINT('Origin',(0.,-2.3,0.));
#389=CARTESIAN_POINT('Origin',(0.,-2.,0.));
#390=CARTESIAN_POINT('',(-7.,-26.,-8.57252759403147E-16));
#391=CARTESIAN_POINT('Origin',(0.,-26.,0.));
#392=CARTESIAN_POINT('',(-6.32455532033676,-20.5,3.));
#393=CARTESIAN_POINT('Ctrl Pts',(-6.32455532033676,-20.5,3.));
#394=CARTESIAN_POINT('Ctrl Pts',(-6.32455532033676,-20.8823903732419,3.));
#395=CARTESIAN_POINT('Ctrl Pts',(-6.36291312432386,-21.2862430671818,2.92256178949426));
#396=CARTESIAN_POINT('Ctrl Pts',(-6.49535691964534,-22.0235423175678,2.61502716928633));
#397=CARTESIAN_POINT('Ctrl Pts',(-6.58694257150212,-22.3575164808559,2.38512420626343));
#398=CARTESIAN_POINT('Ctrl Pts',(-6.75460679905784,-22.8847635339497,1.8578771531696));
#399=CARTESIAN_POINT('Ctrl Pts',(-6.84237030016162,-23.1149378481289,1.52377016291608));
#400=CARTESIAN_POINT('Ctrl Pts',(-6.9657883499975,-23.4226830587195,0.785938626528133));
#401=CARTESIAN_POINT('Ctrl Pts',(-7.,-23.5,0.381867569598128));
#402=CARTESIAN_POINT('Ctrl Pts',(-7.,-23.5,-0.381867569598128));
#403=CARTESIAN_POINT('Ctrl Pts',(-6.9657883499975,-23.4226830587195,-0.785938626528133));
#404=CARTESIAN_POINT('Ctrl Pts',(-6.84237030016162,-23.1149378481289,-1.52377016291608));
#405=CARTESIAN_POINT('Ctrl Pts',(-6.75460679905784,-22.8847635339497,-1.8578771531696));
#406=CARTESIAN_POINT('Ctrl Pts',(-6.58694257150212,-22.3575164808559,-2.38512420626343));
#407=CARTESIAN_POINT('Ctrl Pts',(-6.49535691964534,-22.0235423175678,-2.61502716928633));
#408=CARTESIAN_POINT('Ctrl Pts',(-6.36291312432386,-21.2862430671818,-2.92256178949426));
#409=CARTESIAN_POINT('Ctrl Pts',(-6.32455532033676,-20.8823903732419,-3.));
#410=CARTESIAN_POINT('Ctrl Pts',(-6.32455532033676,-20.1176096267581,-3.));
#411=CARTESIAN_POINT('Ctrl Pts',(-6.36291312432386,-19.7137569328182,-2.92256178949426));
#412=CARTESIAN_POINT('Ctrl Pts',(-6.49535691964534,-18.9764576824322,-2.61502716928633));
#413=CARTESIAN_POINT('Ctrl Pts',(-6.58694257150212,-18.6424835191441,-2.38512420626343));
#414=CARTESIAN_POINT('Ctrl Pts',(-6.75460679905784,-18.1152364660503,-1.8578771531696));
#415=CARTESIAN_POINT('Ctrl Pts',(-6.84237030016163,-17.8850621518711,-1.52377016291608));
#416=CARTESIAN_POINT('Ctrl Pts',(-6.9657883499975,-17.5773169412805,-0.785938626528131));
#417=CARTESIAN_POINT('Ctrl Pts',(-7.,-17.5,-0.381867569598128));
#418=CARTESIAN_POINT('Ctrl Pts',(-7.,-17.5,0.381867569598127));
#419=CARTESIAN_POINT('Ctrl Pts',(-6.9657883499975,-17.5773169412805,0.78593862652813));
#420=CARTESIAN_POINT('Ctrl Pts',(-6.84237030016163,-17.8850621518711,1.52377016291608));
#421=CARTESIAN_POINT('Ctrl Pts',(-6.75460679905784,-18.1152364660503,1.8578771531696));
#422=CARTESIAN_POINT('Ctrl Pts',(-6.58694257150212,-18.6424835191441,2.38512420626343));
#423=CARTESIAN_POINT('Ctrl Pts',(-6.49535691964534,-18.9764576824322,2.61502716928633));
#424=CARTESIAN_POINT('Ctrl Pts',(-6.36291312432386,-19.7137569328182,2.92256178949426));
#425=CARTESIAN_POINT('Ctrl Pts',(-6.32455532033676,-20.1176096267581,3.));
#426=CARTESIAN_POINT('Ctrl Pts',(-6.32455532033676,-20.5,3.));
#427=CARTESIAN_POINT('',(6.32455532033676,-20.5,3.));
#428=CARTESIAN_POINT('Ctrl Pts',(6.32455532033676,-20.5,3.));
#429=CARTESIAN_POINT('Ctrl Pts',(6.32455532033676,-20.1176096267581,3.));
#430=CARTESIAN_POINT('Ctrl Pts',(6.36291312432386,-19.7137569328182,2.92256178949426));
#431=CARTESIAN_POINT('Ctrl Pts',(6.49535691964534,-18.9764576824322,2.61502716928633));
#432=CARTESIAN_POINT('Ctrl Pts',(6.58694257150212,-18.6424835191441,2.38512420626343));
#433=CARTESIAN_POINT('Ctrl Pts',(6.75460679905784,-18.1152364660503,1.8578771531696));
#434=CARTESIAN_POINT('Ctrl Pts',(6.84237030016163,-17.8850621518711,1.52377016291608));
#435=CARTESIAN_POINT('Ctrl Pts',(6.9657883499975,-17.5773169412805,0.785938626528129));
#436=CARTESIAN_POINT('Ctrl Pts',(7.,-17.5,0.381867569598127));
#437=CARTESIAN_POINT('Ctrl Pts',(7.,-17.5,-0.381867569598128));
#438=CARTESIAN_POINT('Ctrl Pts',(6.9657883499975,-17.5773169412805,-0.785938626528131));
#439=CARTESIAN_POINT('Ctrl Pts',(6.84237030016163,-17.8850621518711,-1.52377016291608));
#440=CARTESIAN_POINT('Ctrl Pts',(6.75460679905784,-18.1152364660503,-1.8578771531696));
#441=CARTESIAN_POINT('Ctrl Pts',(6.58694257150212,-18.6424835191441,-2.38512420626343));
#442=CARTESIAN_POINT('Ctrl Pts',(6.49535691964534,-18.9764576824322,-2.61502716928633));
#443=CARTESIAN_POINT('Ctrl Pts',(6.36291312432386,-19.7137569328182,-2.92256178949426));
#444=CARTESIAN_POINT('Ctrl Pts',(6.32455532033676,-20.1176096267581,-3.));
#445=CARTESIAN_POINT('Ctrl Pts',(6.32455532033676,-20.8823903732419,-3.));
#446=CARTESIAN_POINT('Ctrl Pts',(6.36291312432386,-21.2862430671818,-2.92256178949426));
#447=CARTESIAN_POINT('Ctrl Pts',(6.49535691964534,-22.0235423175678,-2.61502716928633));
#448=CARTESIAN_POINT('Ctrl Pts',(6.58694257150212,-22.3575164808559,-2.38512420626343));
#449=CARTESIAN_POINT('Ctrl Pts',(6.75460679905784,-22.8847635339497,-1.8578771531696));
#450=CARTESIAN_POINT('Ctrl Pts',(6.84237030016162,-23.1149378481289,-1.52377016291608));
#451=CARTESIAN_POINT('Ctrl Pts',(6.9657883499975,-23.4226830587195,-0.785938626528133));
#452=CARTESIAN_POINT('Ctrl Pts',(7.,-23.5,-0.381867569598128));
#453=CARTESIAN_POINT('Ctrl Pts',(7.,-23.5,0.381867569598128));
#454=CARTESIAN_POINT('Ctrl Pts',(6.9657883499975,-23.4226830587195,0.785938626528133));
#455=CARTESIAN_POINT('Ctrl Pts',(6.84237030016162,-23.1149378481289,1.52377016291608));
#456=CARTESIAN_POINT('Ctrl Pts',(6.75460679905784,-22.8847635339497,1.8578771531696));
#457=CARTESIAN_POINT('Ctrl Pts',(6.58694257150212,-22.3575164808559,2.38512420626343));
#458=CARTESIAN_POINT('Ctrl Pts',(6.49535691964534,-22.0235423175678,2.61502716928633));
#459=CARTESIAN_POINT('Ctrl Pts',(6.36291312432386,-21.2862430671818,2.92256178949426));
#460=CARTESIAN_POINT('Ctrl Pts',(6.32455532033676,-20.8823903732419,3.));
#461=CARTESIAN_POINT('Ctrl Pts',(6.32455532033676,-20.5,3.));
#462=CARTESIAN_POINT('Origin',(7.14377299502623E-17,-2.,0.));
#463=CARTESIAN_POINT('',(-5.5,-2.,-6.73555739531044E-16));
#464=CARTESIAN_POINT('Origin',(0.,-2.,0.));
#465=CARTESIAN_POINT('Origin',(2.36064120735332E-16,-208.,0.));
#466=CARTESIAN_POINT('',(-3.75,-208.,-4.59242549680257E-16));
#467=CARTESIAN_POINT('Origin',(0.,-208.,0.));
#468=CARTESIAN_POINT('Origin',(0.,-206.,0.));
#469=CARTESIAN_POINT('Origin',(0.,-20.5,0.));
#470=CARTESIAN_POINT('',(1.6,-20.5,-3.));
#471=CARTESIAN_POINT('',(-1.6,-20.5,-3.));
#472=CARTESIAN_POINT('',(0.,-20.5,-3.));
#473=CARTESIAN_POINT('Origin',(0.,-20.5,0.));
#474=CARTESIAN_POINT('Origin',(0.,0.,0.));
#475=CARTESIAN_POINT('',(-3.4,0.,4.163799117101E-16));
#476=CARTESIAN_POINT('Origin',(0.,0.,0.));
#477=CARTESIAN_POINT('',(1.6,-20.5,3.));
#478=CARTESIAN_POINT('Ctrl Pts',(1.6,-20.5,3.));
#479=CARTESIAN_POINT('Ctrl Pts',(1.6,-20.2852262656961,3.));
#480=CARTESIAN_POINT('Ctrl Pts',(1.64386753718759,-20.0809440472842,2.97729536213517));
#481=CARTESIAN_POINT('Ctrl Pts',(1.78406628884329,-19.6899382546711,2.89546120393782));
#482=CARTESIAN_POINT('Ctrl Pts',(1.87970075232127,-19.5030046168569,2.83614342149008));
#483=CARTESIAN_POINT('Ctrl Pts',(2.19707260324101,-18.9670113506425,2.60783490747025));
#484=CARTESIAN_POINT('Ctrl Pts',(2.44589830595393,-18.6431784382806,2.38581912539993));
#485=CARTESIAN_POINT('Ctrl Pts',(2.85525628010293,-18.1304359007531,1.87307658787244));
#486=CARTESIAN_POINT('Ctrl Pts',(3.05049308223637,-17.9015799243842,1.55177636016799));
#487=CARTESIAN_POINT('Ctrl Pts',(3.32349753792839,-17.5859109893695,0.817241067807808));
#488=CARTESIAN_POINT('Ctrl Pts',(3.4,-17.5,0.403149217214618));
#489=CARTESIAN_POINT('Ctrl Pts',(3.4,-17.5,-0.403149217214619));
#490=CARTESIAN_POINT('Ctrl Pts',(3.32349753792839,-17.5859109893695,-0.81724106780781));
#491=CARTESIAN_POINT('Ctrl Pts',(3.05049308223637,-17.9015799243842,-1.55177636016799));
#492=CARTESIAN_POINT('Ctrl Pts',(2.85525628010293,-18.1304359007531,-1.87307658787244));
#493=CARTESIAN_POINT('Ctrl Pts',(2.44589830595392,-18.6431784382806,-2.38581912539993));
#494=CARTESIAN_POINT('Ctrl Pts',(2.19707260324101,-18.9670113506425,-2.60783490747025));
#495=CARTESIAN_POINT('Ctrl Pts',(1.87970075232127,-19.5030046168569,-2.83614342149008));
#496=CARTESIAN_POINT('Ctrl Pts',(1.78406628884329,-19.6899382546711,-2.89546120393782));
#497=CARTESIAN_POINT('Ctrl Pts',(1.64386753718759,-20.0809440472842,-2.97729536213517));
#498=CARTESIAN_POINT('Ctrl Pts',(1.6,-20.2852262656961,-3.));
#499=CARTESIAN_POINT('Ctrl Pts',(1.6,-20.5,-3.));
#500=CARTESIAN_POINT('',(-1.6,-20.5,3.));
#501=CARTESIAN_POINT('Origin',(0.,-20.5,0.));
#502=CARTESIAN_POINT('Ctrl Pts',(-1.6,-20.5,-3.));
#503=CARTESIAN_POINT('Ctrl Pts',(-1.6,-20.2852262656961,-3.));
#504=CARTESIAN_POINT('Ctrl Pts',(-1.64386753718759,-20.0809440472842,-2.97729536213517));
#505=CARTESIAN_POINT('Ctrl Pts',(-1.78406628884329,-19.6899382546711,-2.89546120393782));
#506=CARTESIAN_POINT('Ctrl Pts',(-1.87970075232127,-19.5030046168569,-2.83614342149008));
#507=CARTESIAN_POINT('Ctrl Pts',(-2.19707260324101,-18.9670113506425,-2.60783490747025));
#508=CARTESIAN_POINT('Ctrl Pts',(-2.44589830595392,-18.6431784382806,-2.38581912539993));
#509=CARTESIAN_POINT('Ctrl Pts',(-2.85525628010293,-18.1304359007531,-1.87307658787244));
#510=CARTESIAN_POINT('Ctrl Pts',(-3.05049308223637,-17.9015799243842,-1.55177636016799));
#511=CARTESIAN_POINT('Ctrl Pts',(-3.32349753792839,-17.5859109893695,-0.817241067807808));
#512=CARTESIAN_POINT('Ctrl Pts',(-3.4,-17.5,-0.403149217214619));
#513=CARTESIAN_POINT('Ctrl Pts',(-3.4,-17.5,0.403149217214618));
#514=CARTESIAN_POINT('Ctrl Pts',(-3.32349753792839,-17.5859109893695,0.817241067807808));
#515=CARTESIAN_POINT('Ctrl Pts',(-3.05049308223637,-17.9015799243842,1.55177636016799));
#516=CARTESIAN_POINT('Ctrl Pts',(-2.85525628010293,-18.1304359007531,1.87307658787244));
#517=CARTESIAN_POINT('Ctrl Pts',(-2.44589830595393,-18.6431784382806,2.38581912539993));
#518=CARTESIAN_POINT('Ctrl Pts',(-2.19707260324101,-18.9670113506425,2.60783490747025));
#519=CARTESIAN_POINT('Ctrl Pts',(-1.87970075232127,-19.5030046168569,2.83614342149008));
#520=CARTESIAN_POINT('Ctrl Pts',(-1.78406628884329,-19.6899382546711,2.89546120393782));
#521=CARTESIAN_POINT('Ctrl Pts',(-1.64386753718759,-20.0809440472842,2.97729536213517));
#522=CARTESIAN_POINT('Ctrl Pts',(-1.6,-20.2852262656961,3.));
#523=CARTESIAN_POINT('Ctrl Pts',(-1.6,-20.5,3.));
#524=CARTESIAN_POINT('Origin',(0.,-20.5,0.));
#525=CARTESIAN_POINT('',(0.,-20.5,3.));
#526=CARTESIAN_POINT('Origin',(0.,-20.5,0.));
#527=CARTESIAN_POINT('Origin',(0.,-33.,0.));
#528=CARTESIAN_POINT('Origin',(0.,0.,0.));
#529=CARTESIAN_POINT('',(-5.5,0.,6.73555739531044E-16));
#530=CARTESIAN_POINT('Origin',(0.,0.,0.));
#531=CARTESIAN_POINT('Origin',(2.24345254752611E-16,0.,0.));
#532=UNCERTAINTY_MEASURE_WITH_UNIT(LENGTH_MEASURE(0.01),#536,
'DISTANCE_ACCURACY_VALUE',
'Maximum model space distance between geometric entities at asserted c
onnectivities');
#533=UNCERTAINTY_MEASURE_WITH_UNIT(LENGTH_MEASURE(1.E-6),#536,
'DISTANCE_ACCURACY_VALUE',
'Maximum model space distance between geometric entities at asserted c
onnectivities');
#534=(
GEOMETRIC_REPRESENTATION_CONTEXT(3)
GLOBAL_UNCERTAINTY_ASSIGNED_CONTEXT((#532))
GLOBAL_UNIT_ASSIGNED_CONTEXT((#536,#539,#537))
REPRESENTATION_CONTEXT('','3D')
);
#535=(
GEOMETRIC_REPRESENTATION_CONTEXT(3)
GLOBAL_UNCERTAINTY_ASSIGNED_CONTEXT((#533))
GLOBAL_UNIT_ASSIGNED_CONTEXT((#536,#539,#537))
REPRESENTATION_CONTEXT('','3D')
);
#536=(
LENGTH_UNIT()
NAMED_UNIT(*)
SI_UNIT(.MILLI.,.METRE.)
);
#537=(
NAMED_UNIT(*)
SI_UNIT($,.STERADIAN.)
SOLID_ANGLE_UNIT()
);
#538=DIMENSIONAL_EXPONENTS(0.,0.,0.,0.,0.,0.,0.);
#539=(
CONVERSION_BASED_UNIT('degree',#541)
NAMED_UNIT(#538)
PLANE_ANGLE_UNIT()
);
#540=(
NAMED_UNIT(*)
PLANE_ANGLE_UNIT()
SI_UNIT($,.RADIAN.)
);
#541=PLANE_ANGLE_MEASURE_WITH_UNIT(PLANE_ANGLE_MEASURE(0.01745329252),#540);
#542=SHAPE_DEFINITION_REPRESENTATION(#543,#544);
#543=PRODUCT_DEFINITION_SHAPE('',$,#546);
#544=SHAPE_REPRESENTATION('',(#256),#534);
#545=PRODUCT_DEFINITION_CONTEXT('part definition',#550,'design');
#546=PRODUCT_DEFINITION('shifterShaft_long_M10','shifterShaft_long_M10',
#547,#545);
#547=PRODUCT_DEFINITION_FORMATION('',$,#552);
#548=PRODUCT_RELATED_PRODUCT_CATEGORY('shifterShaft_long_M10',
'shifterShaft_long_M10',(#552));
#549=APPLICATION_PROTOCOL_DEFINITION('international standard',
'automotive_design',2009,#550);
#550=APPLICATION_CONTEXT(
'Core Data for Automotive Mechanical Design Process');
#551=PRODUCT_CONTEXT('part definition',#550,'mechanical');
#552=PRODUCT('shifterShaft_long_M10','shifterShaft_long_M10',$,(#551));
#553=PRESENTATION_STYLE_ASSIGNMENT((#555));
#554=PRESENTATION_STYLE_ASSIGNMENT((#556));
#555=SURFACE_STYLE_USAGE(.BOTH.,#557);
#556=SURFACE_STYLE_USAGE(.BOTH.,#558);
#557=SURFACE_SIDE_STYLE('',(#559));
#558=SURFACE_SIDE_STYLE('',(#560));
#559=SURFACE_STYLE_FILL_AREA(#561);
#560=SURFACE_STYLE_FILL_AREA(#562);
#561=FILL_AREA_STYLE('',(#563));
#562=FILL_AREA_STYLE('',(#564));
#563=FILL_AREA_STYLE_COLOUR('',#565);
#564=FILL_AREA_STYLE_COLOUR('',#566);
#565=COLOUR_RGB('',0.749019607843137,0.749019607843137,0.749019607843137);
#566=COLOUR_RGB('',0.,0.,0.);
ENDSEC;
END-ISO-10303-21;
