ISO-10303-21;
HEADER;
FILE_DESCRIPTION (( 'STEP AP214' ),
    '1' );
FILE_NAME ('entretoise etrier.STEP',
    '2018-04-27T08:22:33',
    ( '' ),
    ( '' ),
    'SwSTEP 2.0',
    'SolidWorks 2018',
    '' );
FILE_SCHEMA (( 'AUTOMOTIVE_DESIGN' ));
ENDSEC;

DATA;
#1 = COLOUR_RGB ( '',0.7921568627450980005, 0.8196078431372548767, 0.9333333333333333481 ) ;
#2 = ORIENTED_EDGE ( 'NONE', *, *, #149, .F. ) ;
#3 = PRODUCT ( 'entretoise etrier', 'entretoise etrier', '', ( #113 ) ) ;
#4 = PRESENTATION_LAYER_ASSIGNMENT (  '', '', ( #74 ) ) ;
#5 = PLANE ( 'NONE',  #118 ) ;
#6 = CARTESIAN_POINT ( 'NONE',  ( -9.000000000000000000, 0.0000000000000000000, 6.000000000000000000 ) ) ;
#7 = ORIENTED_EDGE ( 'NONE', *, *, #96, .F. ) ;
#8 = CARTESIAN_POINT ( 'NONE',  ( -4.000000000000000000, 0.0000000000000000000, 6.000000000000000000 ) ) ;
#9 = EDGE_CURVE ( 'NONE', #138, #191, #187, .T. ) ;
#10 = DIRECTION ( 'NONE',  ( 0.0000000000000000000, 0.0000000000000000000, 1.000000000000000000 ) ) ;
#11 = ADVANCED_FACE ( 'NONE', ( #153, #101 ), #26, .T. ) ;
#12 = AXIS2_PLACEMENT_3D ( 'NONE', #128, #17, #212 ) ;
#13 = DIRECTION ( 'NONE',  ( -0.0000000000000000000, -0.0000000000000000000, -1.000000000000000000 ) ) ;
#14 = SURFACE_SIDE_STYLE ('',( #197 ) ) ;
#15 = PRESENTATION_STYLE_ASSIGNMENT (( #60 ) ) ;
#16 = APPLICATION_CONTEXT ( 'automotive_design' ) ;
#17 = DIRECTION ( 'NONE',  ( 0.0000000000000000000, 0.0000000000000000000, 1.000000000000000000 ) ) ;
#18 = FACE_OUTER_BOUND ( 'NONE', #67, .T. ) ;
#19 = PRESENTATION_STYLE_ASSIGNMENT (( #114 ) ) ;
#20 = ORIENTED_EDGE ( 'NONE', *, *, #134, .T. ) ;
#21 = CIRCLE ( 'NONE', #53, 4.000000000000000000 ) ;
#22 = ORIENTED_EDGE ( 'NONE', *, *, #134, .F. ) ;
#23 = EDGE_CURVE ( 'NONE', #39, #168, #115, .T. ) ;
#24 = DIRECTION ( 'NONE',  ( 1.000000000000000000, 0.0000000000000000000, 0.0000000000000000000 ) ) ;
#25 = CARTESIAN_POINT ( 'NONE',  ( 0.0000000000000000000, 0.0000000000000000000, 0.0000000000000000000 ) ) ;
#26 = PLANE ( 'NONE',  #122 ) ;
#27 = VERTEX_POINT ( 'NONE', #174 ) ;
#28 =( NAMED_UNIT ( * ) PLANE_ANGLE_UNIT ( ) SI_UNIT ( $, .RADIAN. ) );
#29 = CARTESIAN_POINT ( 'NONE',  ( 0.0000000000000000000, 0.0000000000000000000, 6.000000000000000000 ) ) ;
#30 = EDGE_LOOP ( 'NONE', ( #86, #144, #52, #22 ) ) ;
#31 = DIRECTION ( 'NONE',  ( -0.0000000000000000000, -0.0000000000000000000, -1.000000000000000000 ) ) ;
#32 = DIRECTION ( 'NONE',  ( -0.0000000000000000000, -0.0000000000000000000, -1.000000000000000000 ) ) ;
#33 = AXIS2_PLACEMENT_3D ( 'NONE', #178, #64, #176 ) ;
#34 = APPLICATION_PROTOCOL_DEFINITION ( 'draft international standard', 'automotive_design', 1998, #16 ) ;
#35 = CIRCLE ( 'NONE', #70, 9.000000000000000000 ) ;
#36 = EDGE_LOOP ( 'NONE', ( #198, #2 ) ) ;
#37 = EDGE_CURVE ( 'NONE', #168, #39, #119, .T. ) ;
#38 = ORIENTED_EDGE ( 'NONE', *, *, #58, .F. ) ;
#39 = VERTEX_POINT ( 'NONE', #57 ) ;
#40 = DIRECTION ( 'NONE',  ( 1.000000000000000000, 0.0000000000000000000, 0.0000000000000000000 ) ) ;
#41 = CARTESIAN_POINT ( 'NONE',  ( 4.000000000000000000, 4.898587196589412829E-16, 6.000000000000000000 ) ) ;
#42 = VECTOR ( 'NONE', #13, 1000.000000000000000 ) ;
#43 = DIRECTION ( 'NONE',  ( -1.000000000000000000, 0.0000000000000000000, 0.0000000000000000000 ) ) ;
#44 = EDGE_CURVE ( 'NONE', #191, #27, #110, .T. ) ;
#45 = CARTESIAN_POINT ( 'NONE',  ( 0.0000000000000000000, 0.0000000000000000000, 0.0000000000000000000 ) ) ;
#46 = DIRECTION ( 'NONE',  ( -0.0000000000000000000, -0.0000000000000000000, -1.000000000000000000 ) ) ;
#47 = DIRECTION ( 'NONE',  ( 1.000000000000000000, 0.0000000000000000000, 0.0000000000000000000 ) ) ;
#48 = PRODUCT_DEFINITION ( 'UNKNOWN', '', #152, #204 ) ;
#49 = ORIENTED_EDGE ( 'NONE', *, *, #213, .F. ) ;
#50 = VECTOR ( 'NONE', #32, 1000.000000000000000 ) ;
#51 = LINE ( 'NONE', #195, #136 ) ;
#52 = ORIENTED_EDGE ( 'NONE', *, *, #137, .T. ) ;
#53 = AXIS2_PLACEMENT_3D ( 'NONE', #123, #160, #111 ) ;
#54 =( GEOMETRIC_REPRESENTATION_CONTEXT ( 3 ) GLOBAL_UNCERTAINTY_ASSIGNED_CONTEXT ( ( #91 ) ) GLOBAL_UNIT_ASSIGNED_CONTEXT ( ( #129, #165, #108 ) ) REPRESENTATION_CONTEXT ( 'NONE', 'WORKASPACE' ) );
#55 = CYLINDRICAL_SURFACE ( 'NONE', #130, 9.000000000000000000 ) ;
#56 = CARTESIAN_POINT ( 'NONE',  ( 0.0000000000000000000, 0.0000000000000000000, 6.000000000000000000 ) ) ;
#57 = CARTESIAN_POINT ( 'NONE',  ( -9.000000000000000000, 0.0000000000000000000, 6.000000000000000000 ) ) ;
#58 = EDGE_CURVE ( 'NONE', #159, #69, #75, .T. ) ;
#59 = DIRECTION ( 'NONE',  ( 0.0000000000000000000, 0.0000000000000000000, 1.000000000000000000 ) ) ;
#60 = SURFACE_STYLE_USAGE ( .BOTH. , #14 ) ;
#61 = DIRECTION ( 'NONE',  ( -0.0000000000000000000, -0.0000000000000000000, -1.000000000000000000 ) ) ;
#62 = DIRECTION ( 'NONE',  ( -0.0000000000000000000, -0.0000000000000000000, -1.000000000000000000 ) ) ;
#63 = ORIENTED_EDGE ( 'NONE', *, *, #149, .T. ) ;
#64 = DIRECTION ( 'NONE',  ( 0.0000000000000000000, 0.0000000000000000000, 1.000000000000000000 ) ) ;
#65 =( LENGTH_UNIT ( ) NAMED_UNIT ( * ) SI_UNIT ( .MILLI., .METRE. ) );
#66 = FACE_BOUND ( 'NONE', #106, .T. ) ;
#67 = EDGE_LOOP ( 'NONE', ( #38, #150 ) ) ;
#68 = AXIS2_PLACEMENT_3D ( 'NONE', #45, #10, #127 ) ;
#69 = VERTEX_POINT ( 'NONE', #172 ) ;
#70 = AXIS2_PLACEMENT_3D ( 'NONE', #210, #109, #47 ) ;
#71 = VERTEX_POINT ( 'NONE', #41 ) ;
#72 = ORIENTED_EDGE ( 'NONE', *, *, #58, .T. ) ;
#73 = EDGE_CURVE ( 'NONE', #138, #71, #21, .T. ) ;
#74 = STYLED_ITEM ( 'NONE', ( #19 ), #93 ) ;
#75 = CIRCLE ( 'NONE', #185, 9.000000000000000000 ) ;
#76 = CLOSED_SHELL ( 'NONE', ( #112, #147, #11, #89, #103, #173 ) ) ;
#77 = UNCERTAINTY_MEASURE_WITH_UNIT (LENGTH_MEASURE( 1.000000000000000082E-05 ), #196, 'distance_accuracy_value', 'NONE');
#78 = CIRCLE ( 'NONE', #33, 4.000000000000000000 ) ;
#79 = DIRECTION ( 'NONE',  ( -0.0000000000000000000, -0.0000000000000000000, -1.000000000000000000 ) ) ;
#80 =( NAMED_UNIT ( * ) PLANE_ANGLE_UNIT ( ) SI_UNIT ( $, .RADIAN. ) );
#81 = CYLINDRICAL_SURFACE ( 'NONE', #200, 4.000000000000000000 ) ;
#82 = ORIENTED_EDGE ( 'NONE', *, *, #9, .T. ) ;
#83 = SURFACE_SIDE_STYLE ('',( #171 ) ) ;
#84 =( GEOMETRIC_REPRESENTATION_CONTEXT ( 3 ) GLOBAL_UNCERTAINTY_ASSIGNED_CONTEXT ( ( #77 ) ) GLOBAL_UNIT_ASSIGNED_CONTEXT ( ( #196, #28, #143 ) ) REPRESENTATION_CONTEXT ( 'NONE', 'WORKASPACE' ) );
#85 = FILL_AREA_STYLE ('',( #98 ) ) ;
#86 = ORIENTED_EDGE ( 'NONE', *, *, #37, .F. ) ;
#87 = COLOUR_RGB ( '',0.7921568627450980005, 0.8196078431372548767, 0.9333333333333333481 ) ;
#88 = LINE ( 'NONE', #94, #42 ) ;
#89 = ADVANCED_FACE ( 'NONE', ( #18, #66 ), #5, .F. ) ;
#90 = EDGE_CURVE ( 'NONE', #168, #69, #51, .T. ) ;
#91 = UNCERTAINTY_MEASURE_WITH_UNIT (LENGTH_MEASURE( 1.000000000000000082E-05 ), #129, 'distance_accuracy_value', 'NONE');
#92 = EDGE_LOOP ( 'NONE', ( #49, #63, #82, #7 ) ) ;
#93 = ADVANCED_BREP_SHAPE_REPRESENTATION ( 'entretoise etrier', ( #100, #12 ), #84 ) ;
#94 = CARTESIAN_POINT ( 'NONE',  ( 4.000000000000000000, 4.898587196589412829E-16, 6.000000000000000000 ) ) ;
#95 = DIRECTION ( 'NONE',  ( 0.0000000000000000000, 0.0000000000000000000, 1.000000000000000000 ) ) ;
#96 = EDGE_CURVE ( 'NONE', #27, #191, #181, .T. ) ;
#97 = LINE ( 'NONE', #6, #50 ) ;
#98 = FILL_AREA_STYLE_COLOUR ( '', #87 ) ;
#99 = ORIENTED_EDGE ( 'NONE', *, *, #96, .T. ) ;
#100 = MANIFOLD_SOLID_BREP ( 'Boss.-Extru.1', #76 ) ;
#101 = FACE_BOUND ( 'NONE', #36, .T. ) ;
#102 = MECHANICAL_DESIGN_GEOMETRIC_PRESENTATION_REPRESENTATION (  '', ( #151 ), #54 ) ;
#103 = ADVANCED_FACE ( 'NONE', ( #125 ), #55, .T. ) ;
#104 = CARTESIAN_POINT ( 'NONE',  ( -4.000000000000000000, 0.0000000000000000000, 6.000000000000000000 ) ) ;
#105 = CARTESIAN_POINT ( 'NONE',  ( 0.0000000000000000000, 0.0000000000000000000, 0.0000000000000000000 ) ) ;
#106 = EDGE_LOOP ( 'NONE', ( #170, #99 ) ) ;
#107 = DIRECTION ( 'NONE',  ( 0.0000000000000000000, 0.0000000000000000000, 1.000000000000000000 ) ) ;
#108 =( NAMED_UNIT ( * ) SI_UNIT ( $, .STERADIAN. ) SOLID_ANGLE_UNIT ( ) );
#109 = DIRECTION ( 'NONE',  ( 0.0000000000000000000, 0.0000000000000000000, 1.000000000000000000 ) ) ;
#110 = CIRCLE ( 'NONE', #117, 4.000000000000000000 ) ;
#111 = DIRECTION ( 'NONE',  ( 1.000000000000000000, 0.0000000000000000000, 0.0000000000000000000 ) ) ;
#112 = ADVANCED_FACE ( 'NONE', ( #184 ), #121, .F. ) ;
#113 = PRODUCT_CONTEXT ( 'NONE', #169, 'mechanical' ) ;
#114 = SURFACE_STYLE_USAGE ( .BOTH. , #83 ) ;
#115 = CIRCLE ( 'NONE', #182, 9.000000000000000000 ) ;
#116 = ORIENTED_EDGE ( 'NONE', *, *, #44, .F. ) ;
#117 = AXIS2_PLACEMENT_3D ( 'NONE', #25, #158, #24 ) ;
#118 = AXIS2_PLACEMENT_3D ( 'NONE', #105, #95, #179 ) ;
#119 = CIRCLE ( 'NONE', #140, 9.000000000000000000 ) ;
#120 = PRESENTATION_LAYER_ASSIGNMENT (  '', '', ( #151 ) ) ;
#121 = CYLINDRICAL_SURFACE ( 'NONE', #162, 4.000000000000000000 ) ;
#122 = AXIS2_PLACEMENT_3D ( 'NONE', #155, #107, #157 ) ;
#123 = CARTESIAN_POINT ( 'NONE',  ( 0.0000000000000000000, 0.0000000000000000000, 6.000000000000000000 ) ) ;
#124 = CARTESIAN_POINT ( 'NONE',  ( 9.000000000000000000, 1.102182119232617714E-15, 6.000000000000000000 ) ) ;
#125 = FACE_OUTER_BOUND ( 'NONE', #126, .T. ) ;
#126 = EDGE_LOOP ( 'NONE', ( #146, #199, #20, #72 ) ) ;
#127 = DIRECTION ( 'NONE',  ( 1.000000000000000000, 0.0000000000000000000, 0.0000000000000000000 ) ) ;
#128 = CARTESIAN_POINT ( 'NONE',  ( 0.0000000000000000000, 0.0000000000000000000, 0.0000000000000000000 ) ) ;
#129 =( LENGTH_UNIT ( ) NAMED_UNIT ( * ) SI_UNIT ( .MILLI., .METRE. ) );
#130 = AXIS2_PLACEMENT_3D ( 'NONE', #148, #31, #145 ) ;
#131 =( NAMED_UNIT ( * ) SI_UNIT ( $, .STERADIAN. ) SOLID_ANGLE_UNIT ( ) );
#132 = UNCERTAINTY_MEASURE_WITH_UNIT (LENGTH_MEASURE( 1.000000000000000082E-05 ), #65, 'distance_accuracy_value', 'NONE');
#133 = ORIENTED_EDGE ( 'NONE', *, *, #23, .T. ) ;
#134 = EDGE_CURVE ( 'NONE', #39, #159, #97, .T. ) ;
#135 = PRODUCT_RELATED_PRODUCT_CATEGORY ( 'part', '', ( #3 ) ) ;
#136 = VECTOR ( 'NONE', #46, 1000.000000000000000 ) ;
#137 = EDGE_CURVE ( 'NONE', #69, #159, #35, .T. ) ;
#138 = VERTEX_POINT ( 'NONE', #8 ) ;
#139 = DIRECTION ( 'NONE',  ( 1.000000000000000000, 0.0000000000000000000, 0.0000000000000000000 ) ) ;
#140 = AXIS2_PLACEMENT_3D ( 'NONE', #206, #59, #40 ) ;
#141 = FACE_OUTER_BOUND ( 'NONE', #92, .T. ) ;
#142 = DIRECTION ( 'NONE',  ( -0.0000000000000000000, -0.0000000000000000000, -1.000000000000000000 ) ) ;
#143 =( NAMED_UNIT ( * ) SI_UNIT ( $, .STERADIAN. ) SOLID_ANGLE_UNIT ( ) );
#144 = ORIENTED_EDGE ( 'NONE', *, *, #90, .T. ) ;
#145 = DIRECTION ( 'NONE',  ( -1.000000000000000000, 0.0000000000000000000, 0.0000000000000000000 ) ) ;
#146 = ORIENTED_EDGE ( 'NONE', *, *, #90, .F. ) ;
#147 = ADVANCED_FACE ( 'NONE', ( #201 ), #180, .T. ) ;
#148 = CARTESIAN_POINT ( 'NONE',  ( 0.0000000000000000000, 0.0000000000000000000, 6.000000000000000000 ) ) ;
#149 = EDGE_CURVE ( 'NONE', #71, #138, #78, .T. ) ;
#150 = ORIENTED_EDGE ( 'NONE', *, *, #137, .F. ) ;
#151 = STYLED_ITEM ( 'NONE', ( #15 ), #100 ) ;
#152 = PRODUCT_DEFINITION_FORMATION_WITH_SPECIFIED_SOURCE ( 'ANY', '', #3, .NOT_KNOWN. ) ;
#153 = FACE_OUTER_BOUND ( 'NONE', #164, .T. ) ;
#154 = FILL_AREA_STYLE_COLOUR ( '', #1 ) ;
#155 = CARTESIAN_POINT ( 'NONE',  ( 0.0000000000000000000, 0.0000000000000000000, 6.000000000000000000 ) ) ;
#156 = MECHANICAL_DESIGN_GEOMETRIC_PRESENTATION_REPRESENTATION (  '', ( #74 ), #193 ) ;
#157 = DIRECTION ( 'NONE',  ( 1.000000000000000000, 0.0000000000000000000, -0.0000000000000000000 ) ) ;
#158 = DIRECTION ( 'NONE',  ( 0.0000000000000000000, 0.0000000000000000000, 1.000000000000000000 ) ) ;
#159 = VERTEX_POINT ( 'NONE', #207 ) ;
#160 = DIRECTION ( 'NONE',  ( 0.0000000000000000000, 0.0000000000000000000, 1.000000000000000000 ) ) ;
#161 = FILL_AREA_STYLE ('',( #154 ) ) ;
#162 = AXIS2_PLACEMENT_3D ( 'NONE', #192, #61, #177 ) ;
#163 = CARTESIAN_POINT ( 'NONE',  ( 0.0000000000000000000, 0.0000000000000000000, 6.000000000000000000 ) ) ;
#164 = EDGE_LOOP ( 'NONE', ( #133, #194 ) ) ;
#165 =( NAMED_UNIT ( * ) PLANE_ANGLE_UNIT ( ) SI_UNIT ( $, .RADIAN. ) );
#166 = DIRECTION ( 'NONE',  ( -1.000000000000000000, 0.0000000000000000000, 0.0000000000000000000 ) ) ;
#167 = APPLICATION_PROTOCOL_DEFINITION ( 'draft international standard', 'automotive_design', 1998, #169 ) ;
#168 = VERTEX_POINT ( 'NONE', #124 ) ;
#169 = APPLICATION_CONTEXT ( 'automotive_design' ) ;
#170 = ORIENTED_EDGE ( 'NONE', *, *, #44, .T. ) ;
#171 = SURFACE_STYLE_FILL_AREA ( #85 ) ;
#172 = CARTESIAN_POINT ( 'NONE',  ( 9.000000000000000000, 1.102182119232617714E-15, 0.0000000000000000000 ) ) ;
#173 = ADVANCED_FACE ( 'NONE', ( #141 ), #81, .F. ) ;
#174 = CARTESIAN_POINT ( 'NONE',  ( 4.000000000000000000, 4.898587196589412829E-16, 0.0000000000000000000 ) ) ;
#175 = CARTESIAN_POINT ( 'NONE',  ( 0.0000000000000000000, 0.0000000000000000000, 0.0000000000000000000 ) ) ;
#176 = DIRECTION ( 'NONE',  ( 1.000000000000000000, 0.0000000000000000000, 0.0000000000000000000 ) ) ;
#177 = DIRECTION ( 'NONE',  ( -1.000000000000000000, 0.0000000000000000000, 0.0000000000000000000 ) ) ;
#178 = CARTESIAN_POINT ( 'NONE',  ( 0.0000000000000000000, 0.0000000000000000000, 6.000000000000000000 ) ) ;
#179 = DIRECTION ( 'NONE',  ( 1.000000000000000000, 0.0000000000000000000, -0.0000000000000000000 ) ) ;
#180 = CYLINDRICAL_SURFACE ( 'NONE', #211, 9.000000000000000000 ) ;
#181 = CIRCLE ( 'NONE', #68, 4.000000000000000000 ) ;
#182 = AXIS2_PLACEMENT_3D ( 'NONE', #56, #203, #188 ) ;
#183 = ORIENTED_EDGE ( 'NONE', *, *, #73, .T. ) ;
#184 = FACE_OUTER_BOUND ( 'NONE', #214, .T. ) ;
#185 = AXIS2_PLACEMENT_3D ( 'NONE', #175, #189, #139 ) ;
#186 = PRODUCT_DEFINITION_SHAPE ( 'NONE', 'NONE',  #48 ) ;
#187 = LINE ( 'NONE', #104, #202 ) ;
#188 = DIRECTION ( 'NONE',  ( 1.000000000000000000, 0.0000000000000000000, 0.0000000000000000000 ) ) ;
#189 = DIRECTION ( 'NONE',  ( 0.0000000000000000000, 0.0000000000000000000, 1.000000000000000000 ) ) ;
#190 = SHAPE_DEFINITION_REPRESENTATION ( #186, #93 ) ;
#191 = VERTEX_POINT ( 'NONE', #208 ) ;
#192 = CARTESIAN_POINT ( 'NONE',  ( 0.0000000000000000000, 0.0000000000000000000, 6.000000000000000000 ) ) ;
#193 =( GEOMETRIC_REPRESENTATION_CONTEXT ( 3 ) GLOBAL_UNCERTAINTY_ASSIGNED_CONTEXT ( ( #132 ) ) GLOBAL_UNIT_ASSIGNED_CONTEXT ( ( #65, #80, #131 ) ) REPRESENTATION_CONTEXT ( 'NONE', 'WORKASPACE' ) );
#194 = ORIENTED_EDGE ( 'NONE', *, *, #37, .T. ) ;
#195 = CARTESIAN_POINT ( 'NONE',  ( 9.000000000000000000, 1.102182119232617714E-15, 6.000000000000000000 ) ) ;
#196 =( LENGTH_UNIT ( ) NAMED_UNIT ( * ) SI_UNIT ( .MILLI., .METRE. ) );
#197 = SURFACE_STYLE_FILL_AREA ( #161 ) ;
#198 = ORIENTED_EDGE ( 'NONE', *, *, #73, .F. ) ;
#199 = ORIENTED_EDGE ( 'NONE', *, *, #23, .F. ) ;
#200 = AXIS2_PLACEMENT_3D ( 'NONE', #163, #79, #43 ) ;
#201 = FACE_OUTER_BOUND ( 'NONE', #30, .T. ) ;
#202 = VECTOR ( 'NONE', #142, 1000.000000000000000 ) ;
#203 = DIRECTION ( 'NONE',  ( 0.0000000000000000000, 0.0000000000000000000, 1.000000000000000000 ) ) ;
#204 = PRODUCT_DEFINITION_CONTEXT ( 'detailed design', #16, 'design' ) ;
#205 = ORIENTED_EDGE ( 'NONE', *, *, #9, .F. ) ;
#206 = CARTESIAN_POINT ( 'NONE',  ( 0.0000000000000000000, 0.0000000000000000000, 6.000000000000000000 ) ) ;
#207 = CARTESIAN_POINT ( 'NONE',  ( -9.000000000000000000, 0.0000000000000000000, 0.0000000000000000000 ) ) ;
#208 = CARTESIAN_POINT ( 'NONE',  ( -4.000000000000000000, 0.0000000000000000000, 0.0000000000000000000 ) ) ;
#209 = ORIENTED_EDGE ( 'NONE', *, *, #213, .T. ) ;
#210 = CARTESIAN_POINT ( 'NONE',  ( 0.0000000000000000000, 0.0000000000000000000, 0.0000000000000000000 ) ) ;
#211 = AXIS2_PLACEMENT_3D ( 'NONE', #29, #62, #166 ) ;
#212 = DIRECTION ( 'NONE',  ( 1.000000000000000000, 0.0000000000000000000, 0.0000000000000000000 ) ) ;
#213 = EDGE_CURVE ( 'NONE', #71, #27, #88, .T. ) ;
#214 = EDGE_LOOP ( 'NONE', ( #183, #209, #116, #205 ) ) ;
ENDSEC;
END-ISO-10303-21;
