ISO-10303-21;
HEADER;
FILE_DESCRIPTION (( 'STEP AP214' ),
    '1' );
FILE_NAME ('entretoise roue bobber.STEP',
    '2018-04-27T08:21:26',
    ( '' ),
    ( '' ),
    'SwSTEP 2.0',
    'SolidWorks 2018',
    '' );
FILE_SCHEMA (( 'AUTOMOTIVE_DESIGN' ));
ENDSEC;

DATA;
#1 = CYLINDRICAL_SURFACE ( 'NONE', #164, 8.500000000000000000 ) ;
#2 = MECHANICAL_DESIGN_GEOMETRIC_PRESENTATION_REPRESENTATION (  '', ( #198 ), #62 ) ;
#3 = VERTEX_POINT ( 'NONE', #36 ) ;
#4 = COLOUR_RGB ( '',0.7921568627450980005, 0.8196078431372548767, 0.9333333333333333481 ) ;
#5 = CARTESIAN_POINT ( 'NONE',  ( 0.0000000000000000000, 0.0000000000000000000, 0.0000000000000000000 ) ) ;
#6 = CARTESIAN_POINT ( 'NONE',  ( -15.00000000000000000, 0.0000000000000000000, 6.000000000000000000 ) ) ;
#7 = SURFACE_SIDE_STYLE ('',( #84 ) ) ;
#8 = CARTESIAN_POINT ( 'NONE',  ( 8.500000000000000000, 1.040949779275250140E-15, 6.000000000000000000 ) ) ;
#9 =( NAMED_UNIT ( * ) SI_UNIT ( $, .STERADIAN. ) SOLID_ANGLE_UNIT ( ) );
#10 = DIRECTION ( 'NONE',  ( 1.000000000000000000, 0.0000000000000000000, 0.0000000000000000000 ) ) ;
#11 = CARTESIAN_POINT ( 'NONE',  ( 15.00000000000000000, 1.836970198721029589E-15, 6.000000000000000000 ) ) ;
#12 = FILL_AREA_STYLE_COLOUR ( '', #4 ) ;
#13 =( NAMED_UNIT ( * ) PLANE_ANGLE_UNIT ( ) SI_UNIT ( $, .RADIAN. ) );
#14 = DIRECTION ( 'NONE',  ( 1.000000000000000000, 0.0000000000000000000, 0.0000000000000000000 ) ) ;
#15 = CARTESIAN_POINT ( 'NONE',  ( 0.0000000000000000000, 0.0000000000000000000, 6.000000000000000000 ) ) ;
#16 = CARTESIAN_POINT ( 'NONE',  ( 0.0000000000000000000, 0.0000000000000000000, 0.0000000000000000000 ) ) ;
#17 = PRODUCT ( 'entretoise roue bobber', 'entretoise roue bobber', '', ( #209 ) ) ;
#18 = AXIS2_PLACEMENT_3D ( 'NONE', #205, #56, #206 ) ;
#19 = ORIENTED_EDGE ( 'NONE', *, *, #109, .F. ) ;
#20 = STYLED_ITEM ( 'NONE', ( #139 ), #149 ) ;
#21 = DIRECTION ( 'NONE',  ( -0.0000000000000000000, -0.0000000000000000000, -1.000000000000000000 ) ) ;
#22 = CLOSED_SHELL ( 'NONE', ( #208, #89, #145, #172, #72, #60 ) ) ;
#23 = CARTESIAN_POINT ( 'NONE',  ( 8.500000000000000000, 1.040949779275250140E-15, 6.000000000000000000 ) ) ;
#24 = AXIS2_PLACEMENT_3D ( 'NONE', #174, #35, #173 ) ;
#25 = FILL_AREA_STYLE ('',( #12 ) ) ;
#26 = ORIENTED_EDGE ( 'NONE', *, *, #133, .F. ) ;
#27 = CIRCLE ( 'NONE', #177, 15.00000000000000000 ) ;
#28 = AXIS2_PLACEMENT_3D ( 'NONE', #71, #191, #211 ) ;
#29 = VERTEX_POINT ( 'NONE', #158 ) ;
#30 = VERTEX_POINT ( 'NONE', #188 ) ;
#31 = PRESENTATION_LAYER_ASSIGNMENT (  '', '', ( #20 ) ) ;
#32 = ORIENTED_EDGE ( 'NONE', *, *, #167, .F. ) ;
#33 = FACE_BOUND ( 'NONE', #111, .T. ) ;
#34 = LINE ( 'NONE', #104, #210 ) ;
#35 = DIRECTION ( 'NONE',  ( 0.0000000000000000000, 0.0000000000000000000, 1.000000000000000000 ) ) ;
#36 = CARTESIAN_POINT ( 'NONE',  ( 15.00000000000000000, 1.836970198721029589E-15, 0.0000000000000000000 ) ) ;
#37 = DIRECTION ( 'NONE',  ( -0.0000000000000000000, -0.0000000000000000000, -1.000000000000000000 ) ) ;
#38 = ORIENTED_EDGE ( 'NONE', *, *, #212, .F. ) ;
#39 = FACE_OUTER_BOUND ( 'NONE', #64, .T. ) ;
#40 = DIRECTION ( 'NONE',  ( 0.0000000000000000000, 0.0000000000000000000, 1.000000000000000000 ) ) ;
#41 = DIRECTION ( 'NONE',  ( -0.0000000000000000000, -0.0000000000000000000, -1.000000000000000000 ) ) ;
#42 = EDGE_CURVE ( 'NONE', #148, #3, #165, .T. ) ;
#43 = VECTOR ( 'NONE', #114, 1000.000000000000000 ) ;
#44 =( GEOMETRIC_REPRESENTATION_CONTEXT ( 3 ) GLOBAL_UNCERTAINTY_ASSIGNED_CONTEXT ( ( #194 ) ) GLOBAL_UNIT_ASSIGNED_CONTEXT ( ( #58, #13, #147 ) ) REPRESENTATION_CONTEXT ( 'NONE', 'WORKASPACE' ) );
#45 = EDGE_CURVE ( 'NONE', #166, #30, #59, .T. ) ;
#46 = CIRCLE ( 'NONE', #183, 15.00000000000000000 ) ;
#47 = ORIENTED_EDGE ( 'NONE', *, *, #98, .F. ) ;
#48 = VECTOR ( 'NONE', #21, 1000.000000000000000 ) ;
#49 = AXIS2_PLACEMENT_3D ( 'NONE', #86, #53, #171 ) ;
#50 = CYLINDRICAL_SURFACE ( 'NONE', #18, 15.00000000000000000 ) ;
#51 =( GEOMETRIC_REPRESENTATION_CONTEXT ( 3 ) GLOBAL_UNCERTAINTY_ASSIGNED_CONTEXT ( ( #123 ) ) GLOBAL_UNIT_ASSIGNED_CONTEXT ( ( #102, #178, #117 ) ) REPRESENTATION_CONTEXT ( 'NONE', 'WORKASPACE' ) );
#52 = DIRECTION ( 'NONE',  ( 0.0000000000000000000, 0.0000000000000000000, 1.000000000000000000 ) ) ;
#53 = DIRECTION ( 'NONE',  ( 0.0000000000000000000, 0.0000000000000000000, 1.000000000000000000 ) ) ;
#54 = ORIENTED_EDGE ( 'NONE', *, *, #95, .F. ) ;
#55 = DIRECTION ( 'NONE',  ( 0.0000000000000000000, 0.0000000000000000000, 1.000000000000000000 ) ) ;
#56 = DIRECTION ( 'NONE',  ( -0.0000000000000000000, -0.0000000000000000000, -1.000000000000000000 ) ) ;
#57 = DIRECTION ( 'NONE',  ( 1.000000000000000000, 0.0000000000000000000, 0.0000000000000000000 ) ) ;
#58 =( LENGTH_UNIT ( ) NAMED_UNIT ( * ) SI_UNIT ( .MILLI., .METRE. ) );
#59 = LINE ( 'NONE', #90, #180 ) ;
#60 = ADVANCED_FACE ( 'NONE', ( #80 ), #1, .F. ) ;
#61 = ORIENTED_EDGE ( 'NONE', *, *, #122, .T. ) ;
#62 =( GEOMETRIC_REPRESENTATION_CONTEXT ( 3 ) GLOBAL_UNCERTAINTY_ASSIGNED_CONTEXT ( ( #196 ) ) GLOBAL_UNIT_ASSIGNED_CONTEXT ( ( #144, #73, #9 ) ) REPRESENTATION_CONTEXT ( 'NONE', 'WORKASPACE' ) );
#63 = ORIENTED_EDGE ( 'NONE', *, *, #45, .F. ) ;
#64 = EDGE_LOOP ( 'NONE', ( #175, #68 ) ) ;
#65 = AXIS2_PLACEMENT_3D ( 'NONE', #155, #37, #138 ) ;
#66 = FILL_AREA_STYLE ('',( #101 ) ) ;
#67 = APPLICATION_CONTEXT ( 'automotive_design' ) ;
#68 = ORIENTED_EDGE ( 'NONE', *, *, #122, .F. ) ;
#69 = AXIS2_PLACEMENT_3D ( 'NONE', #107, #200, #131 ) ;
#70 = COLOUR_RGB ( '',0.7921568627450980005, 0.8196078431372548767, 0.9333333333333333481 ) ;
#71 = CARTESIAN_POINT ( 'NONE',  ( 0.0000000000000000000, 0.0000000000000000000, 0.0000000000000000000 ) ) ;
#72 = ADVANCED_FACE ( 'NONE', ( #130 ), #169, .T. ) ;
#73 =( NAMED_UNIT ( * ) PLANE_ANGLE_UNIT ( ) SI_UNIT ( $, .RADIAN. ) );
#74 = PLANE ( 'NONE',  #193 ) ;
#75 = DIRECTION ( 'NONE',  ( 0.0000000000000000000, 0.0000000000000000000, 1.000000000000000000 ) ) ;
#76 = ORIENTED_EDGE ( 'NONE', *, *, #167, .T. ) ;
#77 = VERTEX_POINT ( 'NONE', #23 ) ;
#78 = CIRCLE ( 'NONE', #92, 15.00000000000000000 ) ;
#79 = PRODUCT_DEFINITION_CONTEXT ( 'detailed design', #67, 'design' ) ;
#80 = FACE_OUTER_BOUND ( 'NONE', #100, .T. ) ;
#81 = ORIENTED_EDGE ( 'NONE', *, *, #109, .T. ) ;
#82 = CIRCLE ( 'NONE', #69, 8.500000000000000000 ) ;
#83 = AXIS2_PLACEMENT_3D ( 'NONE', #154, #41, #192 ) ;
#84 = SURFACE_STYLE_FILL_AREA ( #66 ) ;
#85 = PRESENTATION_LAYER_ASSIGNMENT (  '', '', ( #198 ) ) ;
#86 = CARTESIAN_POINT ( 'NONE',  ( 0.0000000000000000000, 0.0000000000000000000, 6.000000000000000000 ) ) ;
#87 = APPLICATION_PROTOCOL_DEFINITION ( 'draft international standard', 'automotive_design', 1998, #157 ) ;
#88 = EDGE_LOOP ( 'NONE', ( #26, #32 ) ) ;
#89 = ADVANCED_FACE ( 'NONE', ( #124 ), #50, .T. ) ;
#90 = CARTESIAN_POINT ( 'NONE',  ( -8.500000000000000000, 0.0000000000000000000, 6.000000000000000000 ) ) ;
#91 = CARTESIAN_POINT ( 'NONE',  ( 0.0000000000000000000, 0.0000000000000000000, 0.0000000000000000000 ) ) ;
#92 = AXIS2_PLACEMENT_3D ( 'NONE', #103, #115, #10 ) ;
#93 = CARTESIAN_POINT ( 'NONE',  ( 0.0000000000000000000, 0.0000000000000000000, 0.0000000000000000000 ) ) ;
#94 = ORIENTED_EDGE ( 'NONE', *, *, #45, .T. ) ;
#95 = EDGE_CURVE ( 'NONE', #199, #3, #34, .T. ) ;
#96 = ADVANCED_BREP_SHAPE_REPRESENTATION ( 'entretoise roue bobber', ( #149, #132 ), #51 ) ;
#97 = CIRCLE ( 'NONE', #24, 8.500000000000000000 ) ;
#98 = EDGE_CURVE ( 'NONE', #128, #148, #184, .T. ) ;
#99 = PLANE ( 'NONE',  #49 ) ;
#100 = EDGE_LOOP ( 'NONE', ( #201, #76, #94, #106 ) ) ;
#101 = FILL_AREA_STYLE_COLOUR ( '', #70 ) ;
#102 =( LENGTH_UNIT ( ) NAMED_UNIT ( * ) SI_UNIT ( .MILLI., .METRE. ) );
#103 = CARTESIAN_POINT ( 'NONE',  ( 0.0000000000000000000, 0.0000000000000000000, 6.000000000000000000 ) ) ;
#104 = CARTESIAN_POINT ( 'NONE',  ( 15.00000000000000000, 1.836970198721029589E-15, 6.000000000000000000 ) ) ;
#105 = ORIENTED_EDGE ( 'NONE', *, *, #140, .T. ) ;
#106 = ORIENTED_EDGE ( 'NONE', *, *, #151, .F. ) ;
#107 = CARTESIAN_POINT ( 'NONE',  ( 0.0000000000000000000, 0.0000000000000000000, 6.000000000000000000 ) ) ;
#108 = EDGE_LOOP ( 'NONE', ( #54, #38, #160, #152 ) ) ;
#109 = EDGE_CURVE ( 'NONE', #30, #29, #129, .T. ) ;
#110 = PRODUCT_DEFINITION ( 'UNKNOWN', '', #163, #79 ) ;
#111 = EDGE_LOOP ( 'NONE', ( #81, #146 ) ) ;
#112 = ORIENTED_EDGE ( 'NONE', *, *, #127, .T. ) ;
#113 = DIRECTION ( 'NONE',  ( 1.000000000000000000, 0.0000000000000000000, 0.0000000000000000000 ) ) ;
#114 = DIRECTION ( 'NONE',  ( -0.0000000000000000000, -0.0000000000000000000, -1.000000000000000000 ) ) ;
#115 = DIRECTION ( 'NONE',  ( 0.0000000000000000000, 0.0000000000000000000, 1.000000000000000000 ) ) ;
#116 = PRODUCT_DEFINITION_SHAPE ( 'NONE', 'NONE',  #110 ) ;
#117 =( NAMED_UNIT ( * ) SI_UNIT ( $, .STERADIAN. ) SOLID_ANGLE_UNIT ( ) );
#118 = CARTESIAN_POINT ( 'NONE',  ( -15.00000000000000000, 0.0000000000000000000, 0.0000000000000000000 ) ) ;
#119 = ORIENTED_EDGE ( 'NONE', *, *, #140, .F. ) ;
#120 = FACE_OUTER_BOUND ( 'NONE', #186, .T. ) ;
#121 = DIRECTION ( 'NONE',  ( 0.0000000000000000000, 0.0000000000000000000, 1.000000000000000000 ) ) ;
#122 = EDGE_CURVE ( 'NONE', #3, #148, #46, .T. ) ;
#123 = UNCERTAINTY_MEASURE_WITH_UNIT (LENGTH_MEASURE( 1.000000000000000082E-05 ), #102, 'distance_accuracy_value', 'NONE');
#124 = FACE_OUTER_BOUND ( 'NONE', #213, .T. ) ;
#125 = SHAPE_DEFINITION_REPRESENTATION ( #116, #96 ) ;
#126 = DIRECTION ( 'NONE',  ( -0.0000000000000000000, -0.0000000000000000000, -1.000000000000000000 ) ) ;
#127 = EDGE_CURVE ( 'NONE', #77, #29, #207, .T. ) ;
#128 = VERTEX_POINT ( 'NONE', #141 ) ;
#129 = CIRCLE ( 'NONE', #176, 8.500000000000000000 ) ;
#130 = FACE_OUTER_BOUND ( 'NONE', #108, .T. ) ;
#131 = DIRECTION ( 'NONE',  ( 1.000000000000000000, 0.0000000000000000000, 0.0000000000000000000 ) ) ;
#132 = AXIS2_PLACEMENT_3D ( 'NONE', #91, #55, #57 ) ;
#133 = EDGE_CURVE ( 'NONE', #166, #77, #97, .T. ) ;
#134 = FACE_OUTER_BOUND ( 'NONE', #202, .T. ) ;
#135 = DIRECTION ( 'NONE',  ( 0.0000000000000000000, 0.0000000000000000000, 1.000000000000000000 ) ) ;
#136 = DIRECTION ( 'NONE',  ( 1.000000000000000000, 0.0000000000000000000, 0.0000000000000000000 ) ) ;
#137 = ORIENTED_EDGE ( 'NONE', *, *, #95, .T. ) ;
#138 = DIRECTION ( 'NONE',  ( -1.000000000000000000, 0.0000000000000000000, 0.0000000000000000000 ) ) ;
#139 = PRESENTATION_STYLE_ASSIGNMENT (( #179 ) ) ;
#140 = EDGE_CURVE ( 'NONE', #199, #128, #78, .T. ) ;
#141 = CARTESIAN_POINT ( 'NONE',  ( -15.00000000000000000, 0.0000000000000000000, 6.000000000000000000 ) ) ;
#142 = SURFACE_SIDE_STYLE ('',( #161 ) ) ;
#143 = AXIS2_PLACEMENT_3D ( 'NONE', #93, #75, #14 ) ;
#144 =( LENGTH_UNIT ( ) NAMED_UNIT ( * ) SI_UNIT ( .MILLI., .METRE. ) );
#145 = ADVANCED_FACE ( 'NONE', ( #120, #187 ), #99, .T. ) ;
#146 = ORIENTED_EDGE ( 'NONE', *, *, #151, .T. ) ;
#147 =( NAMED_UNIT ( * ) SI_UNIT ( $, .STERADIAN. ) SOLID_ANGLE_UNIT ( ) );
#148 = VERTEX_POINT ( 'NONE', #118 ) ;
#149 = MANIFOLD_SOLID_BREP ( 'Boss.-Extru.1', #22 ) ;
#150 = ORIENTED_EDGE ( 'NONE', *, *, #133, .T. ) ;
#151 = EDGE_CURVE ( 'NONE', #29, #30, #185, .T. ) ;
#152 = ORIENTED_EDGE ( 'NONE', *, *, #42, .T. ) ;
#153 = CARTESIAN_POINT ( 'NONE',  ( 0.0000000000000000000, 0.0000000000000000000, 0.0000000000000000000 ) ) ;
#154 = CARTESIAN_POINT ( 'NONE',  ( 0.0000000000000000000, 0.0000000000000000000, 6.000000000000000000 ) ) ;
#155 = CARTESIAN_POINT ( 'NONE',  ( 0.0000000000000000000, 0.0000000000000000000, 6.000000000000000000 ) ) ;
#156 = SURFACE_STYLE_USAGE ( .BOTH. , #7 ) ;
#157 = APPLICATION_CONTEXT ( 'automotive_design' ) ;
#158 = CARTESIAN_POINT ( 'NONE',  ( 8.500000000000000000, 1.040949779275250140E-15, 0.0000000000000000000 ) ) ;
#159 = CARTESIAN_POINT ( 'NONE',  ( 0.0000000000000000000, 0.0000000000000000000, 6.000000000000000000 ) ) ;
#160 = ORIENTED_EDGE ( 'NONE', *, *, #98, .T. ) ;
#161 = SURFACE_STYLE_FILL_AREA ( #25 ) ;
#162 = DIRECTION ( 'NONE',  ( -0.0000000000000000000, -0.0000000000000000000, -1.000000000000000000 ) ) ;
#163 = PRODUCT_DEFINITION_FORMATION_WITH_SPECIFIED_SOURCE ( 'ANY', '', #17, .NOT_KNOWN. ) ;
#164 = AXIS2_PLACEMENT_3D ( 'NONE', #15, #126, #182 ) ;
#165 = CIRCLE ( 'NONE', #28, 15.00000000000000000 ) ;
#166 = VERTEX_POINT ( 'NONE', #181 ) ;
#167 = EDGE_CURVE ( 'NONE', #77, #166, #82, .T. ) ;
#168 = DIRECTION ( 'NONE',  ( 1.000000000000000000, 0.0000000000000000000, -0.0000000000000000000 ) ) ;
#169 = CYLINDRICAL_SURFACE ( 'NONE', #65, 15.00000000000000000 ) ;
#170 = PRODUCT_RELATED_PRODUCT_CATEGORY ( 'part', '', ( #17 ) ) ;
#171 = DIRECTION ( 'NONE',  ( 1.000000000000000000, 0.0000000000000000000, -0.0000000000000000000 ) ) ;
#172 = ADVANCED_FACE ( 'NONE', ( #39, #33 ), #74, .F. ) ;
#173 = DIRECTION ( 'NONE',  ( 1.000000000000000000, 0.0000000000000000000, 0.0000000000000000000 ) ) ;
#174 = CARTESIAN_POINT ( 'NONE',  ( 0.0000000000000000000, 0.0000000000000000000, 6.000000000000000000 ) ) ;
#175 = ORIENTED_EDGE ( 'NONE', *, *, #42, .F. ) ;
#176 = AXIS2_PLACEMENT_3D ( 'NONE', #153, #52, #204 ) ;
#177 = AXIS2_PLACEMENT_3D ( 'NONE', #159, #40, #136 ) ;
#178 =( NAMED_UNIT ( * ) PLANE_ANGLE_UNIT ( ) SI_UNIT ( $, .RADIAN. ) );
#179 = SURFACE_STYLE_USAGE ( .BOTH. , #142 ) ;
#180 = VECTOR ( 'NONE', #162, 1000.000000000000000 ) ;
#181 = CARTESIAN_POINT ( 'NONE',  ( -8.500000000000000000, 0.0000000000000000000, 6.000000000000000000 ) ) ;
#182 = DIRECTION ( 'NONE',  ( -1.000000000000000000, 0.0000000000000000000, 0.0000000000000000000 ) ) ;
#183 = AXIS2_PLACEMENT_3D ( 'NONE', #5, #121, #113 ) ;
#184 = LINE ( 'NONE', #6, #43 ) ;
#185 = CIRCLE ( 'NONE', #143, 8.500000000000000000 ) ;
#186 = EDGE_LOOP ( 'NONE', ( #195, #105 ) ) ;
#187 = FACE_BOUND ( 'NONE', #88, .T. ) ;
#188 = CARTESIAN_POINT ( 'NONE',  ( -8.500000000000000000, 0.0000000000000000000, 0.0000000000000000000 ) ) ;
#189 = MECHANICAL_DESIGN_GEOMETRIC_PRESENTATION_REPRESENTATION (  '', ( #20 ), #44 ) ;
#190 = APPLICATION_PROTOCOL_DEFINITION ( 'draft international standard', 'automotive_design', 1998, #67 ) ;
#191 = DIRECTION ( 'NONE',  ( 0.0000000000000000000, 0.0000000000000000000, 1.000000000000000000 ) ) ;
#192 = DIRECTION ( 'NONE',  ( -1.000000000000000000, 0.0000000000000000000, 0.0000000000000000000 ) ) ;
#193 = AXIS2_PLACEMENT_3D ( 'NONE', #16, #135, #168 ) ;
#194 = UNCERTAINTY_MEASURE_WITH_UNIT (LENGTH_MEASURE( 1.000000000000000082E-05 ), #58, 'distance_accuracy_value', 'NONE');
#195 = ORIENTED_EDGE ( 'NONE', *, *, #212, .T. ) ;
#196 = UNCERTAINTY_MEASURE_WITH_UNIT (LENGTH_MEASURE( 1.000000000000000082E-05 ), #144, 'distance_accuracy_value', 'NONE');
#197 = PRESENTATION_STYLE_ASSIGNMENT (( #156 ) ) ;
#198 = STYLED_ITEM ( 'NONE', ( #197 ), #96 ) ;
#199 = VERTEX_POINT ( 'NONE', #11 ) ;
#200 = DIRECTION ( 'NONE',  ( 0.0000000000000000000, 0.0000000000000000000, 1.000000000000000000 ) ) ;
#201 = ORIENTED_EDGE ( 'NONE', *, *, #127, .F. ) ;
#202 = EDGE_LOOP ( 'NONE', ( #150, #112, #19, #63 ) ) ;
#203 = DIRECTION ( 'NONE',  ( -0.0000000000000000000, -0.0000000000000000000, -1.000000000000000000 ) ) ;
#204 = DIRECTION ( 'NONE',  ( 1.000000000000000000, 0.0000000000000000000, 0.0000000000000000000 ) ) ;
#205 = CARTESIAN_POINT ( 'NONE',  ( 0.0000000000000000000, 0.0000000000000000000, 6.000000000000000000 ) ) ;
#206 = DIRECTION ( 'NONE',  ( -1.000000000000000000, 0.0000000000000000000, 0.0000000000000000000 ) ) ;
#207 = LINE ( 'NONE', #8, #48 ) ;
#208 = ADVANCED_FACE ( 'NONE', ( #134 ), #214, .F. ) ;
#209 = PRODUCT_CONTEXT ( 'NONE', #157, 'mechanical' ) ;
#210 = VECTOR ( 'NONE', #203, 1000.000000000000000 ) ;
#211 = DIRECTION ( 'NONE',  ( 1.000000000000000000, 0.0000000000000000000, 0.0000000000000000000 ) ) ;
#212 = EDGE_CURVE ( 'NONE', #128, #199, #27, .T. ) ;
#213 = EDGE_LOOP ( 'NONE', ( #119, #137, #61, #47 ) ) ;
#214 = CYLINDRICAL_SURFACE ( 'NONE', #83, 8.500000000000000000 ) ;
ENDSEC;
END-ISO-10303-21;
