ISO-10303-21;
HEADER;
/* Generated by software containing ST-Developer
 * from STEP Tools, Inc. (www.steptools.com) 
 */

FILE_DESCRIPTION(
/* description */ (''),
/* implementation_level */ '2;1');

FILE_NAME(
/* name */ 
'C:/Users/Giovanni/Dropbox/Progetti/Bande Metallique/bande-metal.step',

/* time_stamp */ '2018-04-18T15:20:36+02:00',
/* author */ ('gmalagnino'),
/* organization */ (''),
/* preprocessor_version */ 'ST-DEVELOPER v17',
/* originating_system */ 'Autodesk Translation Framework v7.1.0.215',
/* authorisation */ '');

FILE_SCHEMA (('AUTOMOTIVE_DESIGN { 1 0 10303 214 3 1 1 }'));
ENDSEC;

DATA;
#10=MECHANICAL_DESIGN_GEOMETRIC_PRESENTATION_REPRESENTATION('',(#13),#455);
#11=SHAPE_REPRESENTATION_RELATIONSHIP('SRR','None',#462,#12);
#12=ADVANCED_BREP_SHAPE_REPRESENTATION('',(#14),#454);
#13=STYLED_ITEM('',(#471),#14);
#14=MANIFOLD_SOLID_BREP('Body1',#283);
#15=FACE_BOUND('',#46,.T.);
#16=FACE_BOUND('',#47,.T.);
#17=FACE_BOUND('',#49,.T.);
#18=FACE_BOUND('',#50,.T.);
#19=FACE_OUTER_BOUND('',#33,.T.);
#20=FACE_OUTER_BOUND('',#34,.T.);
#21=FACE_OUTER_BOUND('',#35,.T.);
#22=FACE_OUTER_BOUND('',#36,.T.);
#23=FACE_OUTER_BOUND('',#37,.T.);
#24=FACE_OUTER_BOUND('',#38,.T.);
#25=FACE_OUTER_BOUND('',#39,.T.);
#26=FACE_OUTER_BOUND('',#40,.T.);
#27=FACE_OUTER_BOUND('',#41,.T.);
#28=FACE_OUTER_BOUND('',#42,.T.);
#29=FACE_OUTER_BOUND('',#43,.T.);
#30=FACE_OUTER_BOUND('',#44,.T.);
#31=FACE_OUTER_BOUND('',#45,.T.);
#32=FACE_OUTER_BOUND('',#48,.T.);
#33=EDGE_LOOP('',(#183,#184,#185,#186));
#34=EDGE_LOOP('',(#187,#188,#189,#190));
#35=EDGE_LOOP('',(#191,#192,#193,#194));
#36=EDGE_LOOP('',(#195,#196,#197,#198));
#37=EDGE_LOOP('',(#199,#200,#201,#202));
#38=EDGE_LOOP('',(#203,#204,#205,#206));
#39=EDGE_LOOP('',(#207,#208,#209,#210));
#40=EDGE_LOOP('',(#211,#212,#213,#214));
#41=EDGE_LOOP('',(#215,#216,#217,#218));
#42=EDGE_LOOP('',(#219,#220,#221,#222));
#43=EDGE_LOOP('',(#223,#224,#225,#226));
#44=EDGE_LOOP('',(#227,#228,#229,#230));
#45=EDGE_LOOP('',(#231,#232,#233,#234));
#46=EDGE_LOOP('',(#235,#236,#237,#238));
#47=EDGE_LOOP('',(#239,#240,#241,#242));
#48=EDGE_LOOP('',(#243,#244,#245,#246));
#49=EDGE_LOOP('',(#247,#248,#249,#250));
#50=EDGE_LOOP('',(#251,#252,#253,#254));
#51=LINE('',#381,#87);
#52=LINE('',#383,#88);
#53=LINE('',#385,#89);
#54=LINE('',#386,#90);
#55=LINE('',#389,#91);
#56=LINE('',#391,#92);
#57=LINE('',#392,#93);
#58=LINE('',#395,#94);
#59=LINE('',#397,#95);
#60=LINE('',#398,#96);
#61=LINE('',#400,#97);
#62=LINE('',#401,#98);
#63=LINE('',#405,#99);
#64=LINE('',#407,#100);
#65=LINE('',#409,#101);
#66=LINE('',#410,#102);
#67=LINE('',#413,#103);
#68=LINE('',#415,#104);
#69=LINE('',#416,#105);
#70=LINE('',#419,#106);
#71=LINE('',#421,#107);
#72=LINE('',#422,#108);
#73=LINE('',#424,#109);
#74=LINE('',#425,#110);
#75=LINE('',#429,#111);
#76=LINE('',#431,#112);
#77=LINE('',#433,#113);
#78=LINE('',#434,#114);
#79=LINE('',#437,#115);
#80=LINE('',#439,#116);
#81=LINE('',#440,#117);
#82=LINE('',#443,#118);
#83=LINE('',#445,#119);
#84=LINE('',#446,#120);
#85=LINE('',#448,#121);
#86=LINE('',#449,#122);
#87=VECTOR('',#315,10.);
#88=VECTOR('',#316,10.);
#89=VECTOR('',#317,10.);
#90=VECTOR('',#318,10.);
#91=VECTOR('',#321,10.);
#92=VECTOR('',#322,10.);
#93=VECTOR('',#323,10.);
#94=VECTOR('',#326,10.);
#95=VECTOR('',#327,10.);
#96=VECTOR('',#328,10.);
#97=VECTOR('',#331,10.);
#98=VECTOR('',#332,10.);
#99=VECTOR('',#335,10.);
#100=VECTOR('',#336,10.);
#101=VECTOR('',#337,10.);
#102=VECTOR('',#338,10.);
#103=VECTOR('',#341,10.);
#104=VECTOR('',#342,10.);
#105=VECTOR('',#343,10.);
#106=VECTOR('',#346,10.);
#107=VECTOR('',#347,10.);
#108=VECTOR('',#348,10.);
#109=VECTOR('',#351,10.);
#110=VECTOR('',#352,10.);
#111=VECTOR('',#355,10.);
#112=VECTOR('',#356,10.);
#113=VECTOR('',#357,10.);
#114=VECTOR('',#358,10.);
#115=VECTOR('',#361,10.);
#116=VECTOR('',#362,10.);
#117=VECTOR('',#363,10.);
#118=VECTOR('',#366,10.);
#119=VECTOR('',#367,10.);
#120=VECTOR('',#368,10.);
#121=VECTOR('',#371,10.);
#122=VECTOR('',#372,10.);
#123=VERTEX_POINT('',#379);
#124=VERTEX_POINT('',#380);
#125=VERTEX_POINT('',#382);
#126=VERTEX_POINT('',#384);
#127=VERTEX_POINT('',#388);
#128=VERTEX_POINT('',#390);
#129=VERTEX_POINT('',#394);
#130=VERTEX_POINT('',#396);
#131=VERTEX_POINT('',#403);
#132=VERTEX_POINT('',#404);
#133=VERTEX_POINT('',#406);
#134=VERTEX_POINT('',#408);
#135=VERTEX_POINT('',#412);
#136=VERTEX_POINT('',#414);
#137=VERTEX_POINT('',#418);
#138=VERTEX_POINT('',#420);
#139=VERTEX_POINT('',#427);
#140=VERTEX_POINT('',#428);
#141=VERTEX_POINT('',#430);
#142=VERTEX_POINT('',#432);
#143=VERTEX_POINT('',#436);
#144=VERTEX_POINT('',#438);
#145=VERTEX_POINT('',#442);
#146=VERTEX_POINT('',#444);
#147=EDGE_CURVE('',#123,#124,#51,.T.);
#148=EDGE_CURVE('',#125,#123,#52,.T.);
#149=EDGE_CURVE('',#126,#125,#53,.T.);
#150=EDGE_CURVE('',#126,#124,#54,.T.);
#151=EDGE_CURVE('',#124,#127,#55,.T.);
#152=EDGE_CURVE('',#128,#126,#56,.T.);
#153=EDGE_CURVE('',#128,#127,#57,.T.);
#154=EDGE_CURVE('',#127,#129,#58,.T.);
#155=EDGE_CURVE('',#130,#128,#59,.T.);
#156=EDGE_CURVE('',#130,#129,#60,.T.);
#157=EDGE_CURVE('',#129,#123,#61,.T.);
#158=EDGE_CURVE('',#125,#130,#62,.T.);
#159=EDGE_CURVE('',#131,#132,#63,.T.);
#160=EDGE_CURVE('',#133,#131,#64,.T.);
#161=EDGE_CURVE('',#134,#133,#65,.T.);
#162=EDGE_CURVE('',#134,#132,#66,.T.);
#163=EDGE_CURVE('',#132,#135,#67,.T.);
#164=EDGE_CURVE('',#136,#134,#68,.T.);
#165=EDGE_CURVE('',#136,#135,#69,.T.);
#166=EDGE_CURVE('',#135,#137,#70,.T.);
#167=EDGE_CURVE('',#138,#136,#71,.T.);
#168=EDGE_CURVE('',#138,#137,#72,.T.);
#169=EDGE_CURVE('',#137,#131,#73,.T.);
#170=EDGE_CURVE('',#133,#138,#74,.T.);
#171=EDGE_CURVE('',#139,#140,#75,.T.);
#172=EDGE_CURVE('',#139,#141,#76,.T.);
#173=EDGE_CURVE('',#142,#141,#77,.T.);
#174=EDGE_CURVE('',#140,#142,#78,.T.);
#175=EDGE_CURVE('',#140,#143,#79,.T.);
#176=EDGE_CURVE('',#144,#142,#80,.T.);
#177=EDGE_CURVE('',#143,#144,#81,.T.);
#178=EDGE_CURVE('',#143,#145,#82,.T.);
#179=EDGE_CURVE('',#146,#144,#83,.T.);
#180=EDGE_CURVE('',#145,#146,#84,.T.);
#181=EDGE_CURVE('',#145,#139,#85,.T.);
#182=EDGE_CURVE('',#141,#146,#86,.T.);
#183=ORIENTED_EDGE('',*,*,#147,.F.);
#184=ORIENTED_EDGE('',*,*,#148,.F.);
#185=ORIENTED_EDGE('',*,*,#149,.F.);
#186=ORIENTED_EDGE('',*,*,#150,.T.);
#187=ORIENTED_EDGE('',*,*,#151,.F.);
#188=ORIENTED_EDGE('',*,*,#150,.F.);
#189=ORIENTED_EDGE('',*,*,#152,.F.);
#190=ORIENTED_EDGE('',*,*,#153,.T.);
#191=ORIENTED_EDGE('',*,*,#154,.F.);
#192=ORIENTED_EDGE('',*,*,#153,.F.);
#193=ORIENTED_EDGE('',*,*,#155,.F.);
#194=ORIENTED_EDGE('',*,*,#156,.T.);
#195=ORIENTED_EDGE('',*,*,#157,.F.);
#196=ORIENTED_EDGE('',*,*,#156,.F.);
#197=ORIENTED_EDGE('',*,*,#158,.F.);
#198=ORIENTED_EDGE('',*,*,#148,.T.);
#199=ORIENTED_EDGE('',*,*,#159,.F.);
#200=ORIENTED_EDGE('',*,*,#160,.F.);
#201=ORIENTED_EDGE('',*,*,#161,.F.);
#202=ORIENTED_EDGE('',*,*,#162,.T.);
#203=ORIENTED_EDGE('',*,*,#163,.F.);
#204=ORIENTED_EDGE('',*,*,#162,.F.);
#205=ORIENTED_EDGE('',*,*,#164,.F.);
#206=ORIENTED_EDGE('',*,*,#165,.T.);
#207=ORIENTED_EDGE('',*,*,#166,.F.);
#208=ORIENTED_EDGE('',*,*,#165,.F.);
#209=ORIENTED_EDGE('',*,*,#167,.F.);
#210=ORIENTED_EDGE('',*,*,#168,.T.);
#211=ORIENTED_EDGE('',*,*,#169,.F.);
#212=ORIENTED_EDGE('',*,*,#168,.F.);
#213=ORIENTED_EDGE('',*,*,#170,.F.);
#214=ORIENTED_EDGE('',*,*,#160,.T.);
#215=ORIENTED_EDGE('',*,*,#171,.F.);
#216=ORIENTED_EDGE('',*,*,#172,.T.);
#217=ORIENTED_EDGE('',*,*,#173,.F.);
#218=ORIENTED_EDGE('',*,*,#174,.F.);
#219=ORIENTED_EDGE('',*,*,#175,.F.);
#220=ORIENTED_EDGE('',*,*,#174,.T.);
#221=ORIENTED_EDGE('',*,*,#176,.F.);
#222=ORIENTED_EDGE('',*,*,#177,.F.);
#223=ORIENTED_EDGE('',*,*,#178,.F.);
#224=ORIENTED_EDGE('',*,*,#177,.T.);
#225=ORIENTED_EDGE('',*,*,#179,.F.);
#226=ORIENTED_EDGE('',*,*,#180,.F.);
#227=ORIENTED_EDGE('',*,*,#181,.F.);
#228=ORIENTED_EDGE('',*,*,#180,.T.);
#229=ORIENTED_EDGE('',*,*,#182,.F.);
#230=ORIENTED_EDGE('',*,*,#172,.F.);
#231=ORIENTED_EDGE('',*,*,#182,.T.);
#232=ORIENTED_EDGE('',*,*,#179,.T.);
#233=ORIENTED_EDGE('',*,*,#176,.T.);
#234=ORIENTED_EDGE('',*,*,#173,.T.);
#235=ORIENTED_EDGE('',*,*,#149,.T.);
#236=ORIENTED_EDGE('',*,*,#158,.T.);
#237=ORIENTED_EDGE('',*,*,#155,.T.);
#238=ORIENTED_EDGE('',*,*,#152,.T.);
#239=ORIENTED_EDGE('',*,*,#161,.T.);
#240=ORIENTED_EDGE('',*,*,#170,.T.);
#241=ORIENTED_EDGE('',*,*,#167,.T.);
#242=ORIENTED_EDGE('',*,*,#164,.T.);
#243=ORIENTED_EDGE('',*,*,#181,.T.);
#244=ORIENTED_EDGE('',*,*,#171,.T.);
#245=ORIENTED_EDGE('',*,*,#175,.T.);
#246=ORIENTED_EDGE('',*,*,#178,.T.);
#247=ORIENTED_EDGE('',*,*,#147,.T.);
#248=ORIENTED_EDGE('',*,*,#151,.T.);
#249=ORIENTED_EDGE('',*,*,#154,.T.);
#250=ORIENTED_EDGE('',*,*,#157,.T.);
#251=ORIENTED_EDGE('',*,*,#159,.T.);
#252=ORIENTED_EDGE('',*,*,#163,.T.);
#253=ORIENTED_EDGE('',*,*,#166,.T.);
#254=ORIENTED_EDGE('',*,*,#169,.T.);
#255=PLANE('',#297);
#256=PLANE('',#298);
#257=PLANE('',#299);
#258=PLANE('',#300);
#259=PLANE('',#301);
#260=PLANE('',#302);
#261=PLANE('',#303);
#262=PLANE('',#304);
#263=PLANE('',#305);
#264=PLANE('',#306);
#265=PLANE('',#307);
#266=PLANE('',#308);
#267=PLANE('',#309);
#268=PLANE('',#310);
#269=ADVANCED_FACE('',(#19),#255,.F.);
#270=ADVANCED_FACE('',(#20),#256,.F.);
#271=ADVANCED_FACE('',(#21),#257,.F.);
#272=ADVANCED_FACE('',(#22),#258,.F.);
#273=ADVANCED_FACE('',(#23),#259,.F.);
#274=ADVANCED_FACE('',(#24),#260,.F.);
#275=ADVANCED_FACE('',(#25),#261,.F.);
#276=ADVANCED_FACE('',(#26),#262,.F.);
#277=ADVANCED_FACE('',(#27),#263,.T.);
#278=ADVANCED_FACE('',(#28),#264,.T.);
#279=ADVANCED_FACE('',(#29),#265,.T.);
#280=ADVANCED_FACE('',(#30),#266,.T.);
#281=ADVANCED_FACE('',(#31,#15,#16),#267,.T.);
#282=ADVANCED_FACE('',(#32,#17,#18),#268,.F.);
#283=CLOSED_SHELL('',(#269,#270,#271,#272,#273,#274,#275,#276,#277,#278,
#279,#280,#281,#282));
#284=DERIVED_UNIT_ELEMENT(#286,1.);
#285=DERIVED_UNIT_ELEMENT(#457,3.);
#286=(
MASS_UNIT()
NAMED_UNIT(*)
SI_UNIT(.KILO.,.GRAM.)
);
#287=DERIVED_UNIT((#284,#285));
#288=MEASURE_REPRESENTATION_ITEM('density measure',
POSITIVE_RATIO_MEASURE(7850.),#287);
#289=PROPERTY_DEFINITION_REPRESENTATION(#294,#291);
#290=PROPERTY_DEFINITION_REPRESENTATION(#295,#292);
#291=REPRESENTATION('material name',(#293),#454);
#292=REPRESENTATION('density',(#288),#454);
#293=DESCRIPTIVE_REPRESENTATION_ITEM('Steel','Steel');
#294=PROPERTY_DEFINITION('material property','material name',#464);
#295=PROPERTY_DEFINITION('material property','density of part',#464);
#296=AXIS2_PLACEMENT_3D('placement',#377,#311,#312);
#297=AXIS2_PLACEMENT_3D('',#378,#313,#314);
#298=AXIS2_PLACEMENT_3D('',#387,#319,#320);
#299=AXIS2_PLACEMENT_3D('',#393,#324,#325);
#300=AXIS2_PLACEMENT_3D('',#399,#329,#330);
#301=AXIS2_PLACEMENT_3D('',#402,#333,#334);
#302=AXIS2_PLACEMENT_3D('',#411,#339,#340);
#303=AXIS2_PLACEMENT_3D('',#417,#344,#345);
#304=AXIS2_PLACEMENT_3D('',#423,#349,#350);
#305=AXIS2_PLACEMENT_3D('',#426,#353,#354);
#306=AXIS2_PLACEMENT_3D('',#435,#359,#360);
#307=AXIS2_PLACEMENT_3D('',#441,#364,#365);
#308=AXIS2_PLACEMENT_3D('',#447,#369,#370);
#309=AXIS2_PLACEMENT_3D('',#450,#373,#374);
#310=AXIS2_PLACEMENT_3D('',#451,#375,#376);
#311=DIRECTION('axis',(0.,0.,1.));
#312=DIRECTION('refdir',(1.,0.,0.));
#313=DIRECTION('center_axis',(-1.,0.,0.));
#314=DIRECTION('ref_axis',(0.,0.,-1.));
#315=DIRECTION('',(0.,0.,1.));
#316=DIRECTION('',(0.,-1.,0.));
#317=DIRECTION('',(0.,0.,-1.));
#318=DIRECTION('',(0.,-1.,0.));
#319=DIRECTION('center_axis',(0.,0.,1.));
#320=DIRECTION('ref_axis',(-1.,0.,0.));
#321=DIRECTION('',(1.,0.,0.));
#322=DIRECTION('',(-1.,0.,0.));
#323=DIRECTION('',(0.,-1.,0.));
#324=DIRECTION('center_axis',(1.,0.,0.));
#325=DIRECTION('ref_axis',(0.,0.,1.));
#326=DIRECTION('',(0.,0.,-1.));
#327=DIRECTION('',(0.,0.,1.));
#328=DIRECTION('',(0.,-1.,0.));
#329=DIRECTION('center_axis',(0.,0.,-1.));
#330=DIRECTION('ref_axis',(1.,0.,0.));
#331=DIRECTION('',(-1.,0.,0.));
#332=DIRECTION('',(1.,0.,0.));
#333=DIRECTION('center_axis',(-1.,0.,0.));
#334=DIRECTION('ref_axis',(0.,0.,-1.));
#335=DIRECTION('',(0.,0.,1.));
#336=DIRECTION('',(0.,-1.,0.));
#337=DIRECTION('',(0.,0.,-1.));
#338=DIRECTION('',(0.,-1.,0.));
#339=DIRECTION('center_axis',(0.,0.,1.));
#340=DIRECTION('ref_axis',(-1.,0.,0.));
#341=DIRECTION('',(1.,0.,0.));
#342=DIRECTION('',(-1.,0.,0.));
#343=DIRECTION('',(0.,-1.,0.));
#344=DIRECTION('center_axis',(1.,0.,0.));
#345=DIRECTION('ref_axis',(0.,0.,1.));
#346=DIRECTION('',(0.,0.,-1.));
#347=DIRECTION('',(0.,0.,1.));
#348=DIRECTION('',(0.,-1.,0.));
#349=DIRECTION('center_axis',(0.,0.,-1.));
#350=DIRECTION('ref_axis',(1.,0.,0.));
#351=DIRECTION('',(-1.,0.,0.));
#352=DIRECTION('',(1.,0.,0.));
#353=DIRECTION('center_axis',(-1.,0.,0.));
#354=DIRECTION('ref_axis',(0.,0.,1.));
#355=DIRECTION('',(0.,0.,-1.));
#356=DIRECTION('',(0.,1.,0.));
#357=DIRECTION('',(0.,0.,1.));
#358=DIRECTION('',(0.,1.,0.));
#359=DIRECTION('center_axis',(0.,0.,-1.));
#360=DIRECTION('ref_axis',(-1.,0.,0.));
#361=DIRECTION('',(1.,0.,0.));
#362=DIRECTION('',(-1.,0.,0.));
#363=DIRECTION('',(0.,1.,0.));
#364=DIRECTION('center_axis',(1.,0.,0.));
#365=DIRECTION('ref_axis',(0.,0.,-1.));
#366=DIRECTION('',(0.,0.,1.));
#367=DIRECTION('',(0.,0.,-1.));
#368=DIRECTION('',(0.,1.,0.));
#369=DIRECTION('center_axis',(0.,0.,1.));
#370=DIRECTION('ref_axis',(1.,0.,0.));
#371=DIRECTION('',(-1.,0.,0.));
#372=DIRECTION('',(1.,0.,0.));
#373=DIRECTION('center_axis',(0.,1.,0.));
#374=DIRECTION('ref_axis',(0.,0.,1.));
#375=DIRECTION('center_axis',(0.,1.,0.));
#376=DIRECTION('ref_axis',(1.,0.,0.));
#377=CARTESIAN_POINT('',(0.,0.,0.));
#378=CARTESIAN_POINT('Origin',(-1.4,0.3,-27.));
#379=CARTESIAN_POINT('',(-1.4,0.,-29.5));
#380=CARTESIAN_POINT('',(-1.4,0.,-27.));
#381=CARTESIAN_POINT('',(-1.4,0.,-13.5));
#382=CARTESIAN_POINT('',(-1.4,0.3,-29.5));
#383=CARTESIAN_POINT('',(-1.4,0.3,-29.5));
#384=CARTESIAN_POINT('',(-1.4,0.3,-27.));
#385=CARTESIAN_POINT('',(-1.4,0.3,-13.5));
#386=CARTESIAN_POINT('',(-1.4,0.3,-27.));
#387=CARTESIAN_POINT('Origin',(-0.990000000000002,0.3,-27.));
#388=CARTESIAN_POINT('',(-0.990000000000002,0.,-27.));
#389=CARTESIAN_POINT('',(-0.495000000000001,0.,-27.));
#390=CARTESIAN_POINT('',(-0.990000000000002,0.3,-27.));
#391=CARTESIAN_POINT('',(-0.495000000000001,0.3,-27.));
#392=CARTESIAN_POINT('',(-0.990000000000002,0.3,-27.));
#393=CARTESIAN_POINT('Origin',(-0.990000000000002,0.3,-29.5));
#394=CARTESIAN_POINT('',(-0.990000000000002,0.,-29.5));
#395=CARTESIAN_POINT('',(-0.990000000000002,0.,-14.75));
#396=CARTESIAN_POINT('',(-0.990000000000002,0.3,-29.5));
#397=CARTESIAN_POINT('',(-0.990000000000002,0.3,-14.75));
#398=CARTESIAN_POINT('',(-0.990000000000002,0.3,-29.5));
#399=CARTESIAN_POINT('Origin',(-1.4,0.3,-29.5));
#400=CARTESIAN_POINT('',(-0.700000000000001,0.,-29.5));
#401=CARTESIAN_POINT('',(-0.700000000000001,0.3,-29.5));
#402=CARTESIAN_POINT('Origin',(0.990000000000002,0.3,-27.));
#403=CARTESIAN_POINT('',(0.990000000000002,0.,-29.5));
#404=CARTESIAN_POINT('',(0.990000000000002,0.,-27.));
#405=CARTESIAN_POINT('',(0.990000000000002,0.,-13.5));
#406=CARTESIAN_POINT('',(0.990000000000002,0.3,-29.5));
#407=CARTESIAN_POINT('',(0.990000000000002,0.3,-29.5));
#408=CARTESIAN_POINT('',(0.990000000000002,0.3,-27.));
#409=CARTESIAN_POINT('',(0.990000000000002,0.3,-13.5));
#410=CARTESIAN_POINT('',(0.990000000000002,0.3,-27.));
#411=CARTESIAN_POINT('Origin',(1.4,0.3,-27.));
#412=CARTESIAN_POINT('',(1.4,0.,-27.));
#413=CARTESIAN_POINT('',(0.700000000000001,0.,-27.));
#414=CARTESIAN_POINT('',(1.4,0.3,-27.));
#415=CARTESIAN_POINT('',(0.700000000000001,0.3,-27.));
#416=CARTESIAN_POINT('',(1.4,0.3,-27.));
#417=CARTESIAN_POINT('Origin',(1.4,0.3,-29.5));
#418=CARTESIAN_POINT('',(1.4,0.,-29.5));
#419=CARTESIAN_POINT('',(1.4,0.,-14.75));
#420=CARTESIAN_POINT('',(1.4,0.3,-29.5));
#421=CARTESIAN_POINT('',(1.4,0.3,-14.75));
#422=CARTESIAN_POINT('',(1.4,0.3,-29.5));
#423=CARTESIAN_POINT('Origin',(0.990000000000002,0.3,-29.5));
#424=CARTESIAN_POINT('',(0.495000000000001,0.,-29.5));
#425=CARTESIAN_POINT('',(0.495000000000001,0.3,-29.5));
#426=CARTESIAN_POINT('Origin',(-2.4,0.,-32.5));
#427=CARTESIAN_POINT('',(-2.4,0.,32.5));
#428=CARTESIAN_POINT('',(-2.4,0.,-32.5));
#429=CARTESIAN_POINT('',(-2.4,0.,32.5));
#430=CARTESIAN_POINT('',(-2.4,0.3,32.5));
#431=CARTESIAN_POINT('',(-2.4,0.,32.5));
#432=CARTESIAN_POINT('',(-2.4,0.3,-32.5));
#433=CARTESIAN_POINT('',(-2.4,0.3,32.5));
#434=CARTESIAN_POINT('',(-2.4,0.,-32.5));
#435=CARTESIAN_POINT('Origin',(2.4,0.,-32.5));
#436=CARTESIAN_POINT('',(2.4,0.,-32.5));
#437=CARTESIAN_POINT('',(-2.4,0.,-32.5));
#438=CARTESIAN_POINT('',(2.4,0.3,-32.5));
#439=CARTESIAN_POINT('',(-2.4,0.3,-32.5));
#440=CARTESIAN_POINT('',(2.4,0.,-32.5));
#441=CARTESIAN_POINT('Origin',(2.4,0.,32.5));
#442=CARTESIAN_POINT('',(2.4,0.,32.5));
#443=CARTESIAN_POINT('',(2.4,0.,-32.5));
#444=CARTESIAN_POINT('',(2.4,0.3,32.5));
#445=CARTESIAN_POINT('',(2.4,0.3,-32.5));
#446=CARTESIAN_POINT('',(2.4,0.,32.5));
#447=CARTESIAN_POINT('Origin',(-2.4,0.,32.5));
#448=CARTESIAN_POINT('',(2.4,0.,32.5));
#449=CARTESIAN_POINT('',(2.4,0.3,32.5));
#450=CARTESIAN_POINT('Origin',(0.,0.3,-4.44089209850063E-15));
#451=CARTESIAN_POINT('Origin',(0.,0.,-4.44089209850063E-15));
#452=UNCERTAINTY_MEASURE_WITH_UNIT(LENGTH_MEASURE(0.01),#456,
'DISTANCE_ACCURACY_VALUE',
'Maximum model space distance between geometric entities at asserted c
onnectivities');
#453=UNCERTAINTY_MEASURE_WITH_UNIT(LENGTH_MEASURE(0.01),#456,
'DISTANCE_ACCURACY_VALUE',
'Maximum model space distance between geometric entities at asserted c
onnectivities');
#454=(
GEOMETRIC_REPRESENTATION_CONTEXT(3)
GLOBAL_UNCERTAINTY_ASSIGNED_CONTEXT((#452))
GLOBAL_UNIT_ASSIGNED_CONTEXT((#456,#459,#458))
REPRESENTATION_CONTEXT('','3D')
);
#455=(
GEOMETRIC_REPRESENTATION_CONTEXT(3)
GLOBAL_UNCERTAINTY_ASSIGNED_CONTEXT((#453))
GLOBAL_UNIT_ASSIGNED_CONTEXT((#456,#459,#458))
REPRESENTATION_CONTEXT('','3D')
);
#456=(
LENGTH_UNIT()
NAMED_UNIT(*)
SI_UNIT(.MILLI.,.METRE.)
);
#457=(
LENGTH_UNIT()
NAMED_UNIT(*)
SI_UNIT($,.METRE.)
);
#458=(
NAMED_UNIT(*)
SI_UNIT($,.STERADIAN.)
SOLID_ANGLE_UNIT()
);
#459=(
NAMED_UNIT(*)
PLANE_ANGLE_UNIT()
SI_UNIT($,.RADIAN.)
);
#460=SHAPE_DEFINITION_REPRESENTATION(#461,#462);
#461=PRODUCT_DEFINITION_SHAPE('',$,#464);
#462=SHAPE_REPRESENTATION('',(#296),#454);
#463=PRODUCT_DEFINITION_CONTEXT('part definition',#468,'design');
#464=PRODUCT_DEFINITION('bande-metal','bande-metal v1',#465,#463);
#465=PRODUCT_DEFINITION_FORMATION('',$,#470);
#466=PRODUCT_RELATED_PRODUCT_CATEGORY('bande-metal v1','bande-metal v1',
(#470));
#467=APPLICATION_PROTOCOL_DEFINITION('international standard',
'automotive_design',2009,#468);
#468=APPLICATION_CONTEXT(
'Core Data for Automotive Mechanical Design Process');
#469=PRODUCT_CONTEXT('part definition',#468,'mechanical');
#470=PRODUCT('bande-metal','bande-metal v1',$,(#469));
#471=PRESENTATION_STYLE_ASSIGNMENT((#472));
#472=SURFACE_STYLE_USAGE(.BOTH.,#473);
#473=SURFACE_SIDE_STYLE('',(#474));
#474=SURFACE_STYLE_FILL_AREA(#475);
#475=FILL_AREA_STYLE('Steel - Satin',(#476));
#476=FILL_AREA_STYLE_COLOUR('Steel - Satin',#477);
#477=COLOUR_RGB('Steel - Satin',0.627450980392157,0.627450980392157,0.627450980392157);
ENDSEC;
END-ISO-10303-21;
