999
DXF file: frame-6mm_edited.dxf
999
Pro/ENGINEER 2012130 by Parametric Technology Corporation
  0
SECTION
  2
HEADER
  9
$ACADVER
  1
AC1021
  9
$DWGCODEPAGE
  3
ANSI_1252
  9
$EXTMAX
 10
620.9427175804
 20
370.0636493227
 30
0.0
  9
$EXTMIN
 10
0.0
 20
0.0
 30
0.0
  9
$LIMMIN
 10
0.0
 20
0.0
  9
$LIMMAX
 10
620.9427175804
 20
370.0636493227
  9
$VIEWCTR
 10
310.4713587902
 20
185.0318246614
  9
$VIEWSIZE
 40
370.0636493227
  9
$CLAYER
  8
0
  9
$LTSCALE
 40
34.1518494669
  9
$CELTYPE
  6
BYLAYER
  9
$DIMSCALE
 40
1.0
  9
$DIMASZ
 40
3.5
  9
$DIMEXO
 40
1.0
  9
$DIMDLI
 40
23.5958232681
  9
$DIMEXE
 40
1.5
  9
$DIMCEN
 40
5.5884844582
  9
$DIMLFAC
 40
1.0
  9
$DIMBLK
  1
_FILLED
  9
$DIMTXT
 40
3.5
  9
$DIMTOL
 70
1
  9
$DIMLIM
 70
0
  9
$DIMTFAC
 40
1.0
  9
$DIMTP
 40
0.01
  9
$DIMTM
 40
0.01
  9
$DIMGAP
 40
0.625
  9
$DIMDSEP
 70
44
  9
$PDMODE
 70
3
  9
$PDSIZE
 40
8.0
  9
$HANDSEED
  5
87D
  9
$TILEMODE
 70
1
  9
$MEASUREMENT
 70
1
  9
$INSUNITS
 70
4
  0
ENDSEC
  0
SECTION
  2
CLASSES
  0
CLASS
  1
ACDBDICTIONARYWDFLT
  2
AcDbDictionaryWithDefault
  3
AutoCAD 2000
 90
0
 91
1
280
0
281
0
  0
CLASS
  1
ACDBPLACEHOLDER
  2
AcDbPlaceHolder
  3
AutoCAD 2000
 90
0
 91
1
280
0
281
0
  0
CLASS
  1
LAYOUT
  2
AcDbLayout
  3
AutoCAD 2000
 90
0
 91
0
280
0
281
0
  0
ENDSEC
  0
SECTION
  2
TABLES
  0
TABLE
  2
VPORT
  5
8
100
AcDbSymbolTable
 70
2
  0
VPORT
  5
1F4
100
AcDbSymbolTableRecord
100
AcDbViewportTableRecord
  2
*ACTIVE
 70
0
 10
0.0
 20
0.0
 11
1.0
 21
1.0
 12
310.4713587902
 22
185.0318246614
 13
0.0
 23
0.0
 14
1.0
 24
1.0
 15
0.0
 25
0.0
 16
0.0
 26
0.0
 36
1.0
 17
0.0
 27
0.0
 37
0.0
 40
370.0636493227
 41
1.6779349139
 42
50.0
 43
0.0
 44
0.0
 50
0.0
 51
0.0
 71
0
 72
100
 73
1
 74
1
 75
0
 76
0
 77
0
 78
0
  0
ENDTAB
  0
TABLE
  2
LTYPE
  5
5
100
AcDbSymbolTable
 70
6
  0
LTYPE
  5
14
100
AcDbSymbolTableRecord
100
AcDbLinetypeTableRecord
  2
BYBLOCK
 70
0
  3

 72
65
 73
0
 40
0.0
  0
LTYPE
  5
15
100
AcDbSymbolTableRecord
100
AcDbLinetypeTableRecord
  2
BYLAYER
 70
0
  3

 72
65
 73
0
 40
0.0
  0
LTYPE
  5
16
100
AcDbSymbolTableRecord
100
AcDbLinetypeTableRecord
  2
CONTINUOUS
 70
64
  3
Solid line
 72
65
 73
0
 40
0.0
  0
LTYPE
  5
1F5
100
AcDbSymbolTableRecord
100
AcDbLinetypeTableRecord
  2
CENTER
 70
64
  3
____ _ ____ _ ____ _ ____ _ ____ _ ____ _ ____
 72
65
 73
4
 40
0.6
 49
0.375
 74
0
 49
-0.075
 74
0
 49
0.075
 74
0
 49
-0.075
 74
0
  0
LTYPE
  5
1F6
100
AcDbSymbolTableRecord
100
AcDbLinetypeTableRecord
  2
HIDDEN
 70
64
  3
- - - - - - - - - - - - - - - - - - - -
 72
65
 73
2
 40
0.2
 49
0.1
 74
0
 49
-0.1
 74
0
  0
LTYPE
  5
1F7
100
AcDbSymbolTableRecord
100
AcDbLinetypeTableRecord
  2
PHANTOM
 70
64
  3
_____ _ _ _____ _ _ _____ _ _ _____
 72
65
 73
6
 40
0.8
 49
0.45
 74
0
 49
-0.05
 74
0
 49
0.1
 74
0
 49
-0.05
 74
0
 49
0.1
 74
0
 49
-0.05
 74
0
  0
LTYPE
  5
1F8
100
AcDbSymbolTableRecord
100
AcDbLinetypeTableRecord
  2
DOT
 70
64
  3
. . . . . . . . . . . . . . . . . . . .
 72
65
 73
2
 40
0.2
 49
0.1
 74
0
 49
-0.1
 74
0
  0
LTYPE
  5
1F9
100
AcDbSymbolTableRecord
100
AcDbLinetypeTableRecord
  2
DASHED
 70
64
  3
- - - - - - - - - - - - - - - - - - - -
 72
65
 73
2
 40
0.2
 49
0.1
 74
0
 49
-0.1
 74
0
  0
ENDTAB
  0
TABLE
  2
LAYER
  5
2
100
AcDbSymbolTable
 70
36
  0
LAYER
  5
10
100
AcDbSymbolTableRecord
100
AcDbLayerTableRecord
  2
0
 70
0
 62
7
  6
CONTINUOUS
370
-3
390
F
  0
LAYER
  5
1FA
100
AcDbSymbolTableRecord
100
AcDbLayerTableRecord
  2
DEFAULT_1
 70
0
 62
7
  6
CENTER
370
-3
390
F
  0
LAYER
  5
1FB
100
AcDbSymbolTableRecord
100
AcDbLayerTableRecord
  2
DEFAULT_2
 70
0
 62
8
  6
HIDDEN
370
-3
390
F
  0
LAYER
  5
1FC
100
AcDbSymbolTableRecord
100
AcDbLayerTableRecord
  2
DEFAULT_3
 70
0
 62
7
  6
PHANTOM
370
-3
390
F
  0
LAYER
  5
1FD
100
AcDbSymbolTableRecord
100
AcDbLayerTableRecord
  2
ProfileEdges
 70
0
 62
7
  6
CONTINUOUS
370
-3
390
F
  0
LAYER
  5
1FE
100
AcDbSymbolTableRecord
100
AcDbLayerTableRecord
  2
SectionCutEdges
 70
0
 62
7
  6
CONTINUOUS
370
-3
390
F
  0
ENDTAB
  0
TABLE
  2
STYLE
  5
3
100
AcDbSymbolTable
 70
1
  0
STYLE
  5
11
100
AcDbSymbolTableRecord
100
AcDbTextStyleTableRecord
  2
STANDARD
 70
0
 40
0.0
 41
0.85
 50
0.0
 71
0
 42
0.2
  3
txt
  4

  0
STYLE
  5
1FF
100
AcDbSymbolTableRecord
100
AcDbTextStyleTableRecord
  2
TEXTSTYLE_1
 70
0
 40
0.0
 41
0.8
 50
0.0
 71
0
 42
0.2
  3
gdt
  4

  0
ENDTAB
  0
TABLE
  2
VIEW
  5
6
100
AcDbSymbolTable
 70
0
  0
ENDTAB
  0
TABLE
  2
UCS
  5
7
100
AcDbSymbolTable
 70
0
  0
ENDTAB
  0
TABLE
  2
APPID
  5
9
100
AcDbSymbolTable
 70
1
  0
APPID
  5
200
100
AcDbSymbolTableRecord
100
AcDbRegAppTableRecord
  2
ACAD
 70
0
  0
ENDTAB
  0
TABLE
  2
BLOCK_RECORD
  5
1
100
AcDbSymbolTable
 70
0
  0
BLOCK_RECORD
  5
201
100
AcDbSymbolTableRecord
100
AcDbBlockTableRecord
  2
*Model_Space
  0
BLOCK_RECORD
  5
202
100
AcDbSymbolTableRecord
100
AcDbBlockTableRecord
  2
*Paper_Space
  0
ENDTAB
  0
TABLE
  2
DIMSTYLE
  5
A
100
AcDbSymbolTable
 70
1
100
AcDbDimStyleTable
 71
0
  0
DIMSTYLE
105
203
100
AcDbSymbolTableRecord
100
AcDbDimStyleTableRecord
  2
STANDARD
 70
0
  3

  4

 40
1.0
 41
3.5
 42
1.0
 43
0.38
 44
1.5
 45
0.0
 46
0.0
 47
0.01
 48
0.01
140
3.5
141
0.09
142
0.0
143
25.4
144
1.0
145
0.0
146
1.0
147
0.625
 71
1.0
 72
0.0
 73
0
 74
0
 75
0
 76
0
 77
1
 78
8
170
0
171
2
172
0
173
0
174
0
175
0
176
0
177
0
178
0
270
2
271
2
272
2
273
2
274
2
275
0
280
0
281
0
282
0
283
1
284
8
285
0
286
0
287
3
288
0
340
11
278
44
  0
ENDTAB
  0
ENDSEC
  0
SECTION
  2
BLOCKS
  0
BLOCK
  5
20
100
AcDbEntity
  8
0
100
AcDbBlockBegin
  2
*Model_Space
 70
0
 10
0.0
 20
0.0
 30
0.0
  3
*Model_Space
  1

  0
ENDBLK
  5
21
100
AcDbEntity
  8
0
100
AcDbBlockEnd
  0
BLOCK
  5
1C
100
AcDbEntity
  8
0
100
AcDbBlockBegin
  2
*Paper_Space
 70
0
 10
0.0
 20
0.0
 30
0.0
  3
*Paper_Space
  1

  0
ENDBLK
  5
1D
100
AcDbEntity
  8
0
100
AcDbBlockEnd
  0
ENDSEC
  0
SECTION
  2
ENTITIES
  0
LINE
  5
204
100
AcDbEntity
  8
0
100
AcDbLine
 62
7
  6
CONTINUOUS
 10
8.2657143549
 20
360.4790757583
 11
8.2044475242
 21
360.013192741
  0
LINE
  5
205
100
AcDbEntity
  8
0
100
AcDbLine
 62
7
  6
CONTINUOUS
 10
8.4454729665
 20
360.9132271741
 11
8.2657143549
 21
360.4790757583
  0
LINE
  5
206
100
AcDbEntity
  8
0
100
AcDbLine
 62
7
  6
CONTINUOUS
 10
11.5634217571
 20
359.1136735445
 11
11.7431803687
 21
359.5478249603
  0
LINE
  5
207
100
AcDbEntity
  8
0
100
AcDbLine
 62
7
  6
CONTINUOUS
 10
28.4639211584
 20
360.9132271741
 11
28.2841625467
 21
360.4790757583
  0
LINE
  5
208
100
AcDbEntity
  8
0
100
AcDbLine
 62
7
  6
CONTINUOUS
 10
31.5818699489
 20
359.1136735445
 11
31.7616285606
 21
359.5478249603
  0
LINE
  5
209
100
AcDbEntity
  8
0
100
AcDbLine
 62
7
  6
CONTINUOUS
 10
8.7314731069
 20
361.286060287
 11
8.4454729665
 21
360.9132271741
  0
LINE
  5
20A
100
AcDbEntity
  8
0
100
AcDbLine
 62
7
  6
CONTINUOUS
 10
11.2774216167
 20
358.7408404316
 11
11.5634217571
 21
359.1136735445
  0
LINE
  5
20B
100
AcDbEntity
  8
0
100
AcDbLine
 62
7
  6
CONTINUOUS
 10
28.7499212987
 20
361.286060287
 11
28.4639211584
 21
360.9132271741
  0
LINE
  5
20C
100
AcDbEntity
  8
0
100
AcDbLine
 62
7
  6
CONTINUOUS
 10
31.2958698085
 20
358.7408404316
 11
31.5818699489
 21
359.1136735445
  0
LINE
  5
20D
100
AcDbEntity
  8
0
100
AcDbLine
 62
7
  6
CONTINUOUS
 10
0.0
 20
364.9999708
 11
4.9999996
 21
369.9999704
  0
LINE
  5
20E
100
AcDbEntity
  8
0
100
AcDbLine
 62
7
  6
CONTINUOUS
 10
9.1042243391
 20
361.5721671363
 11
8.7314731069
 21
361.286060287
  0
LINE
  5
20F
100
AcDbEntity
  8
0
100
AcDbLine
 62
7
  6
CONTINUOUS
 10
4.9999996
 20
0.0
 11
0.0
 21
4.8082512005
  0
LINE
  5
210
100
AcDbEntity
  8
0
100
AcDbLine
 62
7
  6
CONTINUOUS
 10
18.4170983826
 20
19.1066167602
 11
18.703205232
 21
18.7338655281
  0
LINE
  5
211
100
AcDbEntity
  8
0
100
AcDbLine
 62
7
  6
CONTINUOUS
 10
21.5345319366
 20
20.9070628057
 11
21.2484250873
 21
21.2798140379
  0
LINE
  5
212
100
AcDbEntity
  8
0
100
AcDbLine
 62
7
  6
CONTINUOUS
 10
8.41017625
 20
39.1204610254
 11
8.6962830994
 21
38.7477097933
  0
LINE
  5
213
100
AcDbEntity
  8
0
100
AcDbLine
 62
7
  6
CONTINUOUS
 10
11.527609804
 20
40.9209070709
 11
11.2415029547
 21
41.2936583031
  0
LINE
  5
214
100
AcDbEntity
  8
0
100
AcDbLine
 62
7
  6
CONTINUOUS
 10
12.5623671824
 20
8.0368202145
 11
13.198041622
 21
7.208393156
  0
LINE
  5
215
100
AcDbEntity
  8
0
100
AcDbLine
 62
7
  6
CONTINUOUS
 10
27.4865389357
 20
12.0368198945
 11
26.8508644962
 21
12.865246953
  0
LINE
  5
216
100
AcDbEntity
  8
0
100
AcDbLine
 62
7
  6
CONTINUOUS
 10
8.2302933731
 20
39.5545609689
 11
8.41017625
 21
39.1204610254
  0
LINE
  5
217
100
AcDbEntity
  8
0
100
AcDbLine
 62
7
  6
CONTINUOUS
 10
18.2372155057
 20
19.5407167037
 11
18.4170983826
 21
19.1066167602
  0
LINE
  5
218
100
AcDbEntity
  8
0
100
AcDbLine
 62
7
  6
CONTINUOUS
 10
11.7074926809
 20
40.4868071274
 11
11.527609804
 21
40.9209070709
  0
LINE
  5
219
100
AcDbEntity
  8
0
100
AcDbLine
 62
7
  6
CONTINUOUS
 10
21.7144148135
 20
20.4729628622
 11
21.5345319366
 21
20.9070628057
  0
LINE
  5
21A
100
AcDbEntity
  8
0
100
AcDbLine
 62
7
  6
CONTINUOUS
 10
12.1627655244
 20
9.0015439569
 11
12.5623671824
 21
8.0368202145
  0
LINE
  5
21B
100
AcDbEntity
  8
0
100
AcDbLine
 62
7
  6
CONTINUOUS
 10
27.8861405937
 20
11.0720961521
 11
27.4865389357
 21
12.0368198945
  0
LINE
  5
21C
100
AcDbEntity
  8
0
100
AcDbLine
 62
7
  6
CONTINUOUS
 10
0.0
 20
4.8082512005
 11
0.0
 21
364.9999708
  0
LINE
  5
21D
100
AcDbEntity
  8
0
100
AcDbLine
 62
7
  6
CONTINUOUS
 10
11.7431803687
 20
359.5478249603
 11
11.8044471994
 21
360.0137079775
  0
LINE
  5
21E
100
AcDbEntity
  8
0
100
AcDbLine
 62
7
  6
CONTINUOUS
 10
28.2841625467
 20
360.4790757583
 11
28.2228957161
 21
360.013192741
  0
LINE
  5
21F
100
AcDbEntity
  8
0
100
AcDbLine
 62
7
  6
CONTINUOUS
 10
41.466257283
 20
340.8947789823
 11
41.2864986713
 21
340.4606275665
  0
LINE
  5
220
100
AcDbEntity
  8
0
100
AcDbLine
 62
7
  6
CONTINUOUS
 10
44.5842060735
 20
339.0952253526
 11
44.7639646852
 21
339.5293767684
  0
LINE
  5
221
100
AcDbEntity
  8
0
100
AcDbLine
 62
7
  6
CONTINUOUS
 10
41.7522574233
 20
341.2676120951
 11
41.466257283
 21
340.8947789823
  0
LINE
  5
222
100
AcDbEntity
  8
0
100
AcDbLine
 62
7
  6
CONTINUOUS
 10
44.2982059331
 20
338.7223922398
 11
44.5842060735
 21
339.0952253526
  0
LINE
  5
223
100
AcDbEntity
  8
0
100
AcDbLine
 62
7
  6
CONTINUOUS
 10
10.9046703845
 20
358.4547335823
 11
11.2774216167
 21
358.7408404316
  0
LINE
  5
224
100
AcDbEntity
  8
0
100
AcDbLine
 62
7
  6
CONTINUOUS
 10
29.1226725309
 20
361.5721671363
 11
28.7499212987
 21
361.286060287
  0
LINE
  5
225
100
AcDbEntity
  8
0
100
AcDbLine
 62
7
  6
CONTINUOUS
 10
30.9231185764
 20
358.4547335823
 11
31.2958698085
 21
358.7408404316
  0
LINE
  5
226
100
AcDbEntity
  8
0
100
AcDbLine
 62
7
  6
CONTINUOUS
 10
18.703205232
 20
18.7338655281
 11
19.0760383448
 21
18.4478653877
  0
LINE
  5
227
100
AcDbEntity
  8
0
100
AcDbLine
 62
7
  6
CONTINUOUS
 10
21.2484250873
 20
21.2798140379
 11
20.8755919745
 21
21.5658141782
  0
LINE
  5
228
100
AcDbEntity
  8
0
100
AcDbLine
 62
7
  6
CONTINUOUS
 10
13.198041622
 20
7.208393156
 11
14.0264686805
 21
6.5727187165
  0
LINE
  5
229
100
AcDbEntity
  8
0
100
AcDbLine
 62
7
  6
CONTINUOUS
 10
26.8508644962
 20
12.865246953
 11
26.0224374377
 21
13.5009213925
  0
LINE
  5
22A
100
AcDbEntity
  8
0
100
AcDbLine
 62
7
  6
CONTINUOUS
 10
48.7272038957
 20
4.7272074157
 11
49.099996072
 21
4.4411539179
  0
LINE
  5
22B
100
AcDbEntity
  8
0
100
AcDbLine
 62
7
  6
CONTINUOUS
 10
28.4240205152
 20
39.1204610254
 11
28.7101273646
 21
38.7477097933
  0
LINE
  5
22C
100
AcDbEntity
  8
0
100
AcDbLine
 62
7
  6
CONTINUOUS
 10
41.4244663627
 20
24.1100778265
 11
41.7105732121
 21
23.7373265944
  0
LINE
  5
22D
100
AcDbEntity
  8
0
100
AcDbLine
 62
7
  6
CONTINUOUS
 10
31.5414540693
 20
40.9209070709
 11
31.2553472199
 21
41.2936583031
  0
LINE
  5
22E
100
AcDbEntity
  8
0
100
AcDbLine
 62
7
  6
CONTINUOUS
 10
44.5418999167
 20
25.910523872
 11
44.2557930674
 21
26.2832751042
  0
LINE
  5
22F
100
AcDbEntity
  8
0
100
AcDbLine
 62
7
  6
CONTINUOUS
 10
48.4411503979
 20
5.099999592
 11
48.7272038957
 21
4.7272074157
  0
LINE
  5
230
100
AcDbEntity
  8
0
100
AcDbLine
 62
7
  6
CONTINUOUS
 10
51.5588416021
 20
6.899999448
 11
51.2727881043
 21
7.2727916243
  0
LINE
  5
231
100
AcDbEntity
  8
0
100
AcDbLine
 62
7
  6
CONTINUOUS
 10
28.2441376383
 20
39.5545609689
 11
28.4240205152
 21
39.1204610254
  0
LINE
  5
232
100
AcDbEntity
  8
0
100
AcDbLine
 62
7
  6
CONTINUOUS
 10
31.7213369461
 20
40.4868071274
 11
31.5414540693
 21
40.9209070709
  0
LINE
  5
233
100
AcDbEntity
  8
0
100
AcDbLine
 62
7
  6
CONTINUOUS
 10
41.2445834858
 20
24.54417777
 11
41.4244663627
 21
24.1100778265
  0
LINE
  5
234
100
AcDbEntity
  8
0
100
AcDbLine
 62
7
  6
CONTINUOUS
 10
44.7217827936
 20
25.4764239285
 11
44.5418999167
 21
25.910523872
  0
LINE
  5
235
100
AcDbEntity
  8
0
100
AcDbLine
 62
7
  6
CONTINUOUS
 10
48.2613296518
 20
5.5341252761
 11
48.4411503979
 21
5.099999592
  0
LINE
  5
236
100
AcDbEntity
  8
0
100
AcDbLine
 62
7
  6
CONTINUOUS
 10
51.7386623482
 20
6.4658737639
 11
51.5588416021
 21
6.899999448
  0
LINE
  5
237
100
AcDbEntity
  8
0
100
AcDbLine
 62
7
  6
CONTINUOUS
 10
8.1688931895
 20
40.0204264299
 11
8.2302933731
 21
39.5545609689
  0
LINE
  5
238
100
AcDbEntity
  8
0
100
AcDbLine
 62
7
  6
CONTINUOUS
 10
11.7688928646
 20
40.0209416664
 11
11.7074926809
 21
40.4868071274
  0
LINE
  5
239
100
AcDbEntity
  8
0
100
AcDbLine
 62
7
  6
CONTINUOUS
 10
18.1758153221
 20
20.0065821647
 11
18.2372155057
 21
19.5407167037
  0
LINE
  5
23A
100
AcDbEntity
  8
0
100
AcDbLine
 62
7
  6
CONTINUOUS
 10
21.7758149972
 20
20.0070974012
 11
21.7144148135
 21
20.4729628622
  0
LINE
  5
23B
100
AcDbEntity
  8
0
100
AcDbLine
 62
7
  6
CONTINUOUS
 10
12.0264688405
 20
10.0368200545
 11
12.1627655244
 21
9.0015439569
  0
LINE
  5
23C
100
AcDbEntity
  8
0
100
AcDbLine
 62
7
  6
CONTINUOUS
 10
28.0224372777
 20
10.0368200545
 11
27.8861405937
 21
11.0720961521
  0
LINE
  5
23D
100
AcDbEntity
  8
0
100
AcDbLine
 62
7
  6
CONTINUOUS
 10
31.7616285606
 20
359.5478249603
 11
31.8228953912
 21
360.0137079775
  0
LINE
  5
23E
100
AcDbEntity
  8
0
100
AcDbLine
 62
7
  6
CONTINUOUS
 10
41.2864986713
 20
340.4606275665
 11
41.2252318407
 21
339.9947445492
  0
LINE
  5
23F
100
AcDbEntity
  8
0
100
AcDbLine
 62
7
  6
CONTINUOUS
 10
44.7639646852
 20
339.5293767684
 11
44.8252315158
 21
339.9952597857
  0
LINE
  5
240
100
AcDbEntity
  8
0
100
AcDbLine
 62
7
  6
CONTINUOUS
 10
8.2301600201
 20
40.4863094472
 11
8.1688931895
 21
40.0204264299
  0
LINE
  5
241
100
AcDbEntity
  8
0
100
AcDbLine
 62
7
  6
CONTINUOUS
 10
63.8604133606
 20
320.4103566265
 11
63.6805926145
 21
319.9762309425
  0
LINE
  5
242
100
AcDbEntity
  8
0
100
AcDbLine
 62
7
  6
CONTINUOUS
 10
54.9999956
 20
324.999974
 11
59.9999952
 21
329.9999736
  0
LINE
  5
243
100
AcDbEntity
  8
0
100
AcDbLine
 62
7
  6
CONTINUOUS
 10
42.1250086555
 20
341.5537189445
 11
41.7522574233
 21
341.2676120951
  0
LINE
  5
244
100
AcDbEntity
  8
0
100
AcDbLine
 62
7
  6
CONTINUOUS
 10
43.925454701
 20
338.4362853904
 11
44.2982059331
 21
338.7223922398
  0
LINE
  5
245
100
AcDbEntity
  8
0
100
AcDbLine
 62
7
  6
CONTINUOUS
 10
8.6962830994
 20
38.7477097933
 11
9.0691162122
 21
38.4617096529
  0
LINE
  5
246
100
AcDbEntity
  8
0
100
AcDbLine
 62
7
  6
CONTINUOUS
 10
11.2415029547
 20
41.2936583031
 11
10.8686698419
 21
41.5796584434
  0
LINE
  5
247
100
AcDbEntity
  8
0
100
AcDbLine
 62
7
  6
CONTINUOUS
 10
41.7105732121
 20
23.7373265944
 11
42.0834063249
 21
23.451326454
  0
LINE
  5
248
100
AcDbEntity
  8
0
100
AcDbLine
 62
7
  6
CONTINUOUS
 10
44.2557930674
 20
26.2832751042
 11
43.8829599546
 21
26.5692752445
  0
LINE
  5
249
100
AcDbEntity
  8
0
100
AcDbLine
 62
7
  6
CONTINUOUS
 10
28.7101273646
 20
38.7477097933
 11
29.0829604774
 21
38.4617096529
  0
LINE
  5
24A
100
AcDbEntity
  8
0
100
AcDbLine
 62
7
  6
CONTINUOUS
 10
31.2553472199
 20
41.2936583031
 11
30.8825141071
 21
41.5796584434
  0
LINE
  5
24B
100
AcDbEntity
  8
0
100
AcDbLine
 62
7
  6
CONTINUOUS
 10
51.2727881043
 20
7.2727916243
 11
50.899995928
 21
7.5588451221
  0
LINE
  5
24C
100
AcDbEntity
  8
0
100
AcDbLine
 62
7
  6
CONTINUOUS
 10
59.9999952
 20
39.9999968
 11
54.9999956
 21
44.9999964
  0
LINE
  5
24D
100
AcDbEntity
  8
0
100
AcDbLine
 62
7
  6
CONTINUOUS
 10
28.1827374547
 20
40.0204264299
 11
28.2441376383
 21
39.5545609689
  0
LINE
  5
24E
100
AcDbEntity
  8
0
100
AcDbLine
 62
7
  6
CONTINUOUS
 10
31.7827371298
 20
40.0209416664
 11
31.7213369461
 21
40.4868071274
  0
LINE
  5
24F
100
AcDbEntity
  8
0
100
AcDbLine
 62
7
  6
CONTINUOUS
 10
41.1831833022
 20
25.010043231
 11
41.2445834858
 21
24.54417777
  0
LINE
  5
250
100
AcDbEntity
  8
0
100
AcDbLine
 62
7
  6
CONTINUOUS
 10
44.7831829773
 20
25.0105584675
 11
44.7217827936
 21
25.4764239285
  0
LINE
  5
251
100
AcDbEntity
  8
0
100
AcDbLine
 62
7
  6
CONTINUOUS
 10
48.199996144
 20
5.99999952
 11
48.2613296518
 21
5.5341252761
  0
LINE
  5
252
100
AcDbEntity
  8
0
100
AcDbLine
 62
7
  6
CONTINUOUS
 10
51.799995856
 20
5.99999952
 11
51.7386623482
 21
6.4658737639
  0
LINE
  5
253
100
AcDbEntity
  8
0
100
AcDbLine
 62
7
  6
CONTINUOUS
 10
39.74999682
 20
36.6499393327
 11
39.74999682
 21
45.6499386127
  0
LINE
  5
254
100
AcDbEntity
  8
0
100
AcDbLine
 62
7
  6
CONTINUOUS
 10
39.74999682
 20
164.349986852
 11
39.74999682
 21
173.349986132
  0
LINE
  5
255
100
AcDbEntity
  8
0
100
AcDbLine
 62
7
  6
CONTINUOUS
 10
39.74999682
 20
196.649984268
 11
39.74999682
 21
205.649983548
  0
LINE
  5
256
100
AcDbEntity
  8
0
100
AcDbLine
 62
7
  6
CONTINUOUS
 10
39.74999682
 20
319.4427457815
 11
39.74999682
 21
328.4427450615
  0
LINE
  5
257
100
AcDbEntity
  8
0
100
AcDbLine
 62
7
  6
CONTINUOUS
 10
39.74999682
 20
351.7427431975
 11
39.74999682
 21
360.7427424775
  0
LINE
  5
258
100
AcDbEntity
  8
0
100
AcDbLine
 62
7
  6
CONTINUOUS
 10
46.2499963
 20
360.7427424775
 11
46.2499963
 21
351.7427431975
  0
LINE
  5
259
100
AcDbEntity
  8
0
100
AcDbLine
 62
7
  6
CONTINUOUS
 10
46.2499963
 20
328.4427450615
 11
46.2499963
 21
319.4427457815
  0
LINE
  5
25A
100
AcDbEntity
  8
0
100
AcDbLine
 62
7
  6
CONTINUOUS
 10
46.2499963
 20
205.649983548
 11
46.2499963
 21
196.649984268
  0
LINE
  5
25B
100
AcDbEntity
  8
0
100
AcDbLine
 62
7
  6
CONTINUOUS
 10
46.2499963
 20
173.349986132
 11
46.2499963
 21
164.349986852
  0
LINE
  5
25C
100
AcDbEntity
  8
0
100
AcDbLine
 62
7
  6
CONTINUOUS
 10
46.2499963
 20
45.6499386127
 11
46.2499963
 21
36.6499393327
  0
LINE
  5
25D
100
AcDbEntity
  8
0
100
AcDbLine
 62
7
  6
CONTINUOUS
 10
11.707626034
 20
39.5550586492
 11
11.7688928646
 21
40.0209416664
  0
LINE
  5
25E
100
AcDbEntity
  8
0
100
AcDbLine
 62
7
  6
CONTINUOUS
 10
18.2370821527
 20
20.472465182
 11
18.1758153221
 21
20.0065821647
  0
LINE
  5
25F
100
AcDbEntity
  8
0
100
AcDbLine
 62
7
  6
CONTINUOUS
 10
41.2864986713
 20
185.4624820811
 11
41.2252318407
 21
184.9965990639
  0
LINE
  5
260
100
AcDbEntity
  8
0
100
AcDbLine
 62
7
  6
CONTINUOUS
 10
21.7145481666
 20
19.541214384
 11
21.7758149972
 21
20.0070974012
  0
LINE
  5
261
100
AcDbEntity
  8
0
100
AcDbLine
 62
7
  6
CONTINUOUS
 10
44.7639646852
 20
184.5312312831
 11
44.8252315158
 21
184.9971143004
  0
LINE
  5
262
100
AcDbEntity
  8
0
100
AcDbLine
 62
7
  6
CONTINUOUS
 10
28.2440042853
 20
40.4863094472
 11
28.1827374547
 21
40.0204264299
  0
LINE
  5
263
100
AcDbEntity
  8
0
100
AcDbLine
 62
7
  6
CONTINUOUS
 10
31.7214702992
 20
39.5550586492
 11
31.7827371298
 21
40.0209416664
  0
LINE
  5
264
100
AcDbEntity
  8
0
100
AcDbLine
 62
7
  6
CONTINUOUS
 10
12.1627655244
 20
11.0720961521
 11
12.0264688405
 21
10.0368200545
  0
LINE
  5
265
100
AcDbEntity
  8
0
100
AcDbLine
 62
7
  6
CONTINUOUS
 10
63.6805926145
 20
319.9762309425
 11
63.6192591067
 21
319.5103566985
  0
LINE
  5
266
100
AcDbEntity
  8
0
100
AcDbLine
 62
7
  6
CONTINUOUS
 10
67.1579253109
 20
319.0444824546
 11
67.2192588187
 21
319.5103566985
  0
LINE
  5
267
100
AcDbEntity
  8
0
100
AcDbLine
 62
7
  6
CONTINUOUS
 10
27.8861405937
 20
9.0015439569
 11
28.0224372777
 21
10.0368200545
  0
LINE
  5
268
100
AcDbEntity
  8
0
100
AcDbLine
 62
7
  6
CONTINUOUS
 10
66.9781045648
 20
318.6103567705
 11
67.1579253109
 21
319.0444824546
  0
LINE
  5
269
100
AcDbEntity
  8
0
100
AcDbLine
 62
7
  6
CONTINUOUS
 10
64.1464668584
 20
320.7831488029
 11
63.8604133606
 21
320.4103566265
  0
LINE
  5
26A
100
AcDbEntity
  8
0
100
AcDbLine
 62
7
  6
CONTINUOUS
 10
66.692051067
 20
318.2375645942
 11
66.9781045648
 21
318.6103567705
  0
LINE
  5
26B
100
AcDbEntity
  8
0
100
AcDbLine
 62
7
  6
CONTINUOUS
 10
62.9296414213
 20
324.999974
 11
59.9296416613
 21
321.99997424
  0
LINE
  5
26C
100
AcDbEntity
  8
0
100
AcDbLine
 62
7
  6
CONTINUOUS
 10
64.5192590347
 20
321.0692023007
 11
64.1464668584
 21
320.7831488029
  0
LINE
  5
26D
100
AcDbEntity
  8
0
100
AcDbLine
 62
7
  6
CONTINUOUS
 10
9.5383242825
 20
361.7520500132
 11
9.1042243391
 21
361.5721671363
  0
LINE
  5
26E
100
AcDbEntity
  8
0
100
AcDbLine
 62
7
  6
CONTINUOUS
 10
10.4705704411
 20
358.2748507054
 11
10.9046703845
 21
358.4547335823
  0
LINE
  5
26F
100
AcDbEntity
  8
0
100
AcDbLine
 62
7
  6
CONTINUOUS
 10
29.5567724744
 20
361.7520500132
 11
29.1226725309
 21
361.5721671363
  0
LINE
  5
270
100
AcDbEntity
  8
0
100
AcDbLine
 62
7
  6
CONTINUOUS
 10
30.4890186329
 20
358.2748507054
 11
30.9231185764
 21
358.4547335823
  0
LINE
  5
271
100
AcDbEntity
  8
0
100
AcDbLine
 62
7
  6
CONTINUOUS
 10
19.0760383448
 20
18.4478653877
 11
19.5101897606
 21
18.268106776
  0
LINE
  5
272
100
AcDbEntity
  8
0
100
AcDbLine
 62
7
  6
CONTINUOUS
 10
20.8755919745
 20
21.5658141782
 11
20.4414405587
 21
21.7455727899
  0
LINE
  5
273
100
AcDbEntity
  8
0
100
AcDbLine
 62
7
  6
CONTINUOUS
 10
14.0264686805
 20
6.5727187165
 11
14.9911924229
 21
6.1731170585
  0
LINE
  5
274
100
AcDbEntity
  8
0
100
AcDbLine
 62
7
  6
CONTINUOUS
 10
26.0224374377
 20
13.5009213925
 11
25.0577136953
 21
13.9005230506
  0
LINE
  5
275
100
AcDbEntity
  8
0
100
AcDbLine
 62
7
  6
CONTINUOUS
 10
49.099996072
 20
4.4411539179
 11
49.5341217561
 21
4.2613331718
  0
LINE
  5
276
100
AcDbEntity
  8
0
100
AcDbLine
 62
7
  6
CONTINUOUS
 10
50.899995928
 20
7.5588451221
 11
50.4658702439
 21
7.7386658682
  0
LINE
  5
277
100
AcDbEntity
  8
0
100
AcDbLine
 62
7
  6
CONTINUOUS
 10
96.4583567809
 20
16.4583631809
 11
97.4956777201
 21
15.662398829
  0
LINE
  5
278
100
AcDbEntity
  8
0
100
AcDbLine
 62
7
  6
CONTINUOUS
 10
89.9999928
 20
39.9999968
 11
94.9999924
 21
34.9999972
  0
LINE
  5
279
100
AcDbEntity
  8
0
100
AcDbLine
 62
7
  6
CONTINUOUS
 10
95.662392429
 20
17.4956841201
 11
96.4583567809
 21
16.4583631809
  0
LINE
  5
27A
100
AcDbEntity
  8
0
100
AcDbLine
 62
7
  6
CONTINUOUS
 10
95.1620283197
 20
18.7036699389
 11
95.662392429
 21
17.4956841201
  0
LINE
  5
27B
100
AcDbEntity
  8
0
100
AcDbLine
 62
7
  6
CONTINUOUS
 10
8.2044475242
 20
360.013192741
 11
8.2658477079
 21
359.54732728
  0
LINE
  5
27C
100
AcDbEntity
  8
0
100
AcDbLine
 62
7
  6
CONTINUOUS
 10
11.8044471994
 20
360.0137079775
 11
11.7430470157
 21
360.4795734386
  0
LINE
  5
27D
100
AcDbEntity
  8
0
100
AcDbLine
 62
7
  6
CONTINUOUS
 10
41.2252318407
 20
184.9965990639
 11
41.2866320243
 21
184.5307336029
  0
LINE
  5
27E
100
AcDbEntity
  8
0
100
AcDbLine
 62
7
  6
CONTINUOUS
 10
44.8252315158
 20
184.9971143004
 11
44.7638313321
 21
185.4629797614
  0
LINE
  5
27F
100
AcDbEntity
  8
0
100
AcDbLine
 62
7
  6
CONTINUOUS
 10
54.9999956
 20
44.9999964
 11
54.9999956
 21
324.999974
  0
LINE
  5
280
100
AcDbEntity
  8
0
100
AcDbLine
 62
7
  6
CONTINUOUS
 10
59.9296416613
 20
321.99997424
 11
59.9296416613
 21
317.99997456
  0
LINE
  5
281
100
AcDbEntity
  8
0
100
AcDbLine
 62
7
  6
CONTINUOUS
 10
59.9296416613
 20
111.99999104
 11
59.9296416613
 21
107.99999136
  0
LINE
  5
282
100
AcDbEntity
  8
0
100
AcDbLine
 62
7
  6
CONTINUOUS
 10
69.9296408613
 20
267.99997856
 11
69.9296408613
 21
229.9999816
  0
LINE
  5
283
100
AcDbEntity
  8
0
100
AcDbLine
 62
7
  6
CONTINUOUS
 10
69.9296408613
 20
199.999984
 11
69.9296408613
 21
161.99998704
  0
LINE
  5
284
100
AcDbEntity
  8
0
100
AcDbLine
 62
7
  6
CONTINUOUS
 10
41.2444501328
 20
25.4759262483
 11
41.1831833022
 21
25.010043231
  0
LINE
  5
285
100
AcDbEntity
  8
0
100
AcDbLine
 62
7
  6
CONTINUOUS
 10
44.7219161467
 20
24.5446754503
 11
44.7831829773
 21
25.0105584675
  0
LINE
  5
286
100
AcDbEntity
  8
0
100
AcDbLine
 62
7
  6
CONTINUOUS
 10
73.4807518377
 20
250.3882085366
 11
73.4296405813
 21
249.99998
  0
LINE
  5
287
100
AcDbEntity
  8
0
100
AcDbLine
 62
7
  6
CONTINUOUS
 10
76.3785290848
 20
249.6117514634
 11
76.4296403413
 21
249.99998
  0
LINE
  5
288
100
AcDbEntity
  8
0
100
AcDbLine
 62
7
  6
CONTINUOUS
 10
48.2613296518
 20
6.4658737639
 11
48.199996144
 21
5.99999952
  0
LINE
  5
289
100
AcDbEntity
  8
0
100
AcDbLine
 62
7
  6
CONTINUOUS
 10
80.0659367452
 20
263.0422920331
 11
79.963860613
 21
262.5291206626
  0
LINE
  5
28A
100
AcDbEntity
  8
0
100
AcDbLine
 62
7
  6
CONTINUOUS
 10
80.2341219069
 20
263.5377495425
 11
80.0659367452
 21
263.0422920331
  0
LINE
  5
28B
100
AcDbEntity
  8
0
100
AcDbLine
 62
7
  6
CONTINUOUS
 10
41.466257283
 20
185.896633497
 11
41.2864986713
 21
185.4624820811
  0
LINE
  5
28C
100
AcDbEntity
  8
0
100
AcDbLine
 62
7
  6
CONTINUOUS
 10
44.5842060735
 20
184.0970798673
 11
44.7639646852
 21
184.5312312831
  0
LINE
  5
28D
100
AcDbEntity
  8
0
100
AcDbLine
 62
7
  6
CONTINUOUS
 10
73.6306024595
 20
250.74997994
 11
73.4807518377
 21
250.3882085366
  0
LINE
  5
28E
100
AcDbEntity
  8
0
100
AcDbLine
 62
7
  6
CONTINUOUS
 10
76.228678463
 20
249.24998006
 11
76.3785290848
 21
249.6117514634
  0
LINE
  5
28F
100
AcDbEntity
  8
0
100
AcDbLine
 62
7
  6
CONTINUOUS
 10
80.4655384032
 20
264.0070157755
 11
80.2341219069
 21
263.5377495425
  0
LINE
  5
290
100
AcDbEntity
  8
0
100
AcDbLine
 62
7
  6
CONTINUOUS
 10
66.3192588907
 20
317.9515110964
 11
66.692051067
 21
318.2375645942
  0
LINE
  5
291
100
AcDbEntity
  8
0
100
AcDbLine
 62
7
  6
CONTINUOUS
 10
42.559108599
 20
341.7336018214
 11
42.1250086555
 21
341.5537189445
  0
LINE
  5
292
100
AcDbEntity
  8
0
100
AcDbLine
 62
7
  6
CONTINUOUS
 10
43.4913547575
 20
338.2564025135
 11
43.925454701
 21
338.4362853904
  0
LINE
  5
293
100
AcDbEntity
  8
0
100
AcDbLine
 62
7
  6
CONTINUOUS
 10
42.0834063249
 20
23.451326454
 11
42.5175577407
 21
23.2715678423
  0
LINE
  5
294
100
AcDbEntity
  8
0
100
AcDbLine
 62
7
  6
CONTINUOUS
 10
9.0691162122
 20
38.4617096529
 11
9.503267628
 21
38.2819510412
  0
LINE
  5
295
100
AcDbEntity
  8
0
100
AcDbLine
 62
7
  6
CONTINUOUS
 10
43.8829599546
 20
26.5692752445
 11
43.4488085387
 21
26.7490338562
  0
LINE
  5
296
100
AcDbEntity
  8
0
100
AcDbLine
 62
7
  6
CONTINUOUS
 10
10.8686698419
 20
41.5796584434
 11
10.4345184261
 21
41.7594170551
  0
LINE
  5
297
100
AcDbEntity
  8
0
100
AcDbLine
 62
7
  6
CONTINUOUS
 10
29.0829604774
 20
38.4617096529
 11
29.5171118932
 21
38.2819510412
  0
LINE
  5
298
100
AcDbEntity
  8
0
100
AcDbLine
 62
7
  6
CONTINUOUS
 10
30.8825141071
 20
41.5796584434
 11
30.4483626913
 21
41.7594170551
  0
LINE
  5
299
100
AcDbEntity
  8
0
100
AcDbLine
 62
7
  6
CONTINUOUS
 10
97.4956777201
 20
15.662398829
 11
98.7036635389
 21
15.1620347197
  0
LINE
  5
29A
100
AcDbEntity
  8
0
100
AcDbLine
 62
7
  6
CONTINUOUS
 10
138.7271966957
 20
4.7272074157
 11
139.099988872
 21
4.4411539179
  0
LINE
  5
29B
100
AcDbEntity
  8
0
100
AcDbLine
 62
7
  6
CONTINUOUS
 10
141.2727809043
 20
7.2727916243
 11
140.899988728
 21
7.5588451221
  0
LINE
  5
29C
100
AcDbEntity
  8
0
100
AcDbLine
 62
7
  6
CONTINUOUS
 10
138.4411431979
 20
5.099999592
 11
138.7271966957
 21
4.7272074157
  0
LINE
  5
29D
100
AcDbEntity
  8
0
100
AcDbLine
 62
7
  6
CONTINUOUS
 10
141.5588344021
 20
6.899999448
 11
141.2727809043
 21
7.2727916243
  0
LINE
  5
29E
100
AcDbEntity
  8
0
100
AcDbLine
 62
7
  6
CONTINUOUS
 10
63.850446471
 20
109.6278617487
 11
64.1323132881
 21
109.2518940536
  0
LINE
  5
29F
100
AcDbEntity
  8
0
100
AcDbLine
 62
7
  6
CONTINUOUS
 10
66.9880714544
 20
111.3928850884
 11
66.7062046374
 21
111.7688527835
  0
LINE
  5
2A0
100
AcDbEntity
  8
0
100
AcDbLine
 62
7
  6
CONTINUOUS
 10
41.2866320243
 20
184.5307336029
 11
41.4665149012
 21
184.0966336594
  0
LINE
  5
2A1
100
AcDbEntity
  8
0
100
AcDbLine
 62
7
  6
CONTINUOUS
 10
44.7638313321
 20
185.4629797614
 11
44.5839484552
 21
185.8970797049
  0
LINE
  5
2A2
100
AcDbEntity
  8
0
100
AcDbLine
 62
7
  6
CONTINUOUS
 10
63.6754916327
 20
110.0639711557
 11
63.850446471
 21
109.6278617487
  0
LINE
  5
2A3
100
AcDbEntity
  8
0
100
AcDbLine
 62
7
  6
CONTINUOUS
 10
67.1630262928
 20
110.9567756814
 11
66.9880714544
 21
111.3928850884
  0
LINE
  5
2A4
100
AcDbEntity
  8
0
100
AcDbLine
 62
7
  6
CONTINUOUS
 10
28.2228957161
 20
360.013192741
 11
28.2842958997
 21
359.54732728
  0
LINE
  5
2A5
100
AcDbEntity
  8
0
100
AcDbLine
 62
7
  6
CONTINUOUS
 10
31.8228953912
 20
360.0137079775
 11
31.7614952075
 21
360.4795734386
  0
LINE
  5
2A6
100
AcDbEntity
  8
0
100
AcDbLine
 62
7
  6
CONTINUOUS
 10
41.2252318407
 20
339.9947445492
 11
41.2866320243
 21
339.5288790882
  0
LINE
  5
2A7
100
AcDbEntity
  8
0
100
AcDbLine
 62
7
  6
CONTINUOUS
 10
44.8252315158
 20
339.9952597857
 11
44.7638313321
 21
340.4611252467
  0
LINE
  5
2A8
100
AcDbEntity
  8
0
100
AcDbLine
 62
7
  6
CONTINUOUS
 10
73.4296405813
 20
179.9999856
 11
73.4807518377
 21
179.6117570634
  0
LINE
  5
2A9
100
AcDbEntity
  8
0
100
AcDbLine
 62
7
  6
CONTINUOUS
 10
63.6193716562
 20
110.5305021391
 11
63.6754916327
 21
110.0639711557
  0
LINE
  5
2AA
100
AcDbEntity
  8
0
100
AcDbLine
 62
7
  6
CONTINUOUS
 10
67.2191462692
 20
110.4902446979
 11
67.1630262928
 21
110.9567756814
  0
LINE
  5
2AB
100
AcDbEntity
  8
0
100
AcDbLine
 62
7
  6
CONTINUOUS
 10
79.9296400613
 20
168.99998648
 11
79.963860613
 21
168.4778817529
  0
LINE
  5
2AC
100
AcDbEntity
  8
0
100
AcDbLine
 62
7
  6
CONTINUOUS
 10
79.9296400613
 20
239.0070177755
 11
79.963860613
 21
238.4849130484
  0
LINE
  5
2AD
100
AcDbEntity
  8
0
100
AcDbLine
 62
7
  6
CONTINUOUS
 10
89.9296392613
 20
191.99998464
 11
89.8954187095
 21
192.5220893671
  0
LINE
  5
2AE
100
AcDbEntity
  8
0
100
AcDbLine
 62
7
  6
CONTINUOUS
 10
89.9296392613
 20
262.0070159355
 11
89.8954187095
 21
262.5291206626
  0
LINE
  5
2AF
100
AcDbEntity
  8
0
100
AcDbLine
 62
7
  6
CONTINUOUS
 10
79.9296400613
 20
297.99997616
 11
79.9296400613
 21
277.99997776
  0
LINE
  5
2B0
100
AcDbEntity
  8
0
100
AcDbLine
 62
7
  6
CONTINUOUS
 10
79.9296400613
 20
219.9999824
 11
79.9296400613
 21
209.9999832
  0
LINE
  5
2B1
100
AcDbEntity
  8
0
100
AcDbLine
 62
7
  6
CONTINUOUS
 10
79.9296400613
 20
131.99998944
 11
79.9296400613
 21
151.99998784
  0
LINE
  5
2B2
100
AcDbEntity
  8
0
100
AcDbLine
 62
7
  6
CONTINUOUS
 10
79.9296400613
 20
168.99998648
 11
79.9296400613
 21
191.99998464
  0
LINE
  5
2B3
100
AcDbEntity
  8
0
100
AcDbLine
 62
7
  6
CONTINUOUS
 10
79.9296400613
 20
239.0070177755
 11
79.9296400613
 21
262.0070159355
  0
LINE
  5
2B4
100
AcDbEntity
  8
0
100
AcDbLine
 62
7
  6
CONTINUOUS
 10
89.9296392613
 20
262.0070159355
 11
89.9296392613
 21
239.0070177755
  0
LINE
  5
2B5
100
AcDbEntity
  8
0
100
AcDbLine
 62
7
  6
CONTINUOUS
 10
89.9296392613
 20
191.99998464
 11
89.9296392613
 21
168.99998648
  0
LINE
  5
2B6
100
AcDbEntity
  8
0
100
AcDbLine
 62
7
  6
CONTINUOUS
 10
89.9296392613
 20
209.9999832
 11
89.9296392613
 21
219.9999824
  0
LINE
  5
2B7
100
AcDbEntity
  8
0
100
AcDbLine
 62
7
  6
CONTINUOUS
 10
94.9999924
 20
19.9344549424
 11
94.9999924
 21
34.9999972
  0
LINE
  5
2B8
100
AcDbEntity
  8
0
100
AcDbLine
 62
7
  6
CONTINUOUS
 10
79.963860613
 20
262.5291206626
 11
79.9296400613
 21
262.0070159355
  0
LINE
  5
2B9
100
AcDbEntity
  8
0
100
AcDbLine
 62
7
  6
CONTINUOUS
 10
79.963860613
 20
192.5220893671
 11
79.9296400613
 21
191.99998464
  0
LINE
  5
2BA
100
AcDbEntity
  8
0
100
AcDbLine
 62
7
  6
CONTINUOUS
 10
89.8954187095
 20
238.4849130484
 11
89.9296392613
 21
239.0070177755
  0
LINE
  5
2BB
100
AcDbEntity
  8
0
100
AcDbLine
 62
7
  6
CONTINUOUS
 10
89.8954187095
 20
168.4778817529
 11
89.9296392613
 21
168.99998648
  0
LINE
  5
2BC
100
AcDbEntity
  8
0
100
AcDbLine
 62
7
  6
CONTINUOUS
 10
73.4807518377
 20
180.3882141366
 11
73.4296405813
 21
179.9999856
  0
LINE
  5
2BD
100
AcDbEntity
  8
0
100
AcDbLine
 62
7
  6
CONTINUOUS
 10
51.7386623482
 20
5.5341252761
 11
51.799995856
 21
5.99999952
  0
LINE
  5
2BE
100
AcDbEntity
  8
0
100
AcDbLine
 62
7
  6
CONTINUOUS
 10
76.3785290848
 20
179.6117570634
 11
76.4296403413
 21
179.9999856
  0
LINE
  5
2BF
100
AcDbEntity
  8
0
100
AcDbLine
 62
7
  6
CONTINUOUS
 10
93.4807502377
 20
250.3882085366
 11
93.4296389813
 21
249.99998
  0
LINE
  5
2C0
100
AcDbEntity
  8
0
100
AcDbLine
 62
7
  6
CONTINUOUS
 10
96.3785274848
 20
249.6117514634
 11
96.4296387413
 21
249.99998
  0
LINE
  5
2C1
100
AcDbEntity
  8
0
100
AcDbLine
 62
7
  6
CONTINUOUS
 10
93.4807502377
 20
180.3882141366
 11
93.4296389813
 21
179.9999856
  0
LINE
  5
2C2
100
AcDbEntity
  8
0
100
AcDbLine
 62
7
  6
CONTINUOUS
 10
63.6859110252
 20
110.9956613836
 11
63.6193716562
 21
110.5305021391
  0
LINE
  5
2C3
100
AcDbEntity
  8
0
100
AcDbLine
 62
7
  6
CONTINUOUS
 10
67.1526069003
 20
110.0250854535
 11
67.2191462692
 21
110.4902446979
  0
LINE
  5
2C4
100
AcDbEntity
  8
0
100
AcDbLine
 62
7
  6
CONTINUOUS
 10
80.0659367452
 20
193.0352607376
 11
79.963860613
 21
192.5220893671
  0
LINE
  5
2C5
100
AcDbEntity
  8
0
100
AcDbLine
 62
7
  6
CONTINUOUS
 10
89.7933425773
 20
237.9717416779
 11
89.8954187095
 21
238.4849130484
  0
LINE
  5
2C6
100
AcDbEntity
  8
0
100
AcDbLine
 62
7
  6
CONTINUOUS
 10
89.6251574157
 20
237.4762841685
 11
89.7933425773
 21
237.9717416779
  0
LINE
  5
2C7
100
AcDbEntity
  8
0
100
AcDbLine
 62
7
  6
CONTINUOUS
 10
80.2341219069
 20
193.530718247
 11
80.0659367452
 21
193.0352607376
  0
LINE
  5
2C8
100
AcDbEntity
  8
0
100
AcDbLine
 62
7
  6
CONTINUOUS
 10
8.4099186318
 20
40.920460863
 11
8.2301600201
 21
40.4863094472
  0
LINE
  5
2C9
100
AcDbEntity
  8
0
100
AcDbLine
 62
7
  6
CONTINUOUS
 10
11.5278674223
 20
39.1209072333
 11
11.707626034
 21
39.5550586492
  0
LINE
  5
2CA
100
AcDbEntity
  8
0
100
AcDbLine
 62
7
  6
CONTINUOUS
 10
93.6306008595
 20
250.74997994
 11
93.4807502377
 21
250.3882085366
  0
LINE
  5
2CB
100
AcDbEntity
  8
0
100
AcDbLine
 62
7
  6
CONTINUOUS
 10
96.228676863
 20
249.24998006
 11
96.3785274848
 21
249.6117514634
  0
LINE
  5
2CC
100
AcDbEntity
  8
0
100
AcDbLine
 62
7
  6
CONTINUOUS
 10
73.6306024595
 20
180.74998554
 11
73.4807518377
 21
180.3882141366
  0
LINE
  5
2CD
100
AcDbEntity
  8
0
100
AcDbLine
 62
7
  6
CONTINUOUS
 10
76.228678463
 20
179.24998566
 11
76.3785290848
 21
179.6117570634
  0
LINE
  5
2CE
100
AcDbEntity
  8
0
100
AcDbLine
 62
7
  6
CONTINUOUS
 10
89.3937409193
 20
237.0070179355
 11
89.6251574157
 21
237.4762841685
  0
LINE
  5
2CF
100
AcDbEntity
  8
0
100
AcDbLine
 62
7
  6
CONTINUOUS
 10
80.756226634
 20
264.4420614567
 11
80.4655384032
 21
264.0070157755
  0
LINE
  5
2D0
100
AcDbEntity
  8
0
100
AcDbLine
 62
7
  6
CONTINUOUS
 10
41.7522574233
 20
186.2694666098
 11
41.466257283
 21
185.896633497
  0
LINE
  5
2D1
100
AcDbEntity
  8
0
100
AcDbLine
 62
7
  6
CONTINUOUS
 10
73.8689803743
 20
251.0606400869
 11
73.6306024595
 21
250.74997994
  0
LINE
  5
2D2
100
AcDbEntity
  8
0
100
AcDbLine
 62
7
  6
CONTINUOUS
 10
75.9903005482
 20
248.9393199131
 11
76.228678463
 21
249.24998006
  0
LINE
  5
2D3
100
AcDbEntity
  8
0
100
AcDbLine
 62
7
  6
CONTINUOUS
 10
81.1012128428
 20
264.835442834
 11
80.756226634
 21
264.4420614567
  0
LINE
  5
2D4
100
AcDbEntity
  8
0
100
AcDbLine
 62
7
  6
CONTINUOUS
 10
79.9296400613
 20
277.99997776
 11
69.9296408613
 21
267.99997856
  0
LINE
  5
2D5
100
AcDbEntity
  8
0
100
AcDbLine
 62
7
  6
CONTINUOUS
 10
64.9533847188
 20
321.2490230468
 11
64.5192590347
 21
321.0692023007
  0
LINE
  5
2D6
100
AcDbEntity
  8
0
100
AcDbLine
 62
7
  6
CONTINUOUS
 10
65.8851332066
 20
317.7716903503
 11
66.3192588907
 21
317.9515110964
  0
LINE
  5
2D7
100
AcDbEntity
  8
0
100
AcDbLine
 62
7
  6
CONTINUOUS
 10
595.9410969607
 20
6.1362962039
 11
594.9058208631
 21
5.99999952
  0
LINE
  5
2D8
100
AcDbEntity
  8
0
100
AcDbLine
 62
7
  6
CONTINUOUS
 10
14.9911924229
 20
6.1731170585
 11
16.0264685205
 21
6.0368203745
  0
LINE
  5
2D9
100
AcDbEntity
  8
0
100
AcDbLine
 62
7
  6
CONTINUOUS
 10
139.099988872
 20
4.4411539179
 11
139.5341145561
 21
4.2613331718
  0
LINE
  5
2DA
100
AcDbEntity
  8
0
100
AcDbLine
 62
7
  6
CONTINUOUS
 10
140.899988728
 20
7.5588451221
 11
140.4658630439
 21
7.7386658682
  0
LINE
  5
2DB
100
AcDbEntity
  8
0
100
AcDbLine
 62
7
  6
CONTINUOUS
 10
59.9296416613
 20
107.99999136
 11
62.9296414213
 21
104.9999916
  0
LINE
  5
2DC
100
AcDbEntity
  8
0
100
AcDbLine
 62
7
  6
CONTINUOUS
 10
41.4665149012
 20
184.0966336594
 11
41.7526217506
 21
183.7238824272
  0
LINE
  5
2DD
100
AcDbEntity
  8
0
100
AcDbLine
 62
7
  6
CONTINUOUS
 10
80.2341219069
 20
167.469252873
 11
80.4655384032
 21
166.99998664
  0
LINE
  5
2DE
100
AcDbEntity
  8
0
100
AcDbLine
 62
7
  6
CONTINUOUS
 10
138.2613224518
 20
5.5341252761
 11
138.4411431979
 21
5.099999592
  0
LINE
  5
2DF
100
AcDbEntity
  8
0
100
AcDbLine
 62
7
  6
CONTINUOUS
 10
141.7386551482
 20
6.4658737639
 11
141.5588344021
 21
6.899999448
  0
LINE
  5
2E0
100
AcDbEntity
  8
0
100
AcDbLine
 62
7
  6
CONTINUOUS
 10
73.4807518377
 20
179.6117570634
 11
73.6306024595
 21
179.24998566
  0
LINE
  5
2E1
100
AcDbEntity
  8
0
100
AcDbLine
 62
7
  6
CONTINUOUS
 10
76.3785290848
 20
180.3882141366
 11
76.228678463
 21
180.74998554
  0
LINE
  5
2E2
100
AcDbEntity
  8
0
100
AcDbLine
 62
7
  6
CONTINUOUS
 10
80.0659367452
 20
167.9647103824
 11
80.2341219069
 21
167.469252873
  0
LINE
  5
2E3
100
AcDbEntity
  8
0
100
AcDbLine
 62
7
  6
CONTINUOUS
 10
79.963860613
 20
168.4778817529
 11
80.0659367452
 21
167.9647103824
  0
LINE
  5
2E4
100
AcDbEntity
  8
0
100
AcDbLine
 62
7
  6
CONTINUOUS
 10
79.963860613
 20
238.4849130484
 11
80.0659367452
 21
237.9717416779
  0
LINE
  5
2E5
100
AcDbEntity
  8
0
100
AcDbLine
 62
7
  6
CONTINUOUS
 10
89.8954187095
 20
192.5220893671
 11
89.7933425773
 21
193.0352607376
  0
LINE
  5
2E6
100
AcDbEntity
  8
0
100
AcDbLine
 62
7
  6
CONTINUOUS
 10
94.9999924
 20
19.9344549424
 11
95.1620283197
 21
18.7036699389
  0
LINE
  5
2E7
100
AcDbEntity
  8
0
100
AcDbLine
 62
7
  6
CONTINUOUS
 10
76.4296403413
 20
179.9999856
 11
76.3785290848
 21
180.3882141366
  0
LINE
  5
2E8
100
AcDbEntity
  8
0
100
AcDbLine
 62
7
  6
CONTINUOUS
 10
63.6192591067
 20
319.5103566985
 11
63.6805926145
 21
319.0444824546
  0
LINE
  5
2E9
100
AcDbEntity
  8
0
100
AcDbLine
 62
7
  6
CONTINUOUS
 10
73.4296405813
 20
249.99998
 11
73.4807518377
 21
249.6117514634
  0
LINE
  5
2EA
100
AcDbEntity
  8
0
100
AcDbLine
 62
7
  6
CONTINUOUS
 10
67.2192588187
 20
319.5103566985
 11
67.1579253109
 21
319.9762309425
  0
LINE
  5
2EB
100
AcDbEntity
  8
0
100
AcDbLine
 62
7
  6
CONTINUOUS
 10
76.4296403413
 20
249.99998
 11
76.3785290848
 21
250.3882085366
  0
LINE
  5
2EC
100
AcDbEntity
  8
0
100
AcDbLine
 62
7
  6
CONTINUOUS
 10
93.4296389813
 20
179.9999856
 11
93.4807502377
 21
179.6117570634
  0
LINE
  5
2ED
100
AcDbEntity
  8
0
100
AcDbLine
 62
7
  6
CONTINUOUS
 10
104.9999916
 20
19.9344549424
 11
104.9999916
 21
34.9999972
  0
LINE
  5
2EE
100
AcDbEntity
  8
0
100
AcDbLine
 62
7
  6
CONTINUOUS
 10
96.3785274848
 20
179.6117570634
 11
96.4296387413
 21
179.9999856
  0
LINE
  5
2EF
100
AcDbEntity
  8
0
100
AcDbLine
 62
7
  6
CONTINUOUS
 10
89.7933425773
 20
167.9647103824
 11
89.8954187095
 21
168.4778817529
  0
LINE
  5
2F0
100
AcDbEntity
  8
0
100
AcDbLine
 62
7
  6
CONTINUOUS
 10
89.6251574157
 20
167.469252873
 11
89.7933425773
 21
167.9647103824
  0
LINE
  5
2F1
100
AcDbEntity
  8
0
100
AcDbLine
 62
7
  6
CONTINUOUS
 10
18.4168407644
 20
20.9066165978
 11
18.2370821527
 21
20.472465182
  0
LINE
  5
2F2
100
AcDbEntity
  8
0
100
AcDbLine
 62
7
  6
CONTINUOUS
 10
28.423762897
 20
40.920460863
 11
28.2440042853
 21
40.4863094472
  0
LINE
  5
2F3
100
AcDbEntity
  8
0
100
AcDbLine
 62
7
  6
CONTINUOUS
 10
21.5347895549
 20
19.1070629681
 11
21.7145481666
 21
19.541214384
  0
LINE
  5
2F4
100
AcDbEntity
  8
0
100
AcDbLine
 62
7
  6
CONTINUOUS
 10
31.5417116875
 20
39.1209072333
 11
31.7214702992
 21
39.5550586492
  0
LINE
  5
2F5
100
AcDbEntity
  8
0
100
AcDbLine
 62
7
  6
CONTINUOUS
 10
12.5623671824
 20
12.0368198945
 11
12.1627655244
 21
11.0720961521
  0
LINE
  5
2F6
100
AcDbEntity
  8
0
100
AcDbLine
 62
7
  6
CONTINUOUS
 10
93.6306008595
 20
180.74998554
 11
93.4807502377
 21
180.3882141366
  0
LINE
  5
2F7
100
AcDbEntity
  8
0
100
AcDbLine
 62
7
  6
CONTINUOUS
 10
96.228676863
 20
179.24998566
 11
96.3785274848
 21
179.6117570634
  0
LINE
  5
2F8
100
AcDbEntity
  8
0
100
AcDbLine
 62
7
  6
CONTINUOUS
 10
27.4865389357
 20
8.0368202145
 11
27.8861405937
 21
9.0015439569
  0
LINE
  5
2F9
100
AcDbEntity
  8
0
100
AcDbLine
 62
7
  6
CONTINUOUS
 10
63.8705751916
 20
111.4277490552
 11
63.6859110252
 21
110.9956613836
  0
LINE
  5
2FA
100
AcDbEntity
  8
0
100
AcDbLine
 62
7
  6
CONTINUOUS
 10
66.9679427338
 20
109.5929977819
 11
67.1526069003
 21
110.0250854535
  0
LINE
  5
2FB
100
AcDbEntity
  8
0
100
AcDbLine
 62
7
  6
CONTINUOUS
 10
80.4655384032
 20
193.99998448
 11
80.2341219069
 21
193.530718247
  0
LINE
  5
2FC
100
AcDbEntity
  8
0
100
AcDbLine
 62
7
  6
CONTINUOUS
 10
89.1030526885
 20
236.5719722543
 11
89.3937409193
 21
237.0070179355
  0
LINE
  5
2FD
100
AcDbEntity
  8
0
100
AcDbLine
 62
7
  6
CONTINUOUS
 10
80.756226634
 20
194.4350301612
 11
80.4655384032
 21
193.99998448
  0
LINE
  5
2FE
100
AcDbEntity
  8
0
100
AcDbLine
 62
7
  6
CONTINUOUS
 10
44.2982059331
 20
183.7242467545
 11
44.5842060735
 21
184.0970798673
  0
LINE
  5
2FF
100
AcDbEntity
  8
0
100
AcDbLine
 62
7
  6
CONTINUOUS
 10
93.8689787743
 20
251.0606400869
 11
93.6306008595
 21
250.74997994
  0
LINE
  5
300
100
AcDbEntity
  8
0
100
AcDbLine
 62
7
  6
CONTINUOUS
 10
95.9902989482
 20
248.9393199131
 11
96.228676863
 21
249.24998006
  0
LINE
  5
301
100
AcDbEntity
  8
0
100
AcDbLine
 62
7
  6
CONTINUOUS
 10
88.7580664797
 20
236.178590877
 11
89.1030526885
 21
236.5719722543
  0
LINE
  5
302
100
AcDbEntity
  8
0
100
AcDbLine
 62
7
  6
CONTINUOUS
 10
81.49459422
 20
265.1804290428
 11
81.1012128428
 21
264.835442834
  0
LINE
  5
303
100
AcDbEntity
  8
0
100
AcDbLine
 62
7
  6
CONTINUOUS
 10
74.1796405213
 20
251.2990180018
 11
73.8689803743
 21
251.0606400869
  0
LINE
  5
304
100
AcDbEntity
  8
0
100
AcDbLine
 62
7
  6
CONTINUOUS
 10
75.6796404013
 20
248.7009419982
 11
75.9903005482
 21
248.9393199131
  0
LINE
  5
305
100
AcDbEntity
  8
0
100
AcDbLine
 62
7
  6
CONTINUOUS
 10
81.9296399013
 20
265.4711172735
 11
81.49459422
 21
265.1804290428
  0
LINE
  5
306
100
AcDbEntity
  8
0
100
AcDbLine
 62
7
  6
CONTINUOUS
 10
585.8745756883
 20
13.8637021961
 11
586.9098517859
 21
13.99999888
  0
LINE
  5
307
100
AcDbEntity
  8
0
100
AcDbLine
 62
7
  6
CONTINUOUS
 10
19.5101897606
 20
18.268106776
 11
19.9760727779
 21
18.2068399454
  0
LINE
  5
308
100
AcDbEntity
  8
0
100
AcDbLine
 62
7
  6
CONTINUOUS
 10
20.4414405587
 20
21.7455727899
 11
19.9755575414
 21
21.8068396205
  0
LINE
  5
309
100
AcDbEntity
  8
0
100
AcDbLine
 62
7
  6
CONTINUOUS
 10
42.5175577407
 20
23.2715678423
 11
42.983440758
 21
23.2103010117
  0
LINE
  5
30A
100
AcDbEntity
  8
0
100
AcDbLine
 62
7
  6
CONTINUOUS
 10
49.5341217561
 20
4.2613331718
 11
49.999996
 21
4.199999664
  0
LINE
  5
30B
100
AcDbEntity
  8
0
100
AcDbLine
 62
7
  6
CONTINUOUS
 10
50.4658702439
 20
7.7386658682
 11
49.999996
 21
7.799999376
  0
LINE
  5
30C
100
AcDbEntity
  8
0
100
AcDbLine
 62
7
  6
CONTINUOUS
 10
25.0577136953
 20
13.9005230506
 11
24.0224375977
 21
14.0368197345
  0
LINE
  5
30D
100
AcDbEntity
  8
0
100
AcDbLine
 62
7
  6
CONTINUOUS
 10
139.5341145561
 20
4.2613331718
 11
139.9999888
 21
4.199999664
  0
LINE
  5
30E
100
AcDbEntity
  8
0
100
AcDbLine
 62
7
  6
CONTINUOUS
 10
140.4658630439
 20
7.7386658682
 11
139.9999888
 21
7.799999376
  0
LINE
  5
30F
100
AcDbEntity
  8
0
100
AcDbLine
 62
7
  6
CONTINUOUS
 10
98.7036635389
 20
15.1620347197
 11
99.999992
 21
14.9913698401
  0
LINE
  5
310
100
AcDbEntity
  8
0
100
AcDbLine
 62
7
  6
CONTINUOUS
 10
229.099981672
 20
4.4411539179
 11
229.5341073561
 21
4.2613331718
  0
LINE
  5
311
100
AcDbEntity
  8
0
100
AcDbLine
 62
7
  6
CONTINUOUS
 10
230.899981528
 20
7.5588451221
 11
230.4658558439
 21
7.7386658682
  0
LINE
  5
312
100
AcDbEntity
  8
0
100
AcDbLine
 62
7
  6
CONTINUOUS
 10
228.7271894957
 20
4.7272074157
 11
229.099981672
 21
4.4411539179
  0
LINE
  5
313
100
AcDbEntity
  8
0
100
AcDbLine
 62
7
  6
CONTINUOUS
 10
64.1323132881
 20
109.2518940536
 11
64.5018833261
 21
108.9616896474
  0
LINE
  5
314
100
AcDbEntity
  8
0
100
AcDbLine
 62
7
  6
CONTINUOUS
 10
66.7062046374
 20
111.7688527835
 11
66.3366345994
 21
112.0590571896
  0
LINE
  5
315
100
AcDbEntity
  8
0
100
AcDbLine
 62
7
  6
CONTINUOUS
 10
179.9999856
 20
14.9999988
 11
154.9999876
 21
39.9999968
  0
LINE
  5
316
100
AcDbEntity
  8
0
100
AcDbLine
 62
7
  6
CONTINUOUS
 10
44.5839484552
 20
185.8970797049
 11
44.2978416059
 21
186.269830937
  0
LINE
  5
317
100
AcDbEntity
  8
0
100
AcDbLine
 62
7
  6
CONTINUOUS
 10
80.4655384032
 20
166.99998664
 11
80.756226634
 21
166.5649409588
  0
LINE
  5
318
100
AcDbEntity
  8
0
100
AcDbLine
 62
7
  6
CONTINUOUS
 10
89.6251574157
 20
193.530718247
 11
89.3937409193
 21
193.99998448
  0
LINE
  5
319
100
AcDbEntity
  8
0
100
AcDbLine
 62
7
  6
CONTINUOUS
 10
8.2658477079
 20
359.54732728
 11
8.4457305848
 21
359.1132273366
  0
LINE
  5
31A
100
AcDbEntity
  8
0
100
AcDbLine
 62
7
  6
CONTINUOUS
 10
11.7430470157
 20
360.4795734386
 11
11.5631641388
 21
360.913673382
  0
LINE
  5
31B
100
AcDbEntity
  8
0
100
AcDbLine
 62
7
  6
CONTINUOUS
 10
28.2842958997
 20
359.54732728
 11
28.4641787766
 21
359.1132273366
  0
LINE
  5
31C
100
AcDbEntity
  8
0
100
AcDbLine
 62
7
  6
CONTINUOUS
 10
93.4807502377
 20
179.6117570634
 11
93.6306008595
 21
179.24998566
  0
LINE
  5
31D
100
AcDbEntity
  8
0
100
AcDbLine
 62
7
  6
CONTINUOUS
 10
96.3785274848
 20
180.3882141366
 11
96.228676863
 21
180.74998554
  0
LINE
  5
31E
100
AcDbEntity
  8
0
100
AcDbLine
 62
7
  6
CONTINUOUS
 10
73.4807518377
 20
249.6117514634
 11
73.6306024595
 21
249.24998006
  0
LINE
  5
31F
100
AcDbEntity
  8
0
100
AcDbLine
 62
7
  6
CONTINUOUS
 10
89.7933425773
 20
193.0352607376
 11
89.6251574157
 21
193.530718247
  0
LINE
  5
320
100
AcDbEntity
  8
0
100
AcDbLine
 62
7
  6
CONTINUOUS
 10
80.0659367452
 20
237.9717416779
 11
80.2341219069
 21
237.4762841685
  0
LINE
  5
321
100
AcDbEntity
  8
0
100
AcDbLine
 62
7
  6
CONTINUOUS
 10
89.8954187095
 20
262.5291206626
 11
89.7933425773
 21
263.0422920331
  0
LINE
  5
322
100
AcDbEntity
  8
0
100
AcDbLine
 62
7
  6
CONTINUOUS
 10
96.4296387413
 20
179.9999856
 11
96.3785274848
 21
180.3882141366
  0
LINE
  5
323
100
AcDbEntity
  8
0
100
AcDbLine
 62
7
  6
CONTINUOUS
 10
93.4296389813
 20
249.99998
 11
93.4807502377
 21
249.6117514634
  0
LINE
  5
324
100
AcDbEntity
  8
0
100
AcDbLine
 62
7
  6
CONTINUOUS
 10
96.4296387413
 20
249.99998
 11
96.3785274848
 21
250.3882085366
  0
LINE
  5
325
100
AcDbEntity
  8
0
100
AcDbLine
 62
7
  6
CONTINUOUS
 10
138.199988944
 20
5.99999952
 11
138.2613224518
 21
5.5341252761
  0
LINE
  5
326
100
AcDbEntity
  8
0
100
AcDbLine
 62
7
  6
CONTINUOUS
 10
104.8379556803
 20
18.7036699389
 11
104.9999916
 21
19.9344549424
  0
LINE
  5
327
100
AcDbEntity
  8
0
100
AcDbLine
 62
7
  6
CONTINUOUS
 10
41.4242087445
 20
25.9100776641
 11
41.2444501328
 21
25.4759262483
  0
LINE
  5
328
100
AcDbEntity
  8
0
100
AcDbLine
 62
7
  6
CONTINUOUS
 10
44.542157535
 20
24.1105240344
 11
44.7219161467
 21
24.5446754503
  0
LINE
  5
329
100
AcDbEntity
  8
0
100
AcDbLine
 62
7
  6
CONTINUOUS
 10
48.4411503979
 20
6.899999448
 11
48.2613296518
 21
6.4658737639
  0
LINE
  5
32A
100
AcDbEntity
  8
0
100
AcDbLine
 62
7
  6
CONTINUOUS
 10
89.3937409193
 20
166.99998664
 11
89.6251574157
 21
167.469252873
  0
LINE
  5
32B
100
AcDbEntity
  8
0
100
AcDbLine
 62
7
  6
CONTINUOUS
 10
89.1030526885
 20
166.5649409588
 11
89.3937409193
 21
166.99998664
  0
LINE
  5
32C
100
AcDbEntity
  8
0
100
AcDbLine
 62
7
  6
CONTINUOUS
 10
73.8689803743
 20
181.0606456869
 11
73.6306024595
 21
180.74998554
  0
LINE
  5
32D
100
AcDbEntity
  8
0
100
AcDbLine
 62
7
  6
CONTINUOUS
 10
75.9903005482
 20
178.9393255131
 11
76.228678463
 21
179.24998566
  0
LINE
  5
32E
100
AcDbEntity
  8
0
100
AcDbLine
 62
7
  6
CONTINUOUS
 10
81.1012128428
 20
194.8284115385
 11
80.756226634
 21
194.4350301612
  0
LINE
  5
32F
100
AcDbEntity
  8
0
100
AcDbLine
 62
7
  6
CONTINUOUS
 10
79.9296400613
 20
209.9999832
 11
69.9296408613
 21
199.999984
  0
LINE
  5
330
100
AcDbEntity
  8
0
100
AcDbLine
 62
7
  6
CONTINUOUS
 10
89.9296392613
 20
219.9999824
 11
109.9296376613
 21
239.9999808
  0
LINE
  5
331
100
AcDbEntity
  8
0
100
AcDbLine
 62
7
  6
CONTINUOUS
 10
88.3646851025
 20
235.8336046682
 11
88.7580664797
 21
236.178590877
  0
LINE
  5
332
100
AcDbEntity
  8
0
100
AcDbLine
 62
7
  6
CONTINUOUS
 10
94.1796389213
 20
251.2990180018
 11
93.8689787743
 21
251.0606400869
  0
LINE
  5
333
100
AcDbEntity
  8
0
100
AcDbLine
 62
7
  6
CONTINUOUS
 10
95.6796388013
 20
248.7009419982
 11
95.9902989482
 21
248.9393199131
  0
LINE
  5
334
100
AcDbEntity
  8
0
100
AcDbLine
 62
7
  6
CONTINUOUS
 10
82.3989061343
 20
265.7025337699
 11
81.9296399013
 21
265.4711172735
  0
LINE
  5
335
100
AcDbEntity
  8
0
100
AcDbLine
 62
7
  6
CONTINUOUS
 10
353.6267924765
 20
6.0368203745
 11
354.595207625
 21
6.1731170585
  0
LINE
  5
336
100
AcDbEntity
  8
0
100
AcDbLine
 62
7
  6
CONTINUOUS
 10
350.003854374
 20
18.1673917237
 11
350.469719835
 21
18.2287919073
  0
LINE
  5
337
100
AcDbEntity
  8
0
100
AcDbLine
 62
7
  6
CONTINUOUS
 10
513.1815299997
 20
25.7499243043
 11
512.0427262924
 21
25.599997952
  0
LINE
  5
338
100
AcDbEntity
  8
0
100
AcDbLine
 62
7
  6
CONTINUOUS
 10
349.999972
 20
5.99999952
 11
350.2796541571
 21
6.0368203745
  0
LINE
  5
339
100
AcDbEntity
  8
0
100
AcDbLine
 62
7
  6
CONTINUOUS
 10
319.9999744
 20
4.199999664
 11
320.4658486439
 21
4.2613331718
  0
LINE
  5
33A
100
AcDbEntity
  8
0
100
AcDbLine
 62
7
  6
CONTINUOUS
 10
319.9999744
 20
7.799999376
 11
319.5341001561
 21
7.7386658682
  0
LINE
  5
33B
100
AcDbEntity
  8
0
100
AcDbLine
 62
7
  6
CONTINUOUS
 10
345.5639624502
 20
14.0368197345
 11
344.5286863526
 21
13.9005230506
  0
LINE
  5
33C
100
AcDbEntity
  8
0
100
AcDbLine
 62
7
  6
CONTINUOUS
 10
462.0427302924
 20
0.0
 11
442.0427318924
 21
0.0
  0
LINE
  5
33D
100
AcDbEntity
  8
0
100
AcDbLine
 62
7
  6
CONTINUOUS
 10
364.9999708
 20
0.0
 11
344.9999724
 21
0.0
  0
LINE
  5
33E
100
AcDbEntity
  8
0
100
AcDbLine
 62
7
  6
CONTINUOUS
 10
24.999998
 20
0.0
 11
4.9999996
 21
0.0
  0
LINE
  5
33F
100
AcDbEntity
  8
0
100
AcDbLine
 62
7
  6
CONTINUOUS
 10
382.255479347
 20
0.0636789227
 11
407.655477315
 21
0.0636789227
  0
LINE
  5
340
100
AcDbEntity
  8
0
100
AcDbLine
 62
7
  6
CONTINUOUS
 10
614.8427180684
 20
1.99999984
 11
464.0427301324
 21
1.99999984
  0
LINE
  5
341
100
AcDbEntity
  8
0
100
AcDbLine
 62
7
  6
CONTINUOUS
 10
342.99997256
 20
1.99999984
 11
26.99999784
 21
1.99999984
  0
LINE
  5
342
100
AcDbEntity
  8
0
100
AcDbLine
 62
7
  6
CONTINUOUS
 10
594.9058208631
 20
5.99999952
 11
586.8429908368
 21
5.99999952
  0
LINE
  5
343
100
AcDbEntity
  8
0
100
AcDbLine
 62
7
  6
CONTINUOUS
 10
16.0264685205
 20
6.0368203745
 11
24.0892985468
 21
6.0368203745
  0
LINE
  5
344
100
AcDbEntity
  8
0
100
AcDbLine
 62
7
  6
CONTINUOUS
 10
345.5639624502
 20
6.0368203745
 11
353.6267924765
 21
6.0368203745
  0
LINE
  5
345
100
AcDbEntity
  8
0
100
AcDbLine
 62
7
  6
CONTINUOUS
 10
376.155479835
 20
9.4209068372
 11
382.255479347
 21
9.4209068372
  0
LINE
  5
346
100
AcDbEntity
  8
0
100
AcDbLine
 62
7
  6
CONTINUOUS
 10
594.9058208631
 20
13.99999888
 11
586.9098517859
 21
13.99999888
  0
LINE
  5
347
100
AcDbEntity
  8
0
100
AcDbLine
 62
7
  6
CONTINUOUS
 10
16.0264685205
 20
14.0368197345
 11
24.0224375977
 21
14.0368197345
  0
LINE
  5
348
100
AcDbEntity
  8
0
100
AcDbLine
 62
7
  6
CONTINUOUS
 10
345.5639624502
 20
14.0368197345
 11
353.5599315274
 21
14.0368197345
  0
LINE
  5
349
100
AcDbEntity
  8
0
100
AcDbLine
 62
7
  6
CONTINUOUS
 10
43.4488085387
 20
26.7490338562
 11
42.9829255215
 21
26.8103006868
  0
LINE
  5
34A
100
AcDbEntity
  8
0
100
AcDbLine
 62
7
  6
CONTINUOUS
 10
9.503267628
 20
38.2819510412
 11
9.9691506453
 21
38.2206842106
  0
LINE
  5
34B
100
AcDbEntity
  8
0
100
AcDbLine
 62
7
  6
CONTINUOUS
 10
29.5171118932
 20
38.2819510412
 11
29.9829949105
 21
38.2206842106
  0
LINE
  5
34C
100
AcDbEntity
  8
0
100
AcDbLine
 62
7
  6
CONTINUOUS
 10
10.4345184261
 20
41.7594170551
 11
9.9686354088
 21
41.8206838857
  0
LINE
  5
34D
100
AcDbEntity
  8
0
100
AcDbLine
 62
7
  6
CONTINUOUS
 10
30.4483626913
 20
41.7594170551
 11
29.982479674
 21
41.8206838857
  0
LINE
  5
34E
100
AcDbEntity
  8
0
100
AcDbLine
 62
7
  6
CONTINUOUS
 10
229.5341073561
 20
4.2613331718
 11
229.9999816
 21
4.199999664
  0
LINE
  5
34F
100
AcDbEntity
  8
0
100
AcDbLine
 62
7
  6
CONTINUOUS
 10
230.4658558439
 20
7.7386658682
 11
229.9999816
 21
7.799999376
  0
LINE
  5
350
100
AcDbEntity
  8
0
100
AcDbLine
 62
7
  6
CONTINUOUS
 10
319.5341001561
 20
4.2613331718
 11
319.9999744
 21
4.199999664
  0
LINE
  5
351
100
AcDbEntity
  8
0
100
AcDbLine
 62
7
  6
CONTINUOUS
 10
320.4658486439
 20
7.7386658682
 11
319.9999744
 21
7.799999376
  0
LINE
  5
352
100
AcDbEntity
  8
0
100
AcDbLine
 62
7
  6
CONTINUOUS
 10
268.7036499389
 20
15.1620347197
 11
269.9999784
 21
14.9913698401
  0
LINE
  5
353
100
AcDbEntity
  8
0
100
AcDbLine
 62
7
  6
CONTINUOUS
 10
344.5286863526
 20
6.1731170585
 11
345.5639624502
 21
6.0368203745
  0
LINE
  5
354
100
AcDbEntity
  8
0
100
AcDbLine
 62
7
  6
CONTINUOUS
 10
349.7202898429
 20
6.0368203745
 11
349.999972
 21
5.99999952
  0
LINE
  5
355
100
AcDbEntity
  8
0
100
AcDbLine
 62
7
  6
CONTINUOUS
 10
267.4956641201
 20
15.662398829
 11
268.7036499389
 21
15.1620347197
  0
LINE
  5
356
100
AcDbEntity
  8
0
100
AcDbLine
 62
7
  6
CONTINUOUS
 10
231.2727737043
 20
7.2727916243
 11
230.899981528
 21
7.5588451221
  0
LINE
  5
357
100
AcDbEntity
  8
0
100
AcDbLine
 62
7
  6
CONTINUOUS
 10
69.9296408613
 20
161.99998704
 11
79.9296400613
 21
151.99998784
  0
LINE
  5
358
100
AcDbEntity
  8
0
100
AcDbLine
 62
7
  6
CONTINUOUS
 10
80.756226634
 20
166.5649409588
 11
81.1012128428
 21
166.1715595815
  0
LINE
  5
359
100
AcDbEntity
  8
0
100
AcDbLine
 62
7
  6
CONTINUOUS
 10
73.6306024595
 20
179.24998566
 11
73.8689803743
 21
178.9393255131
  0
LINE
  5
35A
100
AcDbEntity
  8
0
100
AcDbLine
 62
7
  6
CONTINUOUS
 10
76.228678463
 20
180.74998554
 11
75.9903005482
 21
181.0606456869
  0
LINE
  5
35B
100
AcDbEntity
  8
0
100
AcDbLine
 62
7
  6
CONTINUOUS
 10
93.6306008595
 20
179.24998566
 11
93.8689787743
 21
178.9393255131
  0
LINE
  5
35C
100
AcDbEntity
  8
0
100
AcDbLine
 62
7
  6
CONTINUOUS
 10
228.4411359979
 20
5.099999592
 11
228.7271894957
 21
4.7272074157
  0
LINE
  5
35D
100
AcDbEntity
  8
0
100
AcDbLine
 62
7
  6
CONTINUOUS
 10
96.228676863
 20
180.74998554
 11
95.9902989482
 21
181.0606456869
  0
LINE
  5
35E
100
AcDbEntity
  8
0
100
AcDbLine
 62
7
  6
CONTINUOUS
 10
231.5588272021
 20
6.899999448
 11
231.2727737043
 21
7.2727916243
  0
LINE
  5
35F
100
AcDbEntity
  8
0
100
AcDbLine
 62
7
  6
CONTINUOUS
 10
89.3937409193
 20
193.99998448
 11
89.1030526885
 21
194.4350301612
  0
LINE
  5
360
100
AcDbEntity
  8
0
100
AcDbLine
 62
7
  6
CONTINUOUS
 10
80.2341219069
 20
237.4762841685
 11
80.4655384032
 21
237.0070179355
  0
LINE
  5
361
100
AcDbEntity
  8
0
100
AcDbLine
 62
7
  6
CONTINUOUS
 10
31.7614952075
 20
360.4795734386
 11
31.5816123306
 21
360.913673382
  0
LINE
  5
362
100
AcDbEntity
  8
0
100
AcDbLine
 62
7
  6
CONTINUOUS
 10
41.2866320243
 20
339.5288790882
 11
41.4665149012
 21
339.0947791447
  0
LINE
  5
363
100
AcDbEntity
  8
0
100
AcDbLine
 62
7
  6
CONTINUOUS
 10
44.7638313321
 20
340.4611252467
 11
44.5839484552
 21
340.8952251902
  0
LINE
  5
364
100
AcDbEntity
  8
0
100
AcDbLine
 62
7
  6
CONTINUOUS
 10
76.3785290848
 20
250.3882085366
 11
76.228678463
 21
250.74997994
  0
LINE
  5
365
100
AcDbEntity
  8
0
100
AcDbLine
 62
7
  6
CONTINUOUS
 10
63.6805926145
 20
319.0444824546
 11
63.8604133606
 21
318.6103567705
  0
LINE
  5
366
100
AcDbEntity
  8
0
100
AcDbLine
 62
7
  6
CONTINUOUS
 10
93.4807502377
 20
249.6117514634
 11
93.6306008595
 21
249.24998006
  0
LINE
  5
367
100
AcDbEntity
  8
0
100
AcDbLine
 62
7
  6
CONTINUOUS
 10
67.1579253109
 20
319.9762309425
 11
66.9781045648
 21
320.4103566265
  0
LINE
  5
368
100
AcDbEntity
  8
0
100
AcDbLine
 62
7
  6
CONTINUOUS
 10
96.3785274848
 20
250.3882085366
 11
96.228676863
 21
250.74997994
  0
LINE
  5
369
100
AcDbEntity
  8
0
100
AcDbLine
 62
7
  6
CONTINUOUS
 10
89.7933425773
 20
263.0422920331
 11
89.6251574157
 21
263.5377495425
  0
LINE
  5
36A
100
AcDbEntity
  8
0
100
AcDbLine
 62
7
  6
CONTINUOUS
 10
141.799988656
 20
5.99999952
 11
141.7386551482
 21
6.4658737639
  0
LINE
  5
36B
100
AcDbEntity
  8
0
100
AcDbLine
 62
7
  6
CONTINUOUS
 10
149.9296344613
 20
219.9999824
 11
149.9296344613
 21
209.9999832
  0
LINE
  5
36C
100
AcDbEntity
  8
0
100
AcDbLine
 62
7
  6
CONTINUOUS
 10
168.4076744531
 20
235.8859592684
 11
168.2279158414
 21
235.4518078526
  0
LINE
  5
36D
100
AcDbEntity
  8
0
100
AcDbLine
 62
7
  6
CONTINUOUS
 10
51.5588416021
 20
5.099999592
 11
51.7386623482
 21
5.5341252761
  0
LINE
  5
36E
100
AcDbEntity
  8
0
100
AcDbLine
 62
7
  6
CONTINUOUS
 10
8.6959187721
 20
41.2932939758
 11
8.4099186318
 21
40.920460863
  0
LINE
  5
36F
100
AcDbEntity
  8
0
100
AcDbLine
 62
7
  6
CONTINUOUS
 10
93.8689787743
 20
181.0606456869
 11
93.6306008595
 21
180.74998554
  0
LINE
  5
370
100
AcDbEntity
  8
0
100
AcDbLine
 62
7
  6
CONTINUOUS
 10
95.9902989482
 20
178.9393255131
 11
96.228676863
 21
179.24998566
  0
LINE
  5
371
100
AcDbEntity
  8
0
100
AcDbLine
 62
7
  6
CONTINUOUS
 10
88.7580664797
 20
166.1715595815
 11
89.1030526885
 21
166.5649409588
  0
LINE
  5
372
100
AcDbEntity
  8
0
100
AcDbLine
 62
7
  6
CONTINUOUS
 10
81.49459422
 20
195.1733977473
 11
81.1012128428
 21
194.8284115385
  0
LINE
  5
373
100
AcDbEntity
  8
0
100
AcDbLine
 62
7
  6
CONTINUOUS
 10
42.1250086555
 20
186.5555734591
 11
41.7522574233
 21
186.2694666098
  0
LINE
  5
374
100
AcDbEntity
  8
0
100
AcDbLine
 62
7
  6
CONTINUOUS
 10
43.925454701
 20
183.4381399051
 11
44.2982059331
 21
183.7242467545
  0
LINE
  5
375
100
AcDbEntity
  8
0
100
AcDbLine
 62
7
  6
CONTINUOUS
 10
87.9296394213
 20
235.5429164375
 11
88.3646851025
 21
235.8336046682
  0
LINE
  5
376
100
AcDbEntity
  8
0
100
AcDbLine
 62
7
  6
CONTINUOUS
 10
339.5371185459
 20
361.7289302628
 11
339.1030186024
 21
361.5490473859
  0
LINE
  5
377
100
AcDbEntity
  8
0
100
AcDbLine
 62
7
  6
CONTINUOUS
 10
74.5414119247
 20
251.4488686235
 11
74.1796405213
 21
251.2990180018
  0
LINE
  5
378
100
AcDbEntity
  8
0
100
AcDbLine
 62
7
  6
CONTINUOUS
 10
82.8943636437
 20
265.8707189315
 11
82.3989061343
 21
265.7025337699
  0
LINE
  5
379
100
AcDbEntity
  8
0
100
AcDbLine
 62
7
  6
CONTINUOUS
 10
350.0033391375
 20
21.7673913988
 11
349.5374736764
 21
21.7059912151
  0
LINE
  5
37A
100
AcDbEntity
  8
0
100
AcDbLine
 62
7
  6
CONTINUOUS
 10
359.9932763929
 20
38.1462357615
 11
360.4591418539
 21
38.2076359452
  0
LINE
  5
37B
100
AcDbEntity
  8
0
100
AcDbLine
 62
7
  6
CONTINUOUS
 10
340.014432355
 20
38.191031376
 11
340.480297816
 21
38.2524315596
  0
LINE
  5
37C
100
AcDbEntity
  8
0
100
AcDbLine
 62
7
  6
CONTINUOUS
 10
229.9999816
 20
4.199999664
 11
230.4658558439
 21
4.2613331718
  0
LINE
  5
37D
100
AcDbEntity
  8
0
100
AcDbLine
 62
7
  6
CONTINUOUS
 10
229.9999816
 20
7.799999376
 11
229.5341073561
 21
7.7386658682
  0
LINE
  5
37E
100
AcDbEntity
  8
0
100
AcDbLine
 62
7
  6
CONTINUOUS
 10
269.9999784
 20
14.9913698401
 11
271.2963068611
 21
15.1620347197
  0
LINE
  5
37F
100
AcDbEntity
  8
0
100
AcDbLine
 62
7
  6
CONTINUOUS
 10
326.99997384
 20
23.2007210089
 11
327.4656609927
 21
23.2620298856
  0
LINE
  5
380
100
AcDbEntity
  8
0
100
AcDbLine
 62
7
  6
CONTINUOUS
 10
326.99997384
 20
26.7992749911
 11
326.5342866873
 21
26.7379661144
  0
LINE
  5
381
100
AcDbEntity
  8
0
100
AcDbLine
 62
7
  6
CONTINUOUS
 10
139.9999888
 20
4.199999664
 11
140.4658630439
 21
4.2613331718
  0
LINE
  5
382
100
AcDbEntity
  8
0
100
AcDbLine
 62
7
  6
CONTINUOUS
 10
139.9999888
 20
7.799999376
 11
139.5341145561
 21
7.7386658682
  0
LINE
  5
383
100
AcDbEntity
  8
0
100
AcDbLine
 62
7
  6
CONTINUOUS
 10
595.8994550006
 20
61.4834853178
 11
595.4335719833
 21
61.4222184872
  0
LINE
  5
384
100
AcDbEntity
  8
0
100
AcDbLine
 62
7
  6
CONTINUOUS
 10
594.9682042026
 20
64.9609513317
 11
595.4340872198
 21
65.0222181623
  0
LINE
  5
385
100
AcDbEntity
  8
0
100
AcDbLine
 62
7
  6
CONTINUOUS
 10
571.4040570555
 20
62.2505783132
 11
570.9381740382
 21
62.1893114826
  0
LINE
  5
386
100
AcDbEntity
  8
0
100
AcDbLine
 62
7
  6
CONTINUOUS
 10
570.4728062575
 20
65.7280443271
 11
570.9386892748
 21
65.7893111577
  0
LINE
  5
387
100
AcDbEntity
  8
0
100
AcDbLine
 62
7
  6
CONTINUOUS
 10
527.4721560667
 20
62.2505783132
 11
527.0062730494
 21
62.1893114826
  0
LINE
  5
388
100
AcDbEntity
  8
0
100
AcDbLine
 62
7
  6
CONTINUOUS
 10
573.543239155
 20
69.2681633555
 11
573.0773561378
 21
69.2068965248
  0
LINE
  5
389
100
AcDbEntity
  8
0
100
AcDbLine
 62
7
  6
CONTINUOUS
 10
179.9999856
 20
14.9999988
 11
189.9999848
 21
14.9999988
  0
LINE
  5
38A
100
AcDbEntity
  8
0
100
AcDbLine
 62
7
  6
CONTINUOUS
 10
382.255479347
 20
18.2209061332
 11
376.155479835
 21
18.2209061332
  0
LINE
  5
38B
100
AcDbEntity
  8
0
100
AcDbLine
 62
7
  6
CONTINUOUS
 10
597.7427194364
 20
20.9944395295
 11
602.8427190284
 21
20.9944395295
  0
LINE
  5
38C
100
AcDbEntity
  8
0
100
AcDbLine
 62
7
  6
CONTINUOUS
 10
593.7427197564
 20
22.7944393855
 11
597.7427194364
 21
22.7944393855
  0
LINE
  5
38D
100
AcDbEntity
  8
0
100
AcDbLine
 62
7
  6
CONTINUOUS
 10
602.8427190284
 20
22.7944393855
 11
614.8427180684
 21
22.7944393855
  0
LINE
  5
38E
100
AcDbEntity
  8
0
100
AcDbLine
 62
7
  6
CONTINUOUS
 10
442.0427318924
 20
25.599997952
 11
512.0427262924
 21
25.599997952
  0
LINE
  5
38F
100
AcDbEntity
  8
0
100
AcDbLine
 62
7
  6
CONTINUOUS
 10
394.255478387
 20
25.9787072472
 11
399.355477979
 21
25.9787072472
  0
LINE
  5
390
100
AcDbEntity
  8
0
100
AcDbLine
 62
7
  6
CONTINUOUS
 10
614.8427180684
 20
27.1944390335
 11
602.8427190284
 21
27.1944390335
  0
LINE
  5
391
100
AcDbEntity
  8
0
100
AcDbLine
 62
7
  6
CONTINUOUS
 10
597.7427194364
 20
27.1944390335
 11
593.7427197564
 21
27.1944390335
  0
LINE
  5
392
100
AcDbEntity
  8
0
100
AcDbLine
 62
7
  6
CONTINUOUS
 10
382.255479347
 20
27.7787071032
 11
394.255478387
 21
27.7787071032
  0
LINE
  5
393
100
AcDbEntity
  8
0
100
AcDbLine
 62
7
  6
CONTINUOUS
 10
399.355477979
 20
27.7787071032
 11
403.355477659
 21
27.7787071032
  0
LINE
  5
394
100
AcDbEntity
  8
0
100
AcDbLine
 62
7
  6
CONTINUOUS
 10
602.8427190284
 20
28.9944388895
 11
597.7427194364
 21
28.9944388895
  0
LINE
  5
395
100
AcDbEntity
  8
0
100
AcDbLine
 62
7
  6
CONTINUOUS
 10
403.355477659
 20
32.1787067512
 11
399.355477979
 21
32.1787067512
  0
LINE
  5
396
100
AcDbEntity
  8
0
100
AcDbLine
 62
7
  6
CONTINUOUS
 10
394.255478387
 20
32.1787067512
 11
382.255479347
 21
32.1787067512
  0
LINE
  5
397
100
AcDbEntity
  8
0
100
AcDbLine
 62
7
  6
CONTINUOUS
 10
399.355477979
 20
33.9787066072
 11
394.255478387
 21
33.9787066072
  0
LINE
  5
398
100
AcDbEntity
  8
0
100
AcDbLine
 62
7
  6
CONTINUOUS
 10
442.0427318924
 20
34.399997248
 11
512.0427262924
 21
34.399997248
  0
LINE
  5
399
100
AcDbEntity
  8
0
100
AcDbLine
 62
7
  6
CONTINUOUS
 10
349.5379713567
 20
18.2286585543
 11
350.003854374
 21
18.1673917237
  0
LINE
  5
39A
100
AcDbEntity
  8
0
100
AcDbLine
 62
7
  6
CONTINUOUS
 10
350.4692221547
 20
21.7061245682
 11
350.0033391375
 21
21.7673913988
  0
LINE
  5
39B
100
AcDbEntity
  8
0
100
AcDbLine
 62
7
  6
CONTINUOUS
 10
354.595207625
 20
13.9005230506
 11
353.5599315274
 21
14.0368197345
  0
LINE
  5
39C
100
AcDbEntity
  8
0
100
AcDbLine
 62
7
  6
CONTINUOUS
 10
326.5342866873
 20
23.2620298856
 11
326.99997384
 21
23.2007210089
  0
LINE
  5
39D
100
AcDbEntity
  8
0
100
AcDbLine
 62
7
  6
CONTINUOUS
 10
327.4656609927
 20
26.7379661144
 11
326.99997384
 21
26.7992749911
  0
LINE
  5
39E
100
AcDbEntity
  8
0
100
AcDbLine
 62
7
  6
CONTINUOUS
 10
319.099974472
 20
4.4411539179
 11
319.5341001561
 21
4.2613331718
  0
LINE
  5
39F
100
AcDbEntity
  8
0
100
AcDbLine
 62
7
  6
CONTINUOUS
 10
320.899974328
 20
7.5588451221
 11
320.4658486439
 21
7.7386658682
  0
LINE
  5
3A0
100
AcDbEntity
  8
0
100
AcDbLine
 62
7
  6
CONTINUOUS
 10
343.5639626102
 20
6.5727187165
 11
344.5286863526
 21
6.1731170585
  0
LINE
  5
3A1
100
AcDbEntity
  8
0
100
AcDbLine
 62
7
  6
CONTINUOUS
 10
64.5018833261
 20
108.9616896474
 11
64.9339709977
 21
108.777025481
  0
LINE
  5
3A2
100
AcDbEntity
  8
0
100
AcDbLine
 62
7
  6
CONTINUOUS
 10
66.3366345994
 20
112.0590571896
 11
65.9045469278
 21
112.2437213561
  0
LINE
  5
3A3
100
AcDbEntity
  8
0
100
AcDbLine
 62
7
  6
CONTINUOUS
 10
41.7526217506
 20
183.7238824272
 11
42.1254548634
 21
183.4378822869
  0
LINE
  5
3A4
100
AcDbEntity
  8
0
100
AcDbLine
 62
7
  6
CONTINUOUS
 10
44.2978416059
 20
186.269830937
 11
43.9250084931
 21
186.5558310774
  0
LINE
  5
3A5
100
AcDbEntity
  8
0
100
AcDbLine
 62
7
  6
CONTINUOUS
 10
266.4583431809
 20
16.4583631809
 11
267.4956641201
 21
15.662398829
  0
LINE
  5
3A6
100
AcDbEntity
  8
0
100
AcDbLine
 62
7
  6
CONTINUOUS
 10
73.8689803743
 20
178.9393255131
 11
74.1796405213
 21
178.7009475982
  0
LINE
  5
3A7
100
AcDbEntity
  8
0
100
AcDbLine
 62
7
  6
CONTINUOUS
 10
81.1012128428
 20
166.1715595815
 11
81.49459422
 21
165.8265733727
  0
LINE
  5
3A8
100
AcDbEntity
  8
0
100
AcDbLine
 62
7
  6
CONTINUOUS
 10
89.1030526885
 20
194.4350301612
 11
88.7580664797
 21
194.8284115385
  0
LINE
  5
3A9
100
AcDbEntity
  8
0
100
AcDbLine
 62
7
  6
CONTINUOUS
 10
73.6306024595
 20
249.24998006
 11
73.8689803743
 21
248.9393199131
  0
LINE
  5
3AA
100
AcDbEntity
  8
0
100
AcDbLine
 62
7
  6
CONTINUOUS
 10
80.4655384032
 20
237.0070179355
 11
80.756226634
 21
236.5719722543
  0
LINE
  5
3AB
100
AcDbEntity
  8
0
100
AcDbLine
 62
7
  6
CONTINUOUS
 10
89.6251574157
 20
263.5377495425
 11
89.3937409193
 21
264.0070157755
  0
LINE
  5
3AC
100
AcDbEntity
  8
0
100
AcDbLine
 62
7
  6
CONTINUOUS
 10
168.2279158414
 20
235.4518078526
 11
168.1666490108
 21
234.9859248354
  0
LINE
  5
3AD
100
AcDbEntity
  8
0
100
AcDbLine
 62
7
  6
CONTINUOUS
 10
171.7053818553
 20
234.5205570546
 11
171.7666486859
 21
234.9864400719
  0
LINE
  5
3AE
100
AcDbEntity
  8
0
100
AcDbLine
 62
7
  6
CONTINUOUS
 10
168.2279158414
 20
194.4720148489
 11
168.1666490108
 21
194.0061318316
  0
LINE
  5
3AF
100
AcDbEntity
  8
0
100
AcDbLine
 62
7
  6
CONTINUOUS
 10
171.7053818553
 20
193.5407640509
 11
171.7666486859
 21
194.0066470681
  0
LINE
  5
3B0
100
AcDbEntity
  8
0
100
AcDbLine
 62
7
  6
CONTINUOUS
 10
138.2613224518
 20
6.4658737639
 11
138.199988944
 21
5.99999952
  0
LINE
  5
3B1
100
AcDbEntity
  8
0
100
AcDbLine
 62
7
  6
CONTINUOUS
 10
141.7386551482
 20
5.5341252761
 11
141.799988656
 21
5.99999952
  0
LINE
  5
3B2
100
AcDbEntity
  8
0
100
AcDbLine
 62
7
  6
CONTINUOUS
 10
171.5256232436
 20
234.0864056388
 11
171.7053818553
 21
234.5205570546
  0
LINE
  5
3B3
100
AcDbEntity
  8
0
100
AcDbLine
 62
7
  6
CONTINUOUS
 10
168.4076744531
 20
194.9061662647
 11
168.2279158414
 21
194.4720148489
  0
LINE
  5
3B4
100
AcDbEntity
  8
0
100
AcDbLine
 62
7
  6
CONTINUOUS
 10
171.5256232436
 20
193.1066126351
 11
171.7053818553
 21
193.5407640509
  0
LINE
  5
3B5
100
AcDbEntity
  8
0
100
AcDbLine
 62
7
  6
CONTINUOUS
 10
11.2418672819
 20
38.7480741205
 11
11.5278674223
 21
39.1209072333
  0
LINE
  5
3B6
100
AcDbEntity
  8
0
100
AcDbLine
 62
7
  6
CONTINUOUS
 10
168.6936745934
 20
236.2587923813
 11
168.4076744531
 21
235.8859592684
  0
LINE
  5
3B7
100
AcDbEntity
  8
0
100
AcDbLine
 62
7
  6
CONTINUOUS
 10
171.2396231032
 20
233.713572526
 11
171.5256232436
 21
234.0864056388
  0
LINE
  5
3B8
100
AcDbEntity
  8
0
100
AcDbLine
 62
7
  6
CONTINUOUS
 10
28.7097630373
 20
41.2932939758
 11
28.423762897
 21
40.920460863
  0
LINE
  5
3B9
100
AcDbEntity
  8
0
100
AcDbLine
 62
7
  6
CONTINUOUS
 10
31.2557115471
 20
38.7480741205
 11
31.5417116875
 21
39.1209072333
  0
LINE
  5
3BA
100
AcDbEntity
  8
0
100
AcDbLine
 62
7
  6
CONTINUOUS
 10
18.7028409047
 20
21.2794497106
 11
18.4168407644
 21
20.9066165978
  0
LINE
  5
3BB
100
AcDbEntity
  8
0
100
AcDbLine
 62
7
  6
CONTINUOUS
 10
21.2487894145
 20
18.7342298553
 11
21.5347895549
 21
19.1070629681
  0
LINE
  5
3BC
100
AcDbEntity
  8
0
100
AcDbLine
 62
7
  6
CONTINUOUS
 10
13.198041622
 20
12.865246953
 11
12.5623671824
 21
12.0368198945
  0
LINE
  5
3BD
100
AcDbEntity
  8
0
100
AcDbLine
 62
7
  6
CONTINUOUS
 10
64.1607795977
 20
111.7973190932
 11
63.8705751916
 21
111.4277490552
  0
LINE
  5
3BE
100
AcDbEntity
  8
0
100
AcDbLine
 62
7
  6
CONTINUOUS
 10
66.6777383277
 20
109.2234277439
 11
66.9679427338
 21
109.5929977819
  0
LINE
  5
3BF
100
AcDbEntity
  8
0
100
AcDbLine
 62
7
  6
CONTINUOUS
 10
149.9296344613
 20
209.9999832
 11
129.9296360613
 21
189.9999848
  0
LINE
  5
3C0
100
AcDbEntity
  8
0
100
AcDbLine
 62
7
  6
CONTINUOUS
 10
88.3646851025
 20
165.8265733727
 11
88.7580664797
 21
166.1715595815
  0
LINE
  5
3C1
100
AcDbEntity
  8
0
100
AcDbLine
 62
7
  6
CONTINUOUS
 10
74.1796405213
 20
181.2990236018
 11
73.8689803743
 21
181.0606456869
  0
LINE
  5
3C2
100
AcDbEntity
  8
0
100
AcDbLine
 62
7
  6
CONTINUOUS
 10
75.6796404013
 20
178.7009475982
 11
75.9903005482
 21
178.9393255131
  0
LINE
  5
3C3
100
AcDbEntity
  8
0
100
AcDbLine
 62
7
  6
CONTINUOUS
 10
273.5400068318
 20
321.0692023006
 11
273.1672146555
 21
320.7831488029
  0
LINE
  5
3C4
100
AcDbEntity
  8
0
100
AcDbLine
 62
7
  6
CONTINUOUS
 10
94.1796389213
 20
181.2990236018
 11
93.8689787743
 21
181.0606456869
  0
LINE
  5
3C5
100
AcDbEntity
  8
0
100
AcDbLine
 62
7
  6
CONTINUOUS
 10
81.9296399013
 20
195.464085978
 11
81.49459422
 21
195.1733977473
  0
LINE
  5
3C6
100
AcDbEntity
  8
0
100
AcDbLine
 62
7
  6
CONTINUOUS
 10
87.4603731883
 20
235.3114999411
 11
87.9296394213
 21
235.5429164375
  0
LINE
  5
3C7
100
AcDbEntity
  8
0
100
AcDbLine
 62
7
  6
CONTINUOUS
 10
326.5348850012
 20
341.723999683
 11
326.1019338787
 21
341.5413690838
  0
LINE
  5
3C8
100
AcDbEntity
  8
0
100
AcDbLine
 62
7
  6
CONTINUOUS
 10
327.4891510038
 20
338.2527788138
 11
327.9221021264
 21
338.4354094131
  0
LINE
  5
3C9
100
AcDbEntity
  8
0
100
AcDbLine
 62
7
  6
CONTINUOUS
 10
340.4693647044
 20
358.251730955
 11
340.9034646479
 21
358.4316138319
  0
LINE
  5
3CA
100
AcDbEntity
  8
0
100
AcDbLine
 62
7
  6
CONTINUOUS
 10
359.5114463253
 20
361.7619456806
 11
359.0773463818
 21
361.5820628037
  0
LINE
  5
3CB
100
AcDbEntity
  8
0
100
AcDbLine
 62
7
  6
CONTINUOUS
 10
360.4436924838
 20
358.2847463728
 11
360.8777924273
 21
358.4646292497
  0
LINE
  5
3CC
100
AcDbEntity
  8
0
100
AcDbLine
 62
7
  6
CONTINUOUS
 10
75.3178689979
 20
248.5510913765
 11
75.6796404013
 21
248.7009419982
  0
LINE
  5
3CD
100
AcDbEntity
  8
0
100
AcDbLine
 62
7
  6
CONTINUOUS
 10
94.5414103247
 20
251.4488686235
 11
94.1796389213
 21
251.2990180018
  0
LINE
  5
3CE
100
AcDbEntity
  8
0
100
AcDbLine
 62
7
  6
CONTINUOUS
 10
95.3178673979
 20
248.5510913765
 11
95.6796388013
 21
248.7009419982
  0
LINE
  5
3CF
100
AcDbEntity
  8
0
100
AcDbLine
 62
7
  6
CONTINUOUS
 10
273.9741325159
 20
321.2490230468
 11
273.5400068318
 21
321.0692023006
  0
LINE
  5
3D0
100
AcDbEntity
  8
0
100
AcDbLine
 62
7
  6
CONTINUOUS
 10
274.9058810037
 20
317.7716903503
 11
275.3400066878
 21
317.9515110964
  0
LINE
  5
3D1
100
AcDbEntity
  8
0
100
AcDbLine
 62
7
  6
CONTINUOUS
 10
400.1923767122
 20
363.5277514608
 11
401.1571004546
 21
363.9273531188
  0
LINE
  5
3D2
100
AcDbEntity
  8
0
100
AcDbLine
 62
7
  6
CONTINUOUS
 10
24.0892985468
 20
6.0368203745
 11
25.0577136953
 21
6.1731170585
  0
LINE
  5
3D3
100
AcDbEntity
  8
0
100
AcDbLine
 62
7
  6
CONTINUOUS
 10
359.9927611564
 20
41.7462354367
 11
359.5268956954
 21
41.684835253
  0
LINE
  5
3D4
100
AcDbEntity
  8
0
100
AcDbLine
 62
7
  6
CONTINUOUS
 10
340.0139171185
 20
41.7910310511
 11
339.5480516575
 21
41.7296308675
  0
LINE
  5
3D5
100
AcDbEntity
  8
0
100
AcDbLine
 62
7
  6
CONTINUOUS
 10
19.9760727779
 20
18.2068399454
 11
20.4419382389
 21
18.2682401291
  0
LINE
  5
3D6
100
AcDbEntity
  8
0
100
AcDbLine
 62
7
  6
CONTINUOUS
 10
49.999996
 20
4.199999664
 11
50.4658702439
 21
4.2613331718
  0
LINE
  5
3D7
100
AcDbEntity
  8
0
100
AcDbLine
 62
7
  6
CONTINUOUS
 10
49.999996
 20
7.799999376
 11
49.5341217561
 21
7.7386658682
  0
LINE
  5
3D8
100
AcDbEntity
  8
0
100
AcDbLine
 62
7
  6
CONTINUOUS
 10
99.999992
 20
14.9913698401
 11
101.2963204611
 21
15.1620347197
  0
LINE
  5
3D9
100
AcDbEntity
  8
0
100
AcDbLine
 62
7
  6
CONTINUOUS
 10
16.0264685205
 20
14.0368197345
 11
14.9911924229
 21
13.9005230506
  0
LINE
  5
3DA
100
AcDbEntity
  8
0
100
AcDbLine
 62
7
  6
CONTINUOUS
 10
500.9063820264
 20
61.527060122
 11
500.4404990091
 21
61.4657932913
  0
LINE
  5
3DB
100
AcDbEntity
  8
0
100
AcDbLine
 62
7
  6
CONTINUOUS
 10
526.5409052686
 20
65.7280443271
 11
527.0067882859
 21
65.7893111577
  0
LINE
  5
3DC
100
AcDbEntity
  8
0
100
AcDbLine
 62
7
  6
CONTINUOUS
 10
572.611988357
 20
72.7456293693
 11
573.0778713743
 21
72.8068962
  0
LINE
  5
3DD
100
AcDbEntity
  8
0
100
AcDbLine
 62
7
  6
CONTINUOUS
 10
499.9751312284
 20
65.0045261358
 11
500.4410142457
 21
65.0657929665
  0
LINE
  5
3DE
100
AcDbEntity
  8
0
100
AcDbLine
 62
7
  6
CONTINUOUS
 10
525.2830279398
 20
69.3396599647
 11
524.8171449225
 21
69.278393134
  0
LINE
  5
3DF
100
AcDbEntity
  8
0
100
AcDbLine
 62
7
  6
CONTINUOUS
 10
524.3517771417
 20
72.8171259785
 11
524.817660159
 21
72.8783928092
  0
LINE
  5
3E0
100
AcDbEntity
  8
0
100
AcDbLine
 62
7
  6
CONTINUOUS
 10
330.24997358
 20
36.6499393327
 11
323.7499741
 21
36.6499393327
  0
LINE
  5
3E1
100
AcDbEntity
  8
0
100
AcDbLine
 62
7
  6
CONTINUOUS
 10
46.2499963
 20
36.6499393327
 11
39.74999682
 21
36.6499393327
  0
LINE
  5
3E2
100
AcDbEntity
  8
0
100
AcDbLine
 62
7
  6
CONTINUOUS
 10
614.8427180684
 20
36.7499393247
 11
620.9427175804
 21
36.7499393247
  0
LINE
  5
3E3
100
AcDbEntity
  8
0
100
AcDbLine
 62
7
  6
CONTINUOUS
 10
309.9999752
 20
39.9999968
 11
279.9999776
 21
39.9999968
  0
LINE
  5
3E4
100
AcDbEntity
  8
0
100
AcDbLine
 62
7
  6
CONTINUOUS
 10
59.9999952
 20
39.9999968
 11
89.9999928
 21
39.9999968
  0
LINE
  5
3E5
100
AcDbEntity
  8
0
100
AcDbLine
 62
7
  6
CONTINUOUS
 10
109.9999912
 20
39.9999968
 11
154.9999876
 21
39.9999968
  0
LINE
  5
3E6
100
AcDbEntity
  8
0
100
AcDbLine
 62
7
  6
CONTINUOUS
 10
214.9999828
 20
39.9999968
 11
259.9999792
 21
39.9999968
  0
LINE
  5
3E7
100
AcDbEntity
  8
0
100
AcDbLine
 62
7
  6
CONTINUOUS
 10
376.155479835
 20
41.7209042532
 11
382.255479347
 21
41.7209042532
  0
LINE
  5
3E8
100
AcDbEntity
  8
0
100
AcDbLine
 62
7
  6
CONTINUOUS
 10
620.9427175804
 20
45.5499386207
 11
614.8427180684
 21
45.5499386207
  0
LINE
  5
3E9
100
AcDbEntity
  8
0
100
AcDbLine
 62
7
  6
CONTINUOUS
 10
39.74999682
 20
45.6499386127
 11
46.2499963
 21
45.6499386127
  0
LINE
  5
3EA
100
AcDbEntity
  8
0
100
AcDbLine
 62
7
  6
CONTINUOUS
 10
323.7499741
 20
45.6499386127
 11
330.24997358
 21
45.6499386127
  0
LINE
  5
3EB
100
AcDbEntity
  8
0
100
AcDbLine
 62
7
  6
CONTINUOUS
 10
382.255479347
 20
50.5209035492
 11
376.155479835
 21
50.5209035492
  0
LINE
  5
3EC
100
AcDbEntity
  8
0
100
AcDbLine
 62
7
  6
CONTINUOUS
 10
339.5485493378
 20
38.2522982066
 11
340.014432355
 21
38.191031376
  0
LINE
  5
3ED
100
AcDbEntity
  8
0
100
AcDbLine
 62
7
  6
CONTINUOUS
 10
359.5273933756
 20
38.2075025922
 11
359.9932763929
 21
38.1462357615
  0
LINE
  5
3EE
100
AcDbEntity
  8
0
100
AcDbLine
 62
7
  6
CONTINUOUS
 10
340.4798001358
 20
41.7297642205
 11
340.0139171185
 21
41.7910310511
  0
LINE
  5
3EF
100
AcDbEntity
  8
0
100
AcDbLine
 62
7
  6
CONTINUOUS
 10
360.4586441737
 20
41.684968606
 11
359.9927611564
 21
41.7462354367
  0
LINE
  5
3F0
100
AcDbEntity
  8
0
100
AcDbLine
 62
7
  6
CONTINUOUS
 10
594.9058208631
 20
13.99999888
 11
595.9410969607
 21
13.8637021961
  0
LINE
  5
3F1
100
AcDbEntity
  8
0
100
AcDbLine
 62
7
  6
CONTINUOUS
 10
586.8429908368
 20
5.99999952
 11
585.8745756883
 21
6.1362962039
  0
LINE
  5
3F2
100
AcDbEntity
  8
0
100
AcDbLine
 62
7
  6
CONTINUOUS
 10
349.1038199409
 20
18.408417166
 11
349.5379713567
 21
18.2286585543
  0
LINE
  5
3F3
100
AcDbEntity
  8
0
100
AcDbLine
 62
7
  6
CONTINUOUS
 10
350.9033735705
 20
21.5263659565
 11
350.4692221547
 21
21.7061245682
  0
LINE
  5
3F4
100
AcDbEntity
  8
0
100
AcDbLine
 62
7
  6
CONTINUOUS
 10
326.1003353444
 20
23.4417784172
 11
326.5342866873
 21
23.2620298856
  0
LINE
  5
3F5
100
AcDbEntity
  8
0
100
AcDbLine
 62
7
  6
CONTINUOUS
 10
355.5599313674
 20
13.5009213925
 11
354.595207625
 21
13.9005230506
  0
LINE
  5
3F6
100
AcDbEntity
  8
0
100
AcDbLine
 62
7
  6
CONTINUOUS
 10
327.8996123356
 20
26.5582175828
 11
327.4656609927
 21
26.7379661144
  0
LINE
  5
3F7
100
AcDbEntity
  8
0
100
AcDbLine
 62
7
  6
CONTINUOUS
 10
81.49459422
 20
165.8265733727
 11
81.9296399013
 21
165.535885142
  0
LINE
  5
3F8
100
AcDbEntity
  8
0
100
AcDbLine
 62
7
  6
CONTINUOUS
 10
75.9903005482
 20
181.0606456869
 11
75.6796404013
 21
181.2990236018
  0
LINE
  5
3F9
100
AcDbEntity
  8
0
100
AcDbLine
 62
7
  6
CONTINUOUS
 10
318.7271822957
 20
4.7272074157
 11
319.099974472
 21
4.4411539179
  0
LINE
  5
3FA
100
AcDbEntity
  8
0
100
AcDbLine
 62
7
  6
CONTINUOUS
 10
93.8689787743
 20
178.9393255131
 11
94.1796389213
 21
178.7009475982
  0
LINE
  5
3FB
100
AcDbEntity
  8
0
100
AcDbLine
 62
7
  6
CONTINUOUS
 10
321.2727665043
 20
7.2727916243
 11
320.899974328
 21
7.5588451221
  0
LINE
  5
3FC
100
AcDbEntity
  8
0
100
AcDbLine
 62
7
  6
CONTINUOUS
 10
95.9902989482
 20
181.0606456869
 11
95.6796388013
 21
181.2990236018
  0
LINE
  5
3FD
100
AcDbEntity
  8
0
100
AcDbLine
 62
7
  6
CONTINUOUS
 10
88.7580664797
 20
194.8284115385
 11
88.3646851025
 21
195.1733977473
  0
LINE
  5
3FE
100
AcDbEntity
  8
0
100
AcDbLine
 62
7
  6
CONTINUOUS
 10
69.9296408613
 20
229.9999816
 11
79.9296400613
 21
219.9999824
  0
LINE
  5
3FF
100
AcDbEntity
  8
0
100
AcDbLine
 62
7
  6
CONTINUOUS
 10
109.9296376613
 20
189.9999848
 11
89.9296392613
 21
209.9999832
  0
LINE
  5
400
100
AcDbEntity
  8
0
100
AcDbLine
 62
7
  6
CONTINUOUS
 10
264.9999788
 20
34.9999972
 11
259.9999792
 21
39.9999968
  0
LINE
  5
401
100
AcDbEntity
  8
0
100
AcDbLine
 62
7
  6
CONTINUOUS
 10
80.756226634
 20
236.5719722543
 11
81.1012128428
 21
236.178590877
  0
LINE
  5
402
100
AcDbEntity
  8
0
100
AcDbLine
 62
7
  6
CONTINUOUS
 10
8.4457305848
 20
359.1132273366
 11
8.7318374341
 21
358.7404761044
  0
LINE
  5
403
100
AcDbEntity
  8
0
100
AcDbLine
 62
7
  6
CONTINUOUS
 10
11.5631641388
 20
360.913673382
 11
11.2770572895
 21
361.2864246142
  0
LINE
  5
404
100
AcDbEntity
  8
0
100
AcDbLine
 62
7
  6
CONTINUOUS
 10
76.228678463
 20
250.74997994
 11
75.9903005482
 21
251.0606400869
  0
LINE
  5
405
100
AcDbEntity
  8
0
100
AcDbLine
 62
7
  6
CONTINUOUS
 10
265.662378829
 20
17.4956841201
 11
266.4583431809
 21
16.4583631809
  0
LINE
  5
406
100
AcDbEntity
  8
0
100
AcDbLine
 62
7
  6
CONTINUOUS
 10
93.6306008595
 20
249.24998006
 11
93.8689787743
 21
248.9393199131
  0
LINE
  5
407
100
AcDbEntity
  8
0
100
AcDbLine
 62
7
  6
CONTINUOUS
 10
96.228676863
 20
250.74997994
 11
95.9902989482
 21
251.0606400869
  0
LINE
  5
408
100
AcDbEntity
  8
0
100
AcDbLine
 62
7
  6
CONTINUOUS
 10
89.3937409193
 20
264.0070157755
 11
89.1030526885
 21
264.4420614567
  0
LINE
  5
409
100
AcDbEntity
  8
0
100
AcDbLine
 62
7
  6
CONTINUOUS
 10
168.2280491944
 20
193.5402663706
 11
168.4079320713
 21
193.1061664271
  0
LINE
  5
40A
100
AcDbEntity
  8
0
100
AcDbLine
 62
7
  6
CONTINUOUS
 10
228.2613152518
 20
5.5341252761
 11
228.4411359979
 21
5.099999592
  0
LINE
  5
40B
100
AcDbEntity
  8
0
100
AcDbLine
 62
7
  6
CONTINUOUS
 10
231.7386479482
 20
6.4658737639
 11
231.5588272021
 21
6.899999448
  0
LINE
  5
40C
100
AcDbEntity
  8
0
100
AcDbLine
 62
7
  6
CONTINUOUS
 10
168.1666490108
 20
194.0061318316
 11
168.2280491944
 21
193.5402663706
  0
LINE
  5
40D
100
AcDbEntity
  8
0
100
AcDbLine
 62
7
  6
CONTINUOUS
 10
171.7666486859
 20
194.0066470681
 11
171.7052485022
 21
194.4725125292
  0
LINE
  5
40E
100
AcDbEntity
  8
0
100
AcDbLine
 62
7
  6
CONTINUOUS
 10
168.1666490108
 20
234.9859248354
 11
168.2280491944
 21
234.5200593743
  0
LINE
  5
40F
100
AcDbEntity
  8
0
100
AcDbLine
 62
7
  6
CONTINUOUS
 10
171.7666486859
 20
234.9864400719
 11
171.7052485022
 21
235.4523055329
  0
LINE
  5
410
100
AcDbEntity
  8
0
100
AcDbLine
 62
7
  6
CONTINUOUS
 10
189.9296312613
 20
209.9999832
 11
189.9296312613
 21
219.9999824
  0
LINE
  5
411
100
AcDbEntity
  8
0
100
AcDbLine
 62
7
  6
CONTINUOUS
 10
104.337591571
 20
17.4956841201
 11
104.8379556803
 21
18.7036699389
  0
LINE
  5
412
100
AcDbEntity
  8
0
100
AcDbLine
 62
7
  6
CONTINUOUS
 10
168.6936745934
 20
195.2789993775
 11
168.4076744531
 21
194.9061662647
  0
LINE
  5
413
100
AcDbEntity
  8
0
100
AcDbLine
 62
7
  6
CONTINUOUS
 10
41.7102088848
 20
26.2829107769
 11
41.4242087445
 21
25.9100776641
  0
LINE
  5
414
100
AcDbEntity
  8
0
100
AcDbLine
 62
7
  6
CONTINUOUS
 10
171.2396231032
 20
192.7337795222
 11
171.5256232436
 21
193.1066126351
  0
LINE
  5
415
100
AcDbEntity
  8
0
100
AcDbLine
 62
7
  6
CONTINUOUS
 10
44.2561573946
 20
23.7376909216
 11
44.542157535
 21
24.1105240344
  0
LINE
  5
416
100
AcDbEntity
  8
0
100
AcDbLine
 62
7
  6
CONTINUOUS
 10
26.8508644962
 20
7.208393156
 11
27.4865389357
 21
8.0368202145
  0
LINE
  5
417
100
AcDbEntity
  8
0
100
AcDbLine
 62
7
  6
CONTINUOUS
 10
273.1672146555
 20
320.7831488029
 11
272.8811611577
 21
320.4103566265
  0
LINE
  5
418
100
AcDbEntity
  8
0
100
AcDbLine
 62
7
  6
CONTINUOUS
 10
275.7127988641
 20
318.2375645942
 11
275.9988523619
 21
318.6103567705
  0
LINE
  5
419
100
AcDbEntity
  8
0
100
AcDbLine
 62
7
  6
CONTINUOUS
 10
272.9296246213
 20
324.999974
 11
247.9296266213
 21
299.999976
  0
LINE
  5
41A
100
AcDbEntity
  8
0
100
AcDbLine
 62
7
  6
CONTINUOUS
 10
237.9296274213
 20
289.9999768
 11
197.9296306213
 21
249.99998
  0
LINE
  5
41B
100
AcDbEntity
  8
0
100
AcDbLine
 62
7
  6
CONTINUOUS
 10
59.9296416613
 20
111.99999104
 11
79.9296400613
 21
131.99998944
  0
LINE
  5
41C
100
AcDbEntity
  8
0
100
AcDbLine
 62
7
  6
CONTINUOUS
 10
279.9296240613
 20
317.99997456
 11
239.9296272613
 21
277.99997776
  0
LINE
  5
41D
100
AcDbEntity
  8
0
100
AcDbLine
 62
7
  6
CONTINUOUS
 10
141.9296351013
 20
179.9999856
 11
101.9296383013
 21
139.9999888
  0
LINE
  5
41E
100
AcDbEntity
  8
0
100
AcDbLine
 62
7
  6
CONTINUOUS
 10
66.9296411013
 20
104.9999916
 11
91.9296391013
 21
129.9999896
  0
LINE
  5
41F
100
AcDbEntity
  8
0
100
AcDbLine
 62
7
  6
CONTINUOUS
 10
141.99998864
 20
179.9999856
 11
101.99999184
 21
139.9999888
  0
LINE
  5
420
100
AcDbEntity
  8
0
100
AcDbLine
 62
7
  6
CONTINUOUS
 10
189.9296312613
 20
219.9999824
 11
209.9296296613
 21
239.9999808
  0
LINE
  5
421
100
AcDbEntity
  8
0
100
AcDbLine
 62
7
  6
CONTINUOUS
 10
326.1019338787
 20
341.5413690838
 11
325.7310034851
 21
341.2529054752
  0
LINE
  5
422
100
AcDbEntity
  8
0
100
AcDbLine
 62
7
  6
CONTINUOUS
 10
327.9221021264
 20
338.4354094131
 11
328.29303252
 21
338.7238730217
  0
LINE
  5
423
100
AcDbEntity
  8
0
100
AcDbLine
 62
7
  6
CONTINUOUS
 10
169.0664258256
 20
236.5448992306
 11
168.6936745934
 21
236.2587923813
  0
LINE
  5
424
100
AcDbEntity
  8
0
100
AcDbLine
 62
7
  6
CONTINUOUS
 10
170.8668718711
 20
233.4274656766
 11
171.2396231032
 21
233.713572526
  0
LINE
  5
425
100
AcDbEntity
  8
0
100
AcDbLine
 62
7
  6
CONTINUOUS
 10
339.1030186024
 20
361.5490473859
 11
338.7302673703
 21
361.2629405366
  0
LINE
  5
426
100
AcDbEntity
  8
0
100
AcDbLine
 62
7
  6
CONTINUOUS
 10
340.9034646479
 20
358.4316138319
 11
341.27621588
 21
358.7177206812
  0
LINE
  5
427
100
AcDbEntity
  8
0
100
AcDbLine
 62
7
  6
CONTINUOUS
 10
359.0773463818
 20
361.5820628037
 11
358.7045951496
 21
361.2959559544
  0
LINE
  5
428
100
AcDbEntity
  8
0
100
AcDbLine
 62
7
  6
CONTINUOUS
 10
360.8777924273
 20
358.4646292497
 11
361.2505436594
 21
358.7507360991
  0
LINE
  5
429
100
AcDbEntity
  8
0
100
AcDbLine
 62
7
  6
CONTINUOUS
 10
275.3400066878
 20
317.9515110964
 11
275.7127988641
 21
318.2375645942
  0
LINE
  5
42A
100
AcDbEntity
  8
0
100
AcDbLine
 62
7
  6
CONTINUOUS
 10
95.6796388013
 20
178.7009475982
 11
95.9902989482
 21
178.9393255131
  0
LINE
  5
42B
100
AcDbEntity
  8
0
100
AcDbLine
 62
7
  6
CONTINUOUS
 10
87.9296394213
 20
165.535885142
 11
88.3646851025
 21
165.8265733727
  0
LINE
  5
42C
100
AcDbEntity
  8
0
100
AcDbLine
 62
7
  6
CONTINUOUS
 10
82.3989061343
 20
195.6955024744
 11
81.9296399013
 21
195.464085978
  0
LINE
  5
42D
100
AcDbEntity
  8
0
100
AcDbLine
 62
7
  6
CONTINUOUS
 10
412.1883454694
 20
356.5995487847
 11
411.223621727
 21
356.1999471267
  0
LINE
  5
42E
100
AcDbEntity
  8
0
100
AcDbLine
 62
7
  6
CONTINUOUS
 10
86.9649156788
 20
235.1433147794
 11
87.4603731883
 21
235.3114999411
  0
LINE
  5
42F
100
AcDbEntity
  8
0
100
AcDbLine
 62
7
  6
CONTINUOUS
 10
42.983440758
 20
23.2103010117
 11
43.449306219
 21
23.2717011954
  0
LINE
  5
430
100
AcDbEntity
  8
0
100
AcDbLine
 62
7
  6
CONTINUOUS
 10
19.9755575414
 20
21.8068396205
 11
19.5096920804
 21
21.7454394369
  0
LINE
  5
431
100
AcDbEntity
  8
0
100
AcDbLine
 62
7
  6
CONTINUOUS
 10
42.9829255215
 20
26.8103006868
 11
42.5170600605
 21
26.7489005032
  0
LINE
  5
432
100
AcDbEntity
  8
0
100
AcDbLine
 62
7
  6
CONTINUOUS
 10
29.9829949105
 20
38.2206842106
 11
30.4488603715
 21
38.2820843943
  0
LINE
  5
433
100
AcDbEntity
  8
0
100
AcDbLine
 62
7
  6
CONTINUOUS
 10
9.9691506453
 20
38.2206842106
 11
10.4350161063
 21
38.2820843943
  0
LINE
  5
434
100
AcDbEntity
  8
0
100
AcDbLine
 62
7
  6
CONTINUOUS
 10
512.0427262924
 20
34.399997248
 11
513.1815299997
 21
34.2500708957
  0
LINE
  5
435
100
AcDbEntity
  8
0
100
AcDbLine
 62
7
  6
CONTINUOUS
 10
64.9339709977
 20
108.777025481
 11
65.3991302421
 21
108.710486112
  0
LINE
  5
436
100
AcDbEntity
  8
0
100
AcDbLine
 62
7
  6
CONTINUOUS
 10
65.9045469278
 20
112.2437213561
 11
65.4393876833
 21
112.3102607251
  0
LINE
  5
437
100
AcDbEntity
  8
0
100
AcDbLine
 62
7
  6
CONTINUOUS
 10
339.114397922
 20
38.4320568183
 11
339.5485493378
 21
38.2522982066
  0
LINE
  5
438
100
AcDbEntity
  8
0
100
AcDbLine
 62
7
  6
CONTINUOUS
 10
340.9139515516
 20
41.5500056088
 11
340.4798001358
 21
41.7297642205
  0
LINE
  5
439
100
AcDbEntity
  8
0
100
AcDbLine
 62
7
  6
CONTINUOUS
 10
359.0932419598
 20
38.3872612038
 11
359.5273933756
 21
38.2075025922
  0
LINE
  5
43A
100
AcDbEntity
  8
0
100
AcDbLine
 62
7
  6
CONTINUOUS
 10
360.8927955895
 20
41.5052099944
 11
360.4586441737
 21
41.684968606
  0
LINE
  5
43B
100
AcDbEntity
  8
0
100
AcDbLine
 62
7
  6
CONTINUOUS
 10
81.9296399013
 20
165.535885142
 11
82.3989061343
 21
165.3044686456
  0
LINE
  5
43C
100
AcDbEntity
  8
0
100
AcDbLine
 62
7
  6
CONTINUOUS
 10
88.3646851025
 20
195.1733977473
 11
87.9296394213
 21
195.464085978
  0
LINE
  5
43D
100
AcDbEntity
  8
0
100
AcDbLine
 62
7
  6
CONTINUOUS
 10
348.7309868281
 20
18.6944173063
 11
349.1038199409
 21
18.408417166
  0
LINE
  5
43E
100
AcDbEntity
  8
0
100
AcDbLine
 62
7
  6
CONTINUOUS
 10
342.7355355517
 20
7.208393156
 11
343.5639626102
 21
6.5727187165
  0
LINE
  5
43F
100
AcDbEntity
  8
0
100
AcDbLine
 62
7
  6
CONTINUOUS
 10
325.7276928783
 20
23.7277170383
 11
326.1003353444
 21
23.4417784172
  0
LINE
  5
440
100
AcDbEntity
  8
0
100
AcDbLine
 62
7
  6
CONTINUOUS
 10
328.2722548017
 20
26.2722789617
 11
327.8996123356
 21
26.5582175828
  0
LINE
  5
441
100
AcDbEntity
  8
0
100
AcDbLine
 62
7
  6
CONTINUOUS
 10
356.3883584258
 20
12.865246953
 11
355.5599313674
 21
13.5009213925
  0
LINE
  5
442
100
AcDbEntity
  8
0
100
AcDbLine
 62
7
  6
CONTINUOUS
 10
81.1012128428
 20
236.178590877
 11
81.49459422
 21
235.8336046682
  0
LINE
  5
443
100
AcDbEntity
  8
0
100
AcDbLine
 62
7
  6
CONTINUOUS
 10
344.9999724
 20
0.0
 11
342.99997256
 21
1.99999984
  0
LINE
  5
444
100
AcDbEntity
  8
0
100
AcDbLine
 62
7
  6
CONTINUOUS
 10
89.1030526885
 20
264.4420614567
 11
88.7580664797
 21
264.835442834
  0
LINE
  5
445
100
AcDbEntity
  8
0
100
AcDbLine
 62
7
  6
CONTINUOUS
 10
41.4665149012
 20
339.0947791447
 11
41.7526217506
 21
338.7220279126
  0
LINE
  5
446
100
AcDbEntity
  8
0
100
AcDbLine
 62
7
  6
CONTINUOUS
 10
28.4641787766
 20
359.1132273366
 11
28.750285626
 21
358.7404761044
  0
LINE
  5
447
100
AcDbEntity
  8
0
100
AcDbLine
 62
7
  6
CONTINUOUS
 10
44.5839484552
 20
340.8952251902
 11
44.2978416059
 21
341.2679764224
  0
LINE
  5
448
100
AcDbEntity
  8
0
100
AcDbLine
 62
7
  6
CONTINUOUS
 10
31.5816123306
 20
360.913673382
 11
31.2955054813
 21
361.2864246142
  0
LINE
  5
449
100
AcDbEntity
  8
0
100
AcDbLine
 62
7
  6
CONTINUOUS
 10
168.4079320713
 20
193.1061664271
 11
168.6940389207
 21
192.733415195
  0
LINE
  5
44A
100
AcDbEntity
  8
0
100
AcDbLine
 62
7
  6
CONTINUOUS
 10
63.8604133606
 20
318.6103567705
 11
64.1464668584
 21
318.2375645942
  0
LINE
  5
44B
100
AcDbEntity
  8
0
100
AcDbLine
 62
7
  6
CONTINUOUS
 10
66.9781045648
 20
320.4103566265
 11
66.692051067
 21
320.7831488029
  0
LINE
  5
44C
100
AcDbEntity
  8
0
100
AcDbLine
 62
7
  6
CONTINUOUS
 10
171.7052485022
 20
194.4725125292
 11
171.5253656253
 21
194.9066124726
  0
LINE
  5
44D
100
AcDbEntity
  8
0
100
AcDbLine
 62
7
  6
CONTINUOUS
 10
168.2280491944
 20
234.5200593743
 11
168.4079320713
 21
234.0859594309
  0
LINE
  5
44E
100
AcDbEntity
  8
0
100
AcDbLine
 62
7
  6
CONTINUOUS
 10
171.7052485022
 20
235.4523055329
 11
171.5253656253
 21
235.8864054763
  0
LINE
  5
44F
100
AcDbEntity
  8
0
100
AcDbLine
 62
7
  6
CONTINUOUS
 10
265.1620147197
 20
18.7036699389
 11
265.662378829
 21
17.4956841201
  0
LINE
  5
450
100
AcDbEntity
  8
0
100
AcDbLine
 62
7
  6
CONTINUOUS
 10
138.4411431979
 20
6.899999448
 11
138.2613224518
 21
6.4658737639
  0
LINE
  5
451
100
AcDbEntity
  8
0
100
AcDbLine
 62
7
  6
CONTINUOUS
 10
141.5588344021
 20
5.099999592
 11
141.7386551482
 21
5.5341252761
  0
LINE
  5
452
100
AcDbEntity
  8
0
100
AcDbLine
 62
7
  6
CONTINUOUS
 10
272.8811611577
 20
320.4103566265
 11
272.7013404116
 21
319.9762309425
  0
LINE
  5
453
100
AcDbEntity
  8
0
100
AcDbLine
 62
7
  6
CONTINUOUS
 10
338.7302673703
 20
361.2629405366
 11
338.4442672299
 21
360.8901074237
  0
LINE
  5
454
100
AcDbEntity
  8
0
100
AcDbLine
 62
7
  6
CONTINUOUS
 10
48.7272038957
 20
7.2727916243
 11
48.4411503979
 21
6.899999448
  0
LINE
  5
455
100
AcDbEntity
  8
0
100
AcDbLine
 62
7
  6
CONTINUOUS
 10
51.2727881043
 20
4.7272074157
 11
51.5588416021
 21
5.099999592
  0
LINE
  5
456
100
AcDbEntity
  8
0
100
AcDbLine
 62
7
  6
CONTINUOUS
 10
169.0664258256
 20
195.5651062269
 11
168.6936745934
 21
195.2789993775
  0
LINE
  5
457
100
AcDbEntity
  8
0
100
AcDbLine
 62
7
  6
CONTINUOUS
 10
170.8668718711
 20
192.4476726729
 11
171.2396231032
 21
192.7337795222
  0
LINE
  5
458
100
AcDbEntity
  8
0
100
AcDbLine
 62
7
  6
CONTINUOUS
 10
399.3639496537
 20
362.8920770212
 11
400.1923767122
 21
363.5277514608
  0
LINE
  5
459
100
AcDbEntity
  8
0
100
AcDbLine
 62
7
  6
CONTINUOUS
 10
64.5367472928
 20
112.0791859102
 11
64.1607795977
 21
111.7973190932
  0
LINE
  5
45A
100
AcDbEntity
  8
0
100
AcDbLine
 62
7
  6
CONTINUOUS
 10
66.3017706326
 20
108.9415609268
 11
66.6777383277
 21
109.2234277439
  0
LINE
  5
45B
100
AcDbEntity
  8
0
100
AcDbLine
 62
7
  6
CONTINUOUS
 10
42.559108599
 20
186.735456336
 11
42.1250086555
 21
186.5555734591
  0
LINE
  5
45C
100
AcDbEntity
  8
0
100
AcDbLine
 62
7
  6
CONTINUOUS
 10
169.5005257691
 20
236.7247821075
 11
169.0664258256
 21
236.5448992306
  0
LINE
  5
45D
100
AcDbEntity
  8
0
100
AcDbLine
 62
7
  6
CONTINUOUS
 10
43.4913547575
 20
183.2582570282
 11
43.925454701
 21
183.4381399051
  0
LINE
  5
45E
100
AcDbEntity
  8
0
100
AcDbLine
 62
7
  6
CONTINUOUS
 10
170.4327719276
 20
233.2475827997
 11
170.8668718711
 21
233.4274656766
  0
LINE
  5
45F
100
AcDbEntity
  8
0
100
AcDbLine
 62
7
  6
CONTINUOUS
 10
74.5414119247
 20
181.4488742235
 11
74.1796405213
 21
181.2990236018
  0
LINE
  5
460
100
AcDbEntity
  8
0
100
AcDbLine
 62
7
  6
CONTINUOUS
 10
75.3178689979
 20
178.5510969765
 11
75.6796404013
 21
178.7009475982
  0
LINE
  5
461
100
AcDbEntity
  8
0
100
AcDbLine
 62
7
  6
CONTINUOUS
 10
29.982479674
 20
41.8206838857
 11
29.516614213
 21
41.7592837021
  0
LINE
  5
462
100
AcDbEntity
  8
0
100
AcDbLine
 62
7
  6
CONTINUOUS
 10
9.9686354088
 20
41.8206838857
 11
9.5027699478
 21
41.7592837021
  0
LINE
  5
463
100
AcDbEntity
  8
0
100
AcDbLine
 62
7
  6
CONTINUOUS
 10
500.4404990091
 20
61.4657932913
 11
499.9746335481
 21
61.527193475
  0
LINE
  5
464
100
AcDbEntity
  8
0
100
AcDbLine
 62
7
  6
CONTINUOUS
 10
500.4410142457
 20
65.0657929665
 11
500.9068797067
 21
65.0043927828
  0
LINE
  5
465
100
AcDbEntity
  8
0
100
AcDbLine
 62
7
  6
CONTINUOUS
 10
527.0062730494
 20
62.1893114826
 11
526.5404075884
 21
62.2507116663
  0
LINE
  5
466
100
AcDbEntity
  8
0
100
AcDbLine
 62
7
  6
CONTINUOUS
 10
527.0067882859
 20
65.7893111577
 11
527.4726537469
 21
65.7279109741
  0
LINE
  5
467
100
AcDbEntity
  8
0
100
AcDbLine
 62
7
  6
CONTINUOUS
 10
570.9381740382
 20
62.1893114826
 11
570.4723085772
 21
62.2507116663
  0
LINE
  5
468
100
AcDbEntity
  8
0
100
AcDbLine
 62
7
  6
CONTINUOUS
 10
524.8171449225
 20
69.278393134
 11
524.3512794615
 21
69.3397933177
  0
LINE
  5
469
100
AcDbEntity
  8
0
100
AcDbLine
 62
7
  6
CONTINUOUS
 10
595.4335719833
 20
61.4222184872
 11
594.9677065223
 21
61.4836186709
  0
LINE
  5
46A
100
AcDbEntity
  8
0
100
AcDbLine
 62
7
  6
CONTINUOUS
 10
570.9386892748
 20
65.7893111577
 11
571.4045547358
 21
65.7279109741
  0
LINE
  5
46B
100
AcDbEntity
  8
0
100
AcDbLine
 62
7
  6
CONTINUOUS
 10
82.3989061343
 20
165.3044686456
 11
82.8943636437
 21
165.1362834839
  0
LINE
  5
46C
100
AcDbEntity
  8
0
100
AcDbLine
 62
7
  6
CONTINUOUS
 10
42.1254548634
 20
183.4378822869
 11
42.5596062792
 21
183.2581236752
  0
LINE
  5
46D
100
AcDbEntity
  8
0
100
AcDbLine
 62
7
  6
CONTINUOUS
 10
43.9250084931
 20
186.5558310774
 11
43.4908570772
 21
186.7355896891
  0
LINE
  5
46E
100
AcDbEntity
  8
0
100
AcDbLine
 62
7
  6
CONTINUOUS
 10
74.1796405213
 20
178.7009475982
 11
74.5414119247
 21
178.5510969765
  0
LINE
  5
46F
100
AcDbEntity
  8
0
100
AcDbLine
 62
7
  6
CONTINUOUS
 10
75.6796404013
 20
181.2990236018
 11
75.3178689979
 21
181.4488742235
  0
LINE
  5
470
100
AcDbEntity
  8
0
100
AcDbLine
 62
7
  6
CONTINUOUS
 10
94.1796389213
 20
178.7009475982
 11
94.5414103247
 21
178.5510969765
  0
LINE
  5
471
100
AcDbEntity
  8
0
100
AcDbLine
 62
7
  6
CONTINUOUS
 10
95.6796388013
 20
181.2990236018
 11
95.3178673979
 21
181.4488742235
  0
LINE
  5
472
100
AcDbEntity
  8
0
100
AcDbLine
 62
7
  6
CONTINUOUS
 10
273.5400068318
 20
108.9307632994
 11
273.9741325159
 21
108.7509425532
  0
LINE
  5
473
100
AcDbEntity
  8
0
100
AcDbLine
 62
7
  6
CONTINUOUS
 10
87.9296394213
 20
195.464085978
 11
87.4603731883
 21
195.6955024744
  0
LINE
  5
474
100
AcDbEntity
  8
0
100
AcDbLine
 62
7
  6
CONTINUOUS
 10
81.49459422
 20
235.8336046682
 11
81.9296399013
 21
235.5429164375
  0
LINE
  5
475
100
AcDbEntity
  8
0
100
AcDbLine
 62
7
  6
CONTINUOUS
 10
351.2762066834
 20
21.2403658161
 11
350.9033735705
 21
21.5263659565
  0
LINE
  5
476
100
AcDbEntity
  8
0
100
AcDbLine
 62
7
  6
CONTINUOUS
 10
338.7415648091
 20
38.7180569587
 11
339.114397922
 21
38.4320568183
  0
LINE
  5
477
100
AcDbEntity
  8
0
100
AcDbLine
 62
7
  6
CONTINUOUS
 10
341.2867846644
 20
41.2640054684
 11
340.9139515516
 21
41.5500056088
  0
LINE
  5
478
100
AcDbEntity
  8
0
100
AcDbLine
 62
7
  6
CONTINUOUS
 10
358.720408847
 20
38.6732613442
 11
359.0932419598
 21
38.3872612038
  0
LINE
  5
479
100
AcDbEntity
  8
0
100
AcDbLine
 62
7
  6
CONTINUOUS
 10
73.8689803743
 20
248.9393199131
 11
74.1796405213
 21
248.7009419982
  0
LINE
  5
47A
100
AcDbEntity
  8
0
100
AcDbLine
 62
7
  6
CONTINUOUS
 10
75.9903005482
 20
251.0606400869
 11
75.6796404013
 21
251.2990180018
  0
LINE
  5
47B
100
AcDbEntity
  8
0
100
AcDbLine
 62
7
  6
CONTINUOUS
 10
88.7580664797
 20
264.835442834
 11
88.3646851025
 21
265.1804290428
  0
LINE
  5
47C
100
AcDbEntity
  8
0
100
AcDbLine
 62
7
  6
CONTINUOUS
 10
129.9296360613
 20
239.9999808
 11
149.9296344613
 21
219.9999824
  0
LINE
  5
47D
100
AcDbEntity
  8
0
100
AcDbLine
 62
7
  6
CONTINUOUS
 10
171.5253656253
 20
194.9066124726
 11
171.239258776
 21
195.2793637048
  0
LINE
  5
47E
100
AcDbEntity
  8
0
100
AcDbLine
 62
7
  6
CONTINUOUS
 10
318.4411287979
 20
5.099999592
 11
318.7271822957
 21
4.7272074157
  0
LINE
  5
47F
100
AcDbEntity
  8
0
100
AcDbLine
 62
7
  6
CONTINUOUS
 10
321.5588200021
 20
6.899999448
 11
321.2727665043
 21
7.2727916243
  0
LINE
  5
480
100
AcDbEntity
  8
0
100
AcDbLine
 62
7
  6
CONTINUOUS
 10
325.4417542572
 20
24.1003595044
 11
325.7276928783
 21
23.7277170383
  0
LINE
  5
481
100
AcDbEntity
  8
0
100
AcDbLine
 62
7
  6
CONTINUOUS
 10
228.199981744
 20
5.99999952
 11
228.2613152518
 21
5.5341252761
  0
LINE
  5
482
100
AcDbEntity
  8
0
100
AcDbLine
 62
7
  6
CONTINUOUS
 10
231.799981456
 20
5.99999952
 11
231.7386479482
 21
6.4658737639
  0
LINE
  5
483
100
AcDbEntity
  8
0
100
AcDbLine
 62
7
  6
CONTINUOUS
 10
229.9999816
 20
229.9999816
 11
229.9999816
 21
229.9296280613
  0
LINE
  5
484
100
AcDbEntity
  8
0
100
AcDbLine
 62
7
  6
CONTINUOUS
 10
229.9999816
 20
200.0703375387
 11
229.9999816
 21
199.999984
  0
LINE
  5
485
100
AcDbEntity
  8
0
100
AcDbLine
 62
7
  6
CONTINUOUS
 10
239.9296272613
 20
219.9999824
 11
239.9296272613
 21
209.9999832
  0
LINE
  5
486
100
AcDbEntity
  8
0
100
AcDbLine
 62
7
  6
CONTINUOUS
 10
239.9296272613
 20
151.99998784
 11
239.9296272613
 21
171.99998624
  0
LINE
  5
487
100
AcDbEntity
  8
0
100
AcDbLine
 62
7
  6
CONTINUOUS
 10
239.9296272613
 20
257.99997936
 11
239.9296272613
 21
277.99997776
  0
LINE
  5
488
100
AcDbEntity
  8
0
100
AcDbLine
 62
7
  6
CONTINUOUS
 10
249.963847013
 20
226.384963051
 11
249.9296264613
 21
225.8628583239
  0
LINE
  5
489
100
AcDbEntity
  8
0
100
AcDbLine
 62
7
  6
CONTINUOUS
 10
243.4807382377
 20
215.3882113366
 11
243.4296269813
 21
214.9999828
  0
LINE
  5
48A
100
AcDbEntity
  8
0
100
AcDbLine
 62
7
  6
CONTINUOUS
 10
246.3785154848
 20
214.6117542634
 11
246.4296267413
 21
214.9999828
  0
LINE
  5
48B
100
AcDbEntity
  8
0
100
AcDbLine
 62
7
  6
CONTINUOUS
 10
250.0659231452
 20
226.8981344215
 11
249.963847013
 21
226.384963051
  0
LINE
  5
48C
100
AcDbEntity
  8
0
100
AcDbLine
 62
7
  6
CONTINUOUS
 10
250.2341083069
 20
227.3935919309
 11
250.0659231452
 21
226.8981344215
  0
LINE
  5
48D
100
AcDbEntity
  8
0
100
AcDbLine
 62
7
  6
CONTINUOUS
 10
275.9988523619
 20
318.6103567705
 11
276.178673108
 21
319.0444824546
  0
LINE
  5
48E
100
AcDbEntity
  8
0
100
AcDbLine
 62
7
  6
CONTINUOUS
 10
243.6305888595
 20
215.74998274
 11
243.4807382377
 21
215.3882113366
  0
LINE
  5
48F
100
AcDbEntity
  8
0
100
AcDbLine
 62
7
  6
CONTINUOUS
 10
246.228664863
 20
214.24998286
 11
246.3785154848
 21
214.6117542634
  0
LINE
  5
490
100
AcDbEntity
  8
0
100
AcDbLine
 62
7
  6
CONTINUOUS
 10
250.4655248032
 20
227.8628581639
 11
250.2341083069
 21
227.3935919309
  0
LINE
  5
491
100
AcDbEntity
  8
0
100
AcDbLine
 62
7
  6
CONTINUOUS
 10
250.756213034
 20
228.2979038451
 11
250.4655248032
 21
227.8628581639
  0
LINE
  5
492
100
AcDbEntity
  8
0
100
AcDbLine
 62
7
  6
CONTINUOUS
 10
325.7310034851
 20
341.2529054752
 11
325.447372114
 21
340.8782671755
  0
LINE
  5
493
100
AcDbEntity
  8
0
100
AcDbLine
 62
7
  6
CONTINUOUS
 10
328.29303252
 20
338.7238730217
 11
328.5766638911
 21
339.0985113214
  0
LINE
  5
494
100
AcDbEntity
  8
0
100
AcDbLine
 62
7
  6
CONTINUOUS
 10
341.27621588
 20
358.7177206812
 11
341.5622160204
 21
359.0905537941
  0
LINE
  5
495
100
AcDbEntity
  8
0
100
AcDbLine
 62
7
  6
CONTINUOUS
 10
358.7045951496
 20
361.2959559544
 11
358.4185950093
 21
360.9231228415
  0
LINE
  5
496
100
AcDbEntity
  8
0
100
AcDbLine
 62
7
  6
CONTINUOUS
 10
361.2505436594
 20
358.7507360991
 11
361.5365437998
 21
359.1235692119
  0
LINE
  5
497
100
AcDbEntity
  8
0
100
AcDbLine
 62
7
  6
CONTINUOUS
 10
243.8689667743
 20
216.0606428869
 11
243.6305888595
 21
215.74998274
  0
LINE
  5
498
100
AcDbEntity
  8
0
100
AcDbLine
 62
7
  6
CONTINUOUS
 10
245.9902869482
 20
213.9393227131
 11
246.228664863
 21
214.24998286
  0
LINE
  5
499
100
AcDbEntity
  8
0
100
AcDbLine
 62
7
  6
CONTINUOUS
 10
251.1011992428
 20
228.6912852224
 11
250.756213034
 21
228.2979038451
  0
LINE
  5
49A
100
AcDbEntity
  8
0
100
AcDbLine
 62
7
  6
CONTINUOUS
 10
26.99999784
 20
1.99999984
 11
24.999998
 21
0.0
  0
LINE
  5
49B
100
AcDbEntity
  8
0
100
AcDbLine
 62
7
  6
CONTINUOUS
 10
239.9296272613
 20
209.9999832
 11
219.9296288613
 21
189.9999848
  0
LINE
  5
49C
100
AcDbEntity
  8
0
100
AcDbLine
 62
7
  6
CONTINUOUS
 10
251.49458062
 20
229.0362714312
 11
251.1011992428
 21
228.6912852224
  0
LINE
  5
49D
100
AcDbEntity
  8
0
100
AcDbLine
 62
7
  6
CONTINUOUS
 10
9.0686700043
 20
41.5794008252
 11
8.6959187721
 21
41.2932939758
  0
LINE
  5
49E
100
AcDbEntity
  8
0
100
AcDbLine
 62
7
  6
CONTINUOUS
 10
10.8691160498
 20
38.4619672712
 11
11.2418672819
 21
38.7480741205
  0
LINE
  5
49F
100
AcDbEntity
  8
0
100
AcDbLine
 62
7
  6
CONTINUOUS
 10
413.0167725279
 20
357.2352232243
 11
412.1883454694
 21
356.5995487847
  0
LINE
  5
4A0
100
AcDbEntity
  8
0
100
AcDbLine
 62
7
  6
CONTINUOUS
 10
244.1796269213
 20
216.2990208018
 11
243.8689667743
 21
216.0606428869
  0
LINE
  5
4A1
100
AcDbEntity
  8
0
100
AcDbLine
 62
7
  6
CONTINUOUS
 10
245.6796268013
 20
213.7009447982
 11
245.9902869482
 21
213.9393227131
  0
LINE
  5
4A2
100
AcDbEntity
  8
0
100
AcDbLine
 62
7
  6
CONTINUOUS
 10
251.9296263013
 20
229.3269596619
 11
251.49458062
 21
229.0362714312
  0
LINE
  5
4A3
100
AcDbEntity
  8
0
100
AcDbLine
 62
7
  6
CONTINUOUS
 10
87.4603731883
 20
165.3044686456
 11
87.9296394213
 21
165.535885142
  0
LINE
  5
4A4
100
AcDbEntity
  8
0
100
AcDbLine
 62
7
  6
CONTINUOUS
 10
252.3988925343
 20
229.5583761583
 11
251.9296263013
 21
229.3269596619
  0
LINE
  5
4A5
100
AcDbEntity
  8
0
100
AcDbLine
 62
7
  6
CONTINUOUS
 10
169.5005257691
 20
195.7449891038
 11
169.0664258256
 21
195.5651062269
  0
LINE
  5
4A6
100
AcDbEntity
  8
0
100
AcDbLine
 62
7
  6
CONTINUOUS
 10
482.855471299
 20
343.8741631946
 11
483.9166674156
 21
344.3137250184
  0
LINE
  5
4A7
100
AcDbEntity
  8
0
100
AcDbLine
 62
7
  6
CONTINUOUS
 10
94.5414103247
 20
181.4488742235
 11
94.1796389213
 21
181.2990236018
  0
LINE
  5
4A8
100
AcDbEntity
  8
0
100
AcDbLine
 62
7
  6
CONTINUOUS
 10
95.3178673979
 20
178.5510969765
 11
95.6796388013
 21
178.7009475982
  0
LINE
  5
4A9
100
AcDbEntity
  8
0
100
AcDbLine
 62
7
  6
CONTINUOUS
 10
82.8943636437
 20
195.8636876361
 11
82.3989061343
 21
195.6955024744
  0
LINE
  5
4AA
100
AcDbEntity
  8
0
100
AcDbLine
 62
7
  6
CONTINUOUS
 10
274.4400067598
 20
108.6896090455
 11
274.9058810037
 21
108.7509425532
  0
LINE
  5
4AB
100
AcDbEntity
  8
0
100
AcDbLine
 62
7
  6
CONTINUOUS
 10
274.4400067598
 20
112.2896087575
 11
273.9741325159
 21
112.2282752497
  0
LINE
  5
4AC
100
AcDbEntity
  8
0
100
AcDbLine
 62
7
  6
CONTINUOUS
 10
573.5132622284
 20
150.5848701081
 11
573.0473792111
 21
150.5236032775
  0
LINE
  5
4AD
100
AcDbEntity
  8
0
100
AcDbLine
 62
7
  6
CONTINUOUS
 10
525.2500812065
 20
144.2841937345
 11
524.7841981892
 21
144.2229269039
  0
LINE
  5
4AE
100
AcDbEntity
  8
0
100
AcDbLine
 62
7
  6
CONTINUOUS
 10
572.5820114303
 20
154.062336122
 11
573.0478944476
 21
154.1236029526
  0
LINE
  5
4AF
100
AcDbEntity
  8
0
100
AcDbLine
 62
7
  6
CONTINUOUS
 10
524.3188304085
 20
147.7616597484
 11
524.7847134257
 21
147.822926579
  0
LINE
  5
4B0
100
AcDbEntity
  8
0
100
AcDbLine
 62
7
  6
CONTINUOUS
 10
595.8754626676
 20
157.439972369
 11
595.4095796503
 21
157.3787055384
  0
LINE
  5
4B1
100
AcDbEntity
  8
0
100
AcDbLine
 62
7
  6
CONTINUOUS
 10
571.3720231839
 20
156.26724814
 11
570.9061401666
 21
156.2059813094
  0
LINE
  5
4B2
100
AcDbEntity
  8
0
100
AcDbLine
 62
7
  6
CONTINUOUS
 10
66.9296411013
 20
104.9999916
 11
62.9296414213
 21
104.9999916
  0
LINE
  5
4B3
100
AcDbEntity
  8
0
100
AcDbLine
 62
7
  6
CONTINUOUS
 10
272.9296246213
 20
104.9999916
 11
276.9296243013
 21
104.9999916
  0
LINE
  5
4B4
100
AcDbEntity
  8
0
100
AcDbLine
 62
7
  6
CONTINUOUS
 10
273.9741325159
 20
108.7509425532
 11
274.4400067598
 21
108.6896090455
  0
LINE
  5
4B5
100
AcDbEntity
  8
0
100
AcDbLine
 62
7
  6
CONTINUOUS
 10
274.9058810037
 20
112.2282752497
 11
274.4400067598
 21
112.2896087575
  0
LINE
  5
4B6
100
AcDbEntity
  8
0
100
AcDbLine
 62
7
  6
CONTINUOUS
 10
524.817660159
 20
72.8783928092
 11
525.28352562
 21
72.8169926255
  0
LINE
  5
4B7
100
AcDbEntity
  8
0
100
AcDbLine
 62
7
  6
CONTINUOUS
 10
595.4340872198
 20
65.0222181623
 11
595.8999526809
 21
64.9608179787
  0
LINE
  5
4B8
100
AcDbEntity
  8
0
100
AcDbLine
 62
7
  6
CONTINUOUS
 10
573.0773561378
 20
69.2068965248
 11
572.6114906768
 21
69.2682967085
  0
LINE
  5
4B9
100
AcDbEntity
  8
0
100
AcDbLine
 62
7
  6
CONTINUOUS
 10
573.7430527656
 20
72.6629032321
 11
573.7981131493
 21
72.655646378
  0
LINE
  5
4BA
100
AcDbEntity
  8
0
100
AcDbLine
 62
7
  6
CONTINUOUS
 10
573.0778713743
 20
72.8068962
 11
573.5437368353
 21
72.7454960163
  0
LINE
  5
4BB
100
AcDbEntity
  8
0
100
AcDbLine
 62
7
  6
CONTINUOUS
 10
82.8943636437
 20
165.1362834839
 11
83.4075350141
 21
165.0342073518
  0
LINE
  5
4BC
100
AcDbEntity
  8
0
100
AcDbLine
 62
7
  6
CONTINUOUS
 10
275.3400066878
 20
112.0484545036
 11
274.9058810037
 21
112.2282752497
  0
LINE
  5
4BD
100
AcDbEntity
  8
0
100
AcDbLine
 62
7
  6
CONTINUOUS
 10
361.2656287023
 20
41.219209854
 11
360.8927955895
 21
41.5052099944
  0
LINE
  5
4BE
100
AcDbEntity
  8
0
100
AcDbLine
 62
7
  6
CONTINUOUS
 10
168.6940389207
 20
192.733415195
 11
169.0668720335
 21
192.4474150546
  0
LINE
  5
4BF
100
AcDbEntity
  8
0
100
AcDbLine
 62
7
  6
CONTINUOUS
 10
171.239258776
 20
195.2793637048
 11
170.8664256632
 21
195.5653638451
  0
LINE
  5
4C0
100
AcDbEntity
  8
0
100
AcDbLine
 62
7
  6
CONTINUOUS
 10
273.1672146555
 20
109.2168167971
 11
273.5400068318
 21
108.9307632994
  0
LINE
  5
4C1
100
AcDbEntity
  8
0
100
AcDbLine
 62
7
  6
CONTINUOUS
 10
93.8689787743
 20
248.9393199131
 11
94.1796389213
 21
248.7009419982
  0
LINE
  5
4C2
100
AcDbEntity
  8
0
100
AcDbLine
 62
7
  6
CONTINUOUS
 10
275.7127988641
 20
111.7624010058
 11
275.3400066878
 21
112.0484545036
  0
LINE
  5
4C3
100
AcDbEntity
  8
0
100
AcDbLine
 62
7
  6
CONTINUOUS
 10
95.9902989482
 20
251.0606400869
 11
95.6796388013
 21
251.2990180018
  0
LINE
  5
4C4
100
AcDbEntity
  8
0
100
AcDbLine
 62
7
  6
CONTINUOUS
 10
59.9296416613
 20
317.99997456
 11
79.9296400613
 21
297.99997616
  0
LINE
  5
4C5
100
AcDbEntity
  8
0
100
AcDbLine
 62
7
  6
CONTINUOUS
 10
197.9296306213
 20
179.9999856
 11
237.9296274213
 21
139.9999888
  0
LINE
  5
4C6
100
AcDbEntity
  8
0
100
AcDbLine
 62
7
  6
CONTINUOUS
 10
272.9296246213
 20
104.9999916
 11
247.9296266213
 21
129.9999896
  0
LINE
  5
4C7
100
AcDbEntity
  8
0
100
AcDbLine
 62
7
  6
CONTINUOUS
 10
197.99998416
 20
179.9999856
 11
237.99998096
 21
139.9999888
  0
LINE
  5
4C8
100
AcDbEntity
  8
0
100
AcDbLine
 62
7
  6
CONTINUOUS
 10
66.9296411013
 20
324.999974
 11
91.9296391013
 21
299.999976
  0
LINE
  5
4C9
100
AcDbEntity
  8
0
100
AcDbLine
 62
7
  6
CONTINUOUS
 10
101.9296383013
 20
289.9999768
 11
141.9296351013
 21
249.99998
  0
LINE
  5
4CA
100
AcDbEntity
  8
0
100
AcDbLine
 62
7
  6
CONTINUOUS
 10
279.9296240613
 20
111.99999104
 11
239.9296272613
 21
151.99998784
  0
LINE
  5
4CB
100
AcDbEntity
  8
0
100
AcDbLine
 62
7
  6
CONTINUOUS
 10
209.9296296613
 20
189.9999848
 11
189.9296312613
 21
209.9999832
  0
LINE
  5
4CC
100
AcDbEntity
  8
0
100
AcDbLine
 62
7
  6
CONTINUOUS
 10
168.4079320713
 20
234.0859594309
 11
168.6940389207
 21
233.7132081987
  0
LINE
  5
4CD
100
AcDbEntity
  8
0
100
AcDbLine
 62
7
  6
CONTINUOUS
 10
171.5253656253
 20
235.8864054763
 11
171.239258776
 21
236.2591567085
  0
LINE
  5
4CE
100
AcDbEntity
  8
0
100
AcDbLine
 62
7
  6
CONTINUOUS
 10
348.4448799787
 20
19.0671685385
 11
348.7309868281
 21
18.6944173063
  0
LINE
  5
4CF
100
AcDbEntity
  8
0
100
AcDbLine
 62
7
  6
CONTINUOUS
 10
351.5623135327
 20
20.867614584
 11
351.2762066834
 21
21.2403658161
  0
LINE
  5
4D0
100
AcDbEntity
  8
0
100
AcDbLine
 62
7
  6
CONTINUOUS
 10
338.4554579598
 20
39.0908081908
 11
338.7415648091
 21
38.7180569587
  0
LINE
  5
4D1
100
AcDbEntity
  8
0
100
AcDbLine
 62
7
  6
CONTINUOUS
 10
341.5728915138
 20
40.8912542363
 11
341.2867846644
 21
41.2640054684
  0
LINE
  5
4D2
100
AcDbEntity
  8
0
100
AcDbLine
 62
7
  6
CONTINUOUS
 10
342.0998611121
 20
8.0368202145
 11
342.7355355517
 21
7.208393156
  0
LINE
  5
4D3
100
AcDbEntity
  8
0
100
AcDbLine
 62
7
  6
CONTINUOUS
 10
328.5581934228
 20
25.8996364956
 11
328.2722548017
 21
26.2722789617
  0
LINE
  5
4D4
100
AcDbEntity
  8
0
100
AcDbLine
 62
7
  6
CONTINUOUS
 10
272.8811611577
 20
109.5896089735
 11
273.1672146555
 21
109.2168167971
  0
LINE
  5
4D5
100
AcDbEntity
  8
0
100
AcDbLine
 62
7
  6
CONTINUOUS
 10
275.9988523619
 20
111.3896088295
 11
275.7127988641
 21
111.7624010058
  0
LINE
  5
4D6
100
AcDbEntity
  8
0
100
AcDbLine
 62
7
  6
CONTINUOUS
 10
357.0240328654
 20
12.0368198945
 11
356.3883584258
 21
12.865246953
  0
LINE
  5
4D7
100
AcDbEntity
  8
0
100
AcDbLine
 62
7
  6
CONTINUOUS
 10
272.7013404116
 20
110.0237346575
 11
272.8811611577
 21
109.5896089735
  0
LINE
  5
4D8
100
AcDbEntity
  8
0
100
AcDbLine
 62
7
  6
CONTINUOUS
 10
264.9999788
 20
19.9344549424
 11
265.1620147197
 21
18.7036699389
  0
LINE
  5
4D9
100
AcDbEntity
  8
0
100
AcDbLine
 62
7
  6
CONTINUOUS
 10
243.4296269813
 20
214.9999828
 11
243.4807382377
 21
214.6117542634
  0
LINE
  5
4DA
100
AcDbEntity
  8
0
100
AcDbLine
 62
7
  6
CONTINUOUS
 10
249.9296264613
 20
202.8628601639
 11
249.963847013
 21
202.3407554368
  0
LINE
  5
4DB
100
AcDbEntity
  8
0
100
AcDbLine
 62
7
  6
CONTINUOUS
 10
259.9296256613
 20
225.8628583239
 11
259.8954051095
 21
226.384963051
  0
LINE
  5
4DC
100
AcDbEntity
  8
0
100
AcDbLine
 62
7
  6
CONTINUOUS
 10
249.9296264613
 20
202.8628601639
 11
249.9296264613
 21
225.8628583239
  0
LINE
  5
4DD
100
AcDbEntity
  8
0
100
AcDbLine
 62
7
  6
CONTINUOUS
 10
259.9296256613
 20
225.8628583239
 11
259.9296256613
 21
202.8628601639
  0
LINE
  5
4DE
100
AcDbEntity
  8
0
100
AcDbLine
 62
7
  6
CONTINUOUS
 10
264.9999788
 20
19.9344549424
 11
264.9999788
 21
34.9999972
  0
LINE
  5
4DF
100
AcDbEntity
  8
0
100
AcDbLine
 62
7
  6
CONTINUOUS
 10
269.9296248613
 20
227.99998176
 11
269.9296248613
 21
201.99998384
  0
LINE
  5
4E0
100
AcDbEntity
  8
0
100
AcDbLine
 62
7
  6
CONTINUOUS
 10
259.8954051095
 20
202.3407554368
 11
259.9296256613
 21
202.8628601639
  0
LINE
  5
4E1
100
AcDbEntity
  8
0
100
AcDbLine
 62
7
  6
CONTINUOUS
 10
228.2613152518
 20
6.4658737639
 11
228.199981744
 21
5.99999952
  0
LINE
  5
4E2
100
AcDbEntity
  8
0
100
AcDbLine
 62
7
  6
CONTINUOUS
 10
272.7013404116
 20
319.9762309425
 11
272.6400069038
 21
319.5103566985
  0
LINE
  5
4E3
100
AcDbEntity
  8
0
100
AcDbLine
 62
7
  6
CONTINUOUS
 10
231.7386479482
 20
5.5341252761
 11
231.799981456
 21
5.99999952
  0
LINE
  5
4E4
100
AcDbEntity
  8
0
100
AcDbLine
 62
7
  6
CONTINUOUS
 10
276.178673108
 20
319.0444824546
 11
276.2400066158
 21
319.5103566985
  0
LINE
  5
4E5
100
AcDbEntity
  8
0
100
AcDbLine
 62
7
  6
CONTINUOUS
 10
263.4807366377
 20
215.3882113366
 11
263.4296253813
 21
214.9999828
  0
LINE
  5
4E6
100
AcDbEntity
  8
0
100
AcDbLine
 62
7
  6
CONTINUOUS
 10
266.3785138848
 20
214.6117542634
 11
266.4296251413
 21
214.9999828
  0
LINE
  5
4E7
100
AcDbEntity
  8
0
100
AcDbLine
 62
7
  6
CONTINUOUS
 10
259.7933289773
 20
201.8275840663
 11
259.8954051095
 21
202.3407554368
  0
LINE
  5
4E8
100
AcDbEntity
  8
0
100
AcDbLine
 62
7
  6
CONTINUOUS
 10
259.6251438157
 20
201.3321265569
 11
259.7933289773
 21
201.8275840663
  0
LINE
  5
4E9
100
AcDbEntity
  8
0
100
AcDbLine
 62
7
  6
CONTINUOUS
 10
325.447372114
 20
340.8782671755
 11
325.2703687745
 21
340.4429851656
  0
LINE
  5
4EA
100
AcDbEntity
  8
0
100
AcDbLine
 62
7
  6
CONTINUOUS
 10
328.5766638911
 20
339.0985113214
 11
328.7536672306
 21
339.5337933313
  0
LINE
  5
4EB
100
AcDbEntity
  8
0
100
AcDbLine
 62
7
  6
CONTINUOUS
 10
338.4442672299
 20
360.8901074237
 11
338.2645086182
 21
360.4559560079
  0
LINE
  5
4EC
100
AcDbEntity
  8
0
100
AcDbLine
 62
7
  6
CONTINUOUS
 10
263.6305872595
 20
215.74998274
 11
263.4807366377
 21
215.3882113366
  0
LINE
  5
4ED
100
AcDbEntity
  8
0
100
AcDbLine
 62
7
  6
CONTINUOUS
 10
266.228663263
 20
214.24998286
 11
266.3785138848
 21
214.6117542634
  0
LINE
  5
4EE
100
AcDbEntity
  8
0
100
AcDbLine
 62
7
  6
CONTINUOUS
 10
259.3937273193
 20
200.8628603239
 11
259.6251438157
 21
201.3321265569
  0
LINE
  5
4EF
100
AcDbEntity
  8
0
100
AcDbLine
 62
7
  6
CONTINUOUS
 10
259.1030390886
 20
200.4278146427
 11
259.3937273193
 21
200.8628603239
  0
LINE
  5
4F0
100
AcDbEntity
  8
0
100
AcDbLine
 62
7
  6
CONTINUOUS
 10
103.5416272191
 20
16.4583631809
 11
104.337591571
 21
17.4956841201
  0
LINE
  5
4F1
100
AcDbEntity
  8
0
100
AcDbLine
 62
7
  6
CONTINUOUS
 10
263.8689651743
 20
216.0606428869
 11
263.6305872595
 21
215.74998274
  0
LINE
  5
4F2
100
AcDbEntity
  8
0
100
AcDbLine
 62
7
  6
CONTINUOUS
 10
265.9902853482
 20
213.9393227131
 11
266.228663263
 21
214.24998286
  0
LINE
  5
4F3
100
AcDbEntity
  8
0
100
AcDbLine
 62
7
  6
CONTINUOUS
 10
258.7580528797
 20
200.0344332654
 11
259.1030390886
 21
200.4278146427
  0
LINE
  5
4F4
100
AcDbEntity
  8
0
100
AcDbLine
 62
7
  6
CONTINUOUS
 10
269.9296248613
 20
201.99998384
 11
239.9296272613
 21
171.99998624
  0
LINE
  5
4F5
100
AcDbEntity
  8
0
100
AcDbLine
 62
7
  6
CONTINUOUS
 10
258.3646715025
 20
199.6894470566
 11
258.7580528797
 21
200.0344332654
  0
LINE
  5
4F6
100
AcDbEntity
  8
0
100
AcDbLine
 62
7
  6
CONTINUOUS
 10
29.0825142695
 20
41.5794008252
 11
28.7097630373
 21
41.2932939758
  0
LINE
  5
4F7
100
AcDbEntity
  8
0
100
AcDbLine
 62
7
  6
CONTINUOUS
 10
30.882960315
 20
38.4619672712
 11
31.2557115471
 21
38.7480741205
  0
LINE
  5
4F8
100
AcDbEntity
  8
0
100
AcDbLine
 62
7
  6
CONTINUOUS
 10
19.0755921369
 20
21.56555656
 11
18.7028409047
 21
21.2794497106
  0
LINE
  5
4F9
100
AcDbEntity
  8
0
100
AcDbLine
 62
7
  6
CONTINUOUS
 10
20.8760381824
 20
18.448123006
 11
21.2487894145
 21
18.7342298553
  0
LINE
  5
4FA
100
AcDbEntity
  8
0
100
AcDbLine
 62
7
  6
CONTINUOUS
 10
264.1796253213
 20
216.2990208018
 11
263.8689651743
 21
216.0606428869
  0
LINE
  5
4FB
100
AcDbEntity
  8
0
100
AcDbLine
 62
7
  6
CONTINUOUS
 10
265.6796252013
 20
213.7009447982
 11
265.9902853482
 21
213.9393227131
  0
LINE
  5
4FC
100
AcDbEntity
  8
0
100
AcDbLine
 62
7
  6
CONTINUOUS
 10
14.0264686805
 20
13.5009213925
 11
13.198041622
 21
12.865246953
  0
LINE
  5
4FD
100
AcDbEntity
  8
0
100
AcDbLine
 62
7
  6
CONTINUOUS
 10
257.9296258213
 20
199.3987588259
 11
258.3646715025
 21
199.6894470566
  0
LINE
  5
4FE
100
AcDbEntity
  8
0
100
AcDbLine
 62
7
  6
CONTINUOUS
 10
170.4327719276
 20
192.267789796
 11
170.8668718711
 21
192.4476726729
  0
LINE
  5
4FF
100
AcDbEntity
  8
0
100
AcDbLine
 62
7
  6
CONTINUOUS
 10
244.5413983247
 20
216.4488714235
 11
244.1796269213
 21
216.2990208018
  0
LINE
  5
500
100
AcDbEntity
  8
0
100
AcDbLine
 62
7
  6
CONTINUOUS
 10
245.3178553979
 20
213.5510941765
 11
245.6796268013
 21
213.7009447982
  0
LINE
  5
501
100
AcDbEntity
  8
0
100
AcDbLine
 62
7
  6
CONTINUOUS
 10
264.5413967247
 20
216.4488714235
 11
264.1796253213
 21
216.2990208018
  0
LINE
  5
502
100
AcDbEntity
  8
0
100
AcDbLine
 62
7
  6
CONTINUOUS
 10
265.3178537979
 20
213.5510941765
 11
265.6796252013
 21
213.7009447982
  0
LINE
  5
503
100
AcDbEntity
  8
0
100
AcDbLine
 62
7
  6
CONTINUOUS
 10
252.8943500437
 20
229.72656132
 11
252.3988925343
 21
229.5583761583
  0
LINE
  5
504
100
AcDbEntity
  8
0
100
AcDbLine
 62
7
  6
CONTINUOUS
 10
86.9649156788
 20
165.1362834839
 11
87.4603731883
 21
165.3044686456
  0
LINE
  5
505
100
AcDbEntity
  8
0
100
AcDbLine
 62
7
  6
CONTINUOUS
 10
594.9442118696
 20
160.9174383829
 11
595.4100948868
 21
160.9787052135
  0
LINE
  5
506
100
AcDbEntity
  8
0
100
AcDbLine
 62
7
  6
CONTINUOUS
 10
570.4407723859
 20
159.7447141539
 11
570.9066554031
 21
159.8059809845
  0
LINE
  5
507
100
AcDbEntity
  8
0
100
AcDbLine
 62
7
  6
CONTINUOUS
 10
527.5378191559
 20
156.1750296312
 11
527.0719361386
 21
156.1137628006
  0
LINE
  5
508
100
AcDbEntity
  8
0
100
AcDbLine
 62
7
  6
CONTINUOUS
 10
526.6065683578
 20
159.6524956451
 11
527.0724513751
 21
159.7137624757
  0
LINE
  5
509
100
AcDbEntity
  8
0
100
AcDbLine
 62
7
  6
CONTINUOUS
 10
500.8821844544
 20
157.3943244698
 11
500.4163014371
 21
157.3330576392
  0
LINE
  5
50A
100
AcDbEntity
  8
0
100
AcDbLine
 62
7
  6
CONTINUOUS
 10
499.9509336563
 20
160.8717904837
 11
500.4168166736
 21
160.9330573143
  0
LINE
  5
50B
100
AcDbEntity
  8
0
100
AcDbLine
 62
7
  6
CONTINUOUS
 10
65.3991302421
 20
108.710486112
 11
65.8656612256
 21
108.7666060885
  0
LINE
  5
50C
100
AcDbEntity
  8
0
100
AcDbLine
 62
7
  6
CONTINUOUS
 10
65.4393876833
 20
112.3102607251
 11
64.9728566998
 21
112.2541407486
  0
LINE
  5
50D
100
AcDbEntity
  8
0
100
AcDbLine
 62
7
  6
CONTINUOUS
 10
91.9296391013
 20
129.9999896
 11
247.9296266213
 21
129.9999896
  0
LINE
  5
50E
100
AcDbEntity
  8
0
100
AcDbLine
 62
7
  6
CONTINUOUS
 10
237.99998096
 20
139.9999888
 11
101.9296383013
 21
139.9999888
  0
LINE
  5
50F
100
AcDbEntity
  8
0
100
AcDbLine
 62
7
  6
CONTINUOUS
 10
87.4603731883
 20
195.6955024744
 11
86.9649156788
 21
195.8636876361
  0
LINE
  5
510
100
AcDbEntity
  8
0
100
AcDbLine
 62
7
  6
CONTINUOUS
 10
169.0668720335
 20
192.4474150546
 11
169.5010234493
 21
192.2676564429
  0
LINE
  5
511
100
AcDbEntity
  8
0
100
AcDbLine
 62
7
  6
CONTINUOUS
 10
170.8664256632
 20
195.5653638451
 11
170.4322742474
 21
195.7451224568
  0
LINE
  5
512
100
AcDbEntity
  8
0
100
AcDbLine
 62
7
  6
CONTINUOUS
 10
513.1815299997
 20
34.2500708957
 11
514.2427261164
 21
33.8105090718
  0
LINE
  5
513
100
AcDbEntity
  8
0
100
AcDbLine
 62
7
  6
CONTINUOUS
 10
585.8745756883
 20
6.1362962039
 11
584.9098519459
 21
6.535897862
  0
LINE
  5
514
100
AcDbEntity
  8
0
100
AcDbLine
 62
7
  6
CONTINUOUS
 10
595.9410969607
 20
13.8637021961
 11
596.9058207031
 21
13.464100538
  0
LINE
  5
515
100
AcDbEntity
  8
0
100
AcDbLine
 62
7
  6
CONTINUOUS
 10
499.9746335481
 20
61.527193475
 11
499.5405336047
 21
61.7070763519
  0
LINE
  5
516
100
AcDbEntity
  8
0
100
AcDbLine
 62
7
  6
CONTINUOUS
 10
81.9296399013
 20
235.5429164375
 11
82.3989061343
 21
235.3114999411
  0
LINE
  5
517
100
AcDbEntity
  8
0
100
AcDbLine
 62
7
  6
CONTINUOUS
 10
88.3646851025
 20
265.1804290428
 11
87.9296394213
 21
265.4711172735
  0
LINE
  5
518
100
AcDbEntity
  8
0
100
AcDbLine
 62
7
  6
CONTINUOUS
 10
168.6940389207
 20
233.7132081987
 11
169.0668720335
 21
233.4272080583
  0
LINE
  5
519
100
AcDbEntity
  8
0
100
AcDbLine
 62
7
  6
CONTINUOUS
 10
8.7318374341
 20
358.7404761044
 11
9.104670547
 21
358.454475964
  0
LINE
  5
51A
100
AcDbEntity
  8
0
100
AcDbLine
 62
7
  6
CONTINUOUS
 10
171.239258776
 20
236.2591567085
 11
170.8664256632
 21
236.5451568489
  0
LINE
  5
51B
100
AcDbEntity
  8
0
100
AcDbLine
 62
7
  6
CONTINUOUS
 10
11.2770572895
 20
361.2864246142
 11
10.9042241766
 21
361.5724247546
  0
LINE
  5
51C
100
AcDbEntity
  8
0
100
AcDbLine
 62
7
  6
CONTINUOUS
 10
41.7526217506
 20
338.7220279126
 11
42.1254548634
 21
338.4360277722
  0
LINE
  5
51D
100
AcDbEntity
  8
0
100
AcDbLine
 62
7
  6
CONTINUOUS
 10
64.1464668584
 20
318.2375645942
 11
64.5192590347
 21
317.9515110964
  0
LINE
  5
51E
100
AcDbEntity
  8
0
100
AcDbLine
 62
7
  6
CONTINUOUS
 10
66.692051067
 20
320.7831488029
 11
66.3192588907
 21
321.0692023007
  0
LINE
  5
51F
100
AcDbEntity
  8
0
100
AcDbLine
 62
7
  6
CONTINUOUS
 10
358.4343019976
 20
39.0460125764
 11
358.720408847
 21
38.6732613442
  0
LINE
  5
520
100
AcDbEntity
  8
0
100
AcDbLine
 62
7
  6
CONTINUOUS
 10
361.5517355517
 20
40.8464586218
 11
361.2656287023
 21
41.219209854
  0
LINE
  5
521
100
AcDbEntity
  8
0
100
AcDbLine
 62
7
  6
CONTINUOUS
 10
250.4655248032
 20
200.8628603239
 11
250.756213034
 21
200.4278146427
  0
LINE
  5
522
100
AcDbEntity
  8
0
100
AcDbLine
 62
7
  6
CONTINUOUS
 10
250.2341083069
 20
201.3321265569
 11
250.4655248032
 21
200.8628603239
  0
LINE
  5
523
100
AcDbEntity
  8
0
100
AcDbLine
 62
7
  6
CONTINUOUS
 10
318.2613080518
 20
5.5341252761
 11
318.4411287979
 21
5.099999592
  0
LINE
  5
524
100
AcDbEntity
  8
0
100
AcDbLine
 62
7
  6
CONTINUOUS
 10
276.178673108
 20
110.9554831454
 11
275.9988523619
 21
111.3896088295
  0
LINE
  5
525
100
AcDbEntity
  8
0
100
AcDbLine
 62
7
  6
CONTINUOUS
 10
321.7386407482
 20
6.4658737639
 11
321.5588200021
 21
6.899999448
  0
LINE
  5
526
100
AcDbEntity
  8
0
100
AcDbLine
 62
7
  6
CONTINUOUS
 10
243.4807382377
 20
214.6117542634
 11
243.6305888595
 21
214.24998286
  0
LINE
  5
527
100
AcDbEntity
  8
0
100
AcDbLine
 62
7
  6
CONTINUOUS
 10
325.2620057256
 20
24.5343108473
 11
325.4417542572
 21
24.1003595044
  0
LINE
  5
528
100
AcDbEntity
  8
0
100
AcDbLine
 62
7
  6
CONTINUOUS
 10
246.3785154848
 20
215.3882113366
 11
246.228664863
 21
215.74998274
  0
LINE
  5
529
100
AcDbEntity
  8
0
100
AcDbLine
 62
7
  6
CONTINUOUS
 10
328.7379419544
 20
25.4656851527
 11
328.5581934228
 21
25.8996364956
  0
LINE
  5
52A
100
AcDbEntity
  8
0
100
AcDbLine
 62
7
  6
CONTINUOUS
 10
250.0659231452
 20
201.8275840663
 11
250.2341083069
 21
201.3321265569
  0
LINE
  5
52B
100
AcDbEntity
  8
0
100
AcDbLine
 62
7
  6
CONTINUOUS
 10
249.963847013
 20
202.3407554368
 11
250.0659231452
 21
201.8275840663
  0
LINE
  5
52C
100
AcDbEntity
  8
0
100
AcDbLine
 62
7
  6
CONTINUOUS
 10
259.8954051095
 20
226.384963051
 11
259.7933289773
 21
226.8981344215
  0
LINE
  5
52D
100
AcDbEntity
  8
0
100
AcDbLine
 62
7
  6
CONTINUOUS
 10
246.4296267413
 20
214.9999828
 11
246.3785154848
 21
215.3882113366
  0
LINE
  5
52E
100
AcDbEntity
  8
0
100
AcDbLine
 62
7
  6
CONTINUOUS
 10
272.6400069038
 20
110.4896089015
 11
272.7013404116
 21
110.0237346575
  0
LINE
  5
52F
100
AcDbEntity
  8
0
100
AcDbLine
 62
7
  6
CONTINUOUS
 10
276.2400066158
 20
110.4896089015
 11
276.178673108
 21
110.9554831454
  0
LINE
  5
530
100
AcDbEntity
  8
0
100
AcDbLine
 62
7
  6
CONTINUOUS
 10
263.4296253813
 20
214.9999828
 11
263.4807366377
 21
214.6117542634
  0
LINE
  5
531
100
AcDbEntity
  8
0
100
AcDbLine
 62
7
  6
CONTINUOUS
 10
274.999978
 20
19.9344549424
 11
274.999978
 21
34.9999972
  0
LINE
  5
532
100
AcDbEntity
  8
0
100
AcDbLine
 62
7
  6
CONTINUOUS
 10
279.9296240613
 20
111.99999104
 11
279.9296240613
 21
107.99999136
  0
LINE
  5
533
100
AcDbEntity
  8
0
100
AcDbLine
 62
7
  6
CONTINUOUS
 10
279.9296240613
 20
317.99997456
 11
279.9296240613
 21
321.99997424
  0
LINE
  5
534
100
AcDbEntity
  8
0
100
AcDbLine
 62
7
  6
CONTINUOUS
 10
272.7013404116
 20
110.9554831454
 11
272.6400069038
 21
110.4896089015
  0
LINE
  5
535
100
AcDbEntity
  8
0
100
AcDbLine
 62
7
  6
CONTINUOUS
 10
276.178673108
 20
110.0237346575
 11
276.2400066158
 21
110.4896089015
  0
LINE
  5
536
100
AcDbEntity
  8
0
100
AcDbLine
 62
7
  6
CONTINUOUS
 10
341.5622160204
 20
359.0905537941
 11
341.7419746321
 21
359.5247052099
  0
LINE
  5
537
100
AcDbEntity
  8
0
100
AcDbLine
 62
7
  6
CONTINUOUS
 10
358.4185950093
 20
360.9231228415
 11
358.2388363976
 21
360.4889714257
  0
LINE
  5
538
100
AcDbEntity
  8
0
100
AcDbLine
 62
7
  6
CONTINUOUS
 10
361.5365437998
 20
359.1235692119
 11
361.7163024115
 21
359.5577206277
  0
LINE
  5
539
100
AcDbEntity
  8
0
100
AcDbLine
 62
7
  6
CONTINUOUS
 10
398.7282752142
 20
362.0636499627
 11
399.3639496537
 21
362.8920770212
  0
LINE
  5
53A
100
AcDbEntity
  8
0
100
AcDbLine
 62
7
  6
CONTINUOUS
 10
138.7271966957
 20
7.2727916243
 11
138.4411431979
 21
6.899999448
  0
LINE
  5
53B
100
AcDbEntity
  8
0
100
AcDbLine
 62
7
  6
CONTINUOUS
 10
141.2727809043
 20
4.7272074157
 11
141.5588344021
 21
5.099999592
  0
LINE
  5
53C
100
AcDbEntity
  8
0
100
AcDbLine
 62
7
  6
CONTINUOUS
 10
413.6524469674
 20
358.0636502827
 11
413.0167725279
 21
357.2352232243
  0
LINE
  5
53D
100
AcDbEntity
  8
0
100
AcDbLine
 62
7
  6
CONTINUOUS
 10
104.9999916
 20
34.9999972
 11
109.9999912
 21
39.9999968
  0
LINE
  5
53E
100
AcDbEntity
  8
0
100
AcDbLine
 62
7
  6
CONTINUOUS
 10
42.082960117
 20
26.5690176263
 11
41.7102088848
 21
26.2829107769
  0
LINE
  5
53F
100
AcDbEntity
  8
0
100
AcDbLine
 62
7
  6
CONTINUOUS
 10
43.8834061625
 20
23.4515840723
 11
44.2561573946
 21
23.7376909216
  0
LINE
  5
540
100
AcDbEntity
  8
0
100
AcDbLine
 62
7
  6
CONTINUOUS
 10
26.0224374377
 20
6.5727187165
 11
26.8508644962
 21
7.208393156
  0
LINE
  5
541
100
AcDbEntity
  8
0
100
AcDbLine
 62
7
  6
CONTINUOUS
 10
481.9442015346
 20
343.1749213111
 11
482.855471299
 21
343.8741631946
  0
LINE
  5
542
100
AcDbEntity
  8
0
100
AcDbLine
 62
7
  6
CONTINUOUS
 10
257.4603595883
 20
199.1673423295
 11
257.9296258213
 21
199.3987588259
  0
LINE
  5
543
100
AcDbEntity
  8
0
100
AcDbLine
 62
7
  6
CONTINUOUS
 10
64.9728566998
 20
112.2541407486
 11
64.5367472928
 21
112.0791859102
  0
LINE
  5
544
100
AcDbEntity
  8
0
100
AcDbLine
 62
7
  6
CONTINUOUS
 10
65.8656612256
 20
108.7666060885
 11
66.3017706326
 21
108.9415609268
  0
LINE
  5
545
100
AcDbEntity
  8
0
100
AcDbLine
 62
7
  6
CONTINUOUS
 10
256.9649020788
 20
198.9991571678
 11
257.4603595883
 21
199.1673423295
  0
LINE
  5
546
100
AcDbEntity
  8
0
100
AcDbLine
 62
7
  6
CONTINUOUS
 10
330.24997358
 20
164.349986852
 11
323.7499741
 21
164.349986852
  0
LINE
  5
547
100
AcDbEntity
  8
0
100
AcDbLine
 62
7
  6
CONTINUOUS
 10
46.2499963
 20
164.349986852
 11
39.74999682
 21
164.349986852
  0
LINE
  5
548
100
AcDbEntity
  8
0
100
AcDbLine
 62
7
  6
CONTINUOUS
 10
614.8427180684
 20
164.449986844
 11
620.9427175804
 21
164.449986844
  0
LINE
  5
549
100
AcDbEntity
  8
0
100
AcDbLine
 62
7
  6
CONTINUOUS
 10
376.155479835
 20
164.5136657667
 11
382.255479347
 21
164.5136657667
  0
LINE
  5
54A
100
AcDbEntity
  8
0
100
AcDbLine
 62
7
  6
CONTINUOUS
 10
85.9296395813
 20
164.9999868
 11
83.9296397413
 21
164.9999868
  0
LINE
  5
54B
100
AcDbEntity
  8
0
100
AcDbLine
 62
7
  6
CONTINUOUS
 10
83.4075350141
 20
165.0342073518
 11
83.9296397413
 21
164.9999868
  0
LINE
  5
54C
100
AcDbEntity
  8
0
100
AcDbLine
 62
7
  6
CONTINUOUS
 10
42.5596062792
 20
183.2581236752
 11
43.0254892965
 21
183.1968568446
  0
LINE
  5
54D
100
AcDbEntity
  8
0
100
AcDbLine
 62
7
  6
CONTINUOUS
 10
43.4908570772
 20
186.7355896891
 11
43.02497406
 21
186.7968565197
  0
LINE
  5
54E
100
AcDbEntity
  8
0
100
AcDbLine
 62
7
  6
CONTINUOUS
 10
74.5414119247
 20
178.5510969765
 11
74.9296404613
 21
178.49998572
  0
LINE
  5
54F
100
AcDbEntity
  8
0
100
AcDbLine
 62
7
  6
CONTINUOUS
 10
94.5414103247
 20
178.5510969765
 11
94.9296388613
 21
178.49998572
  0
LINE
  5
550
100
AcDbEntity
  8
0
100
AcDbLine
 62
7
  6
CONTINUOUS
 10
75.3178689979
 20
181.4488742235
 11
74.9296404613
 21
181.49998548
  0
LINE
  5
551
100
AcDbEntity
  8
0
100
AcDbLine
 62
7
  6
CONTINUOUS
 10
95.3178673979
 20
181.4488742235
 11
94.9296388613
 21
181.49998548
  0
LINE
  5
552
100
AcDbEntity
  8
0
100
AcDbLine
 62
7
  6
CONTINUOUS
 10
86.9649156788
 20
195.8636876361
 11
86.4517443084
 21
195.9657637682
  0
LINE
  5
553
100
AcDbEntity
  8
0
100
AcDbLine
 62
7
  6
CONTINUOUS
 10
82.3989061343
 20
235.3114999411
 11
82.8943636437
 21
235.1433147794
  0
LINE
  5
554
100
AcDbEntity
  8
0
100
AcDbLine
 62
7
  6
CONTINUOUS
 10
572.4317670473
 20
69.3583299471
 11
572.1773907333
 21
69.4481795854
  0
LINE
  5
555
100
AcDbEntity
  8
0
100
AcDbLine
 62
7
  6
CONTINUOUS
 10
74.1796405213
 20
248.7009419982
 11
74.5414119247
 21
248.5510913765
  0
LINE
  5
556
100
AcDbEntity
  8
0
100
AcDbLine
 62
7
  6
CONTINUOUS
 10
75.6796404013
 20
251.2990180018
 11
75.3178689979
 21
251.4488686235
  0
LINE
  5
557
100
AcDbEntity
  8
0
100
AcDbLine
 62
7
  6
CONTINUOUS
 10
94.1796389213
 20
248.7009419982
 11
94.5414103247
 21
248.5510913765
  0
LINE
  5
558
100
AcDbEntity
  8
0
100
AcDbLine
 62
7
  6
CONTINUOUS
 10
95.6796388013
 20
251.2990180018
 11
95.3178673979
 21
251.4488686235
  0
LINE
  5
559
100
AcDbEntity
  8
0
100
AcDbLine
 62
7
  6
CONTINUOUS
 10
500.9068797067
 20
65.0043927828
 11
501.3409796501
 21
64.8245099059
  0
LINE
  5
55A
100
AcDbEntity
  8
0
100
AcDbLine
 62
7
  6
CONTINUOUS
 10
526.5404075884
 20
62.2507116663
 11
526.1063076449
 21
62.4305945432
  0
LINE
  5
55B
100
AcDbEntity
  8
0
100
AcDbLine
 62
7
  6
CONTINUOUS
 10
527.4726537469
 20
65.7279109741
 11
527.9067536904
 21
65.5480280972
  0
LINE
  5
55C
100
AcDbEntity
  8
0
100
AcDbLine
 62
7
  6
CONTINUOUS
 10
524.3512794615
 20
69.3397933177
 11
523.917179518
 21
69.5196761946
  0
LINE
  5
55D
100
AcDbEntity
  8
0
100
AcDbLine
 62
7
  6
CONTINUOUS
 10
525.8278695362
 20
72.552491502
 11
525.9024815725
 21
72.5215736732
  0
LINE
  5
55E
100
AcDbEntity
  8
0
100
AcDbLine
 62
7
  6
CONTINUOUS
 10
525.28352562
 20
72.8169926255
 11
525.7176255635
 21
72.6371097486
  0
LINE
  5
55F
100
AcDbEntity
  8
0
100
AcDbLine
 62
7
  6
CONTINUOUS
 10
87.9296394213
 20
265.4711172735
 11
87.4603731883
 21
265.7025337699
  0
LINE
  5
560
100
AcDbEntity
  8
0
100
AcDbLine
 62
7
  6
CONTINUOUS
 10
251.49458062
 20
199.6894470566
 11
251.9296263013
 21
199.3987588259
  0
LINE
  5
561
100
AcDbEntity
  8
0
100
AcDbLine
 62
7
  6
CONTINUOUS
 10
44.2978416059
 20
341.2679764224
 11
43.9250084931
 21
341.5539765627
  0
LINE
  5
562
100
AcDbEntity
  8
0
100
AcDbLine
 62
7
  6
CONTINUOUS
 10
28.750285626
 20
358.7404761044
 11
29.1231187388
 21
358.454475964
  0
LINE
  5
563
100
AcDbEntity
  8
0
100
AcDbLine
 62
7
  6
CONTINUOUS
 10
31.2955054813
 20
361.2864246142
 11
30.9226723685
 21
361.5724247546
  0
LINE
  5
564
100
AcDbEntity
  8
0
100
AcDbLine
 62
7
  6
CONTINUOUS
 10
251.1011992428
 20
200.0344332654
 11
251.49458062
 21
199.6894470566
  0
LINE
  5
565
100
AcDbEntity
  8
0
100
AcDbLine
 62
7
  6
CONTINUOUS
 10
442.0427318924
 20
0.0
 11
437.0427322924
 21
4.9999996
  0
LINE
  5
566
100
AcDbEntity
  8
0
100
AcDbLine
 62
7
  6
CONTINUOUS
 10
219.9296288613
 20
239.9999808
 11
239.9296272613
 21
219.9999824
  0
LINE
  5
567
100
AcDbEntity
  8
0
100
AcDbLine
 62
7
  6
CONTINUOUS
 10
250.756213034
 20
200.4278146427
 11
251.1011992428
 21
200.0344332654
  0
LINE
  5
568
100
AcDbEntity
  8
0
100
AcDbLine
 62
7
  6
CONTINUOUS
 10
243.6305888595
 20
214.24998286
 11
243.8689667743
 21
213.9393227131
  0
LINE
  5
569
100
AcDbEntity
  8
0
100
AcDbLine
 62
7
  6
CONTINUOUS
 10
246.228664863
 20
215.74998274
 11
245.9902869482
 21
216.0606428869
  0
LINE
  5
56A
100
AcDbEntity
  8
0
100
AcDbLine
 62
7
  6
CONTINUOUS
 10
263.6305872595
 20
214.24998286
 11
263.8689651743
 21
213.9393227131
  0
LINE
  5
56B
100
AcDbEntity
  8
0
100
AcDbLine
 62
7
  6
CONTINUOUS
 10
259.6251438157
 20
227.3935919309
 11
259.3937273193
 21
227.8628581639
  0
LINE
  5
56C
100
AcDbEntity
  8
0
100
AcDbLine
 62
7
  6
CONTINUOUS
 10
338.2755750829
 20
39.5249081343
 11
338.4554579598
 21
39.0908081908
  0
LINE
  5
56D
100
AcDbEntity
  8
0
100
AcDbLine
 62
7
  6
CONTINUOUS
 10
348.2649971018
 20
19.501268482
 11
348.4448799787
 21
19.0671685385
  0
LINE
  5
56E
100
AcDbEntity
  8
0
100
AcDbLine
 62
7
  6
CONTINUOUS
 10
341.7527743907
 20
40.4571542928
 11
341.5728915138
 21
40.8912542363
  0
LINE
  5
56F
100
AcDbEntity
  8
0
100
AcDbLine
 62
7
  6
CONTINUOUS
 10
351.7421964096
 20
20.4335146405
 11
351.5623135327
 21
20.867614584
  0
LINE
  5
570
100
AcDbEntity
  8
0
100
AcDbLine
 62
7
  6
CONTINUOUS
 10
341.7002594541
 20
9.0015439569
 11
342.0998611121
 21
8.0368202145
  0
LINE
  5
571
100
AcDbEntity
  8
0
100
AcDbLine
 62
7
  6
CONTINUOUS
 10
263.4807366377
 20
214.6117542634
 11
263.6305872595
 21
214.24998286
  0
LINE
  5
572
100
AcDbEntity
  8
0
100
AcDbLine
 62
7
  6
CONTINUOUS
 10
266.3785138848
 20
215.3882113366
 11
266.228663263
 21
215.74998274
  0
LINE
  5
573
100
AcDbEntity
  8
0
100
AcDbLine
 62
7
  6
CONTINUOUS
 10
357.4236345234
 20
11.0720961521
 11
357.0240328654
 21
12.0368198945
  0
LINE
  5
574
100
AcDbEntity
  8
0
100
AcDbLine
 62
7
  6
CONTINUOUS
 10
259.7933289773
 20
226.8981344215
 11
259.6251438157
 21
227.3935919309
  0
LINE
  5
575
100
AcDbEntity
  8
0
100
AcDbLine
 62
7
  6
CONTINUOUS
 10
266.4296251413
 20
214.9999828
 11
266.3785138848
 21
215.3882113366
  0
LINE
  5
576
100
AcDbEntity
  8
0
100
AcDbLine
 62
7
  6
CONTINUOUS
 10
272.6400069038
 20
319.5103566985
 11
272.7013404116
 21
319.0444824546
  0
LINE
  5
577
100
AcDbEntity
  8
0
100
AcDbLine
 62
7
  6
CONTINUOUS
 10
325.2703687745
 20
340.4429851656
 11
325.2120559516
 21
339.9767231952
  0
LINE
  5
578
100
AcDbEntity
  8
0
100
AcDbLine
 62
7
  6
CONTINUOUS
 10
328.7536672306
 20
339.5337933313
 11
328.8119800535
 21
340.0000553016
  0
LINE
  5
579
100
AcDbEntity
  8
0
100
AcDbLine
 62
7
  6
CONTINUOUS
 10
274.8379420803
 20
18.7036699389
 11
274.999978
 21
19.9344549424
  0
LINE
  5
57A
100
AcDbEntity
  8
0
100
AcDbLine
 62
7
  6
CONTINUOUS
 10
228.4411359979
 20
6.899999448
 11
228.2613152518
 21
6.4658737639
  0
LINE
  5
57B
100
AcDbEntity
  8
0
100
AcDbLine
 62
7
  6
CONTINUOUS
 10
272.8811611577
 20
111.3896088295
 11
272.7013404116
 21
110.9554831454
  0
LINE
  5
57C
100
AcDbEntity
  8
0
100
AcDbLine
 62
7
  6
CONTINUOUS
 10
231.5588272021
 20
5.099999592
 11
231.7386479482
 21
5.5341252761
  0
LINE
  5
57D
100
AcDbEntity
  8
0
100
AcDbLine
 62
7
  6
CONTINUOUS
 10
275.9988523619
 20
109.5896089735
 11
276.178673108
 21
110.0237346575
  0
LINE
  5
57E
100
AcDbEntity
  8
0
100
AcDbLine
 62
7
  6
CONTINUOUS
 10
49.099996072
 20
7.5588451221
 11
48.7272038957
 21
7.2727916243
  0
LINE
  5
57F
100
AcDbEntity
  8
0
100
AcDbLine
 62
7
  6
CONTINUOUS
 10
50.899995928
 20
4.4411539179
 11
51.2727881043
 21
4.7272074157
  0
LINE
  5
580
100
AcDbEntity
  8
0
100
AcDbLine
 62
7
  6
CONTINUOUS
 10
326.9995086118
 20
183.1997192109
 11
327.4653740728
 21
183.2611193946
  0
LINE
  5
581
100
AcDbEntity
  8
0
100
AcDbLine
 62
7
  6
CONTINUOUS
 10
326.9989933753
 20
186.7997188861
 11
326.5331279143
 21
186.7383187024
  0
LINE
  5
582
100
AcDbEntity
  8
0
100
AcDbLine
 62
7
  6
CONTINUOUS
 10
85.9296395813
 20
164.9999868
 11
86.4517443084
 21
165.0342073518
  0
LINE
  5
583
100
AcDbEntity
  8
0
100
AcDbLine
 62
7
  6
CONTINUOUS
 10
620.9427175804
 20
173.24998614
 11
614.8427180684
 21
173.24998614
  0
LINE
  5
584
100
AcDbEntity
  8
0
100
AcDbLine
 62
7
  6
CONTINUOUS
 10
382.255479347
 20
173.3136650627
 11
376.155479835
 21
173.3136650627
  0
LINE
  5
585
100
AcDbEntity
  8
0
100
AcDbLine
 62
7
  6
CONTINUOUS
 10
39.74999682
 20
173.349986132
 11
46.2499963
 21
173.349986132
  0
LINE
  5
586
100
AcDbEntity
  8
0
100
AcDbLine
 62
7
  6
CONTINUOUS
 10
323.7499741
 20
173.349986132
 11
330.24997358
 21
173.349986132
  0
LINE
  5
587
100
AcDbEntity
  8
0
100
AcDbLine
 62
7
  6
CONTINUOUS
 10
197.99998416
 20
179.9999856
 11
141.9296351013
 21
179.9999856
  0
LINE
  5
588
100
AcDbEntity
  8
0
100
AcDbLine
 62
7
  6
CONTINUOUS
 10
597.7427194364
 20
180.99998552
 11
602.8427190284
 21
180.99998552
  0
LINE
  5
589
100
AcDbEntity
  8
0
100
AcDbLine
 62
7
  6
CONTINUOUS
 10
394.255478387
 20
181.0636644427
 11
399.355477979
 21
181.0636644427
  0
LINE
  5
58A
100
AcDbEntity
  8
0
100
AcDbLine
 62
7
  6
CONTINUOUS
 10
593.7427197564
 20
182.799985376
 11
597.7427194364
 21
182.799985376
  0
LINE
  5
58B
100
AcDbEntity
  8
0
100
AcDbLine
 62
7
  6
CONTINUOUS
 10
602.8427190284
 20
182.799985376
 11
614.8427180684
 21
182.799985376
  0
LINE
  5
58C
100
AcDbEntity
  8
0
100
AcDbLine
 62
7
  6
CONTINUOUS
 10
382.255479347
 20
182.8636642987
 11
394.255478387
 21
182.8636642987
  0
LINE
  5
58D
100
AcDbEntity
  8
0
100
AcDbLine
 62
7
  6
CONTINUOUS
 10
399.355477979
 20
182.8636642987
 11
403.355477659
 21
182.8636642987
  0
LINE
  5
58E
100
AcDbEntity
  8
0
100
AcDbLine
 62
7
  6
CONTINUOUS
 10
614.8427180684
 20
187.199985024
 11
602.8427190284
 21
187.199985024
  0
LINE
  5
58F
100
AcDbEntity
  8
0
100
AcDbLine
 62
7
  6
CONTINUOUS
 10
597.7427194364
 20
187.199985024
 11
593.7427197564
 21
187.199985024
  0
LINE
  5
590
100
AcDbEntity
  8
0
100
AcDbLine
 62
7
  6
CONTINUOUS
 10
403.355477659
 20
187.2636639467
 11
399.355477979
 21
187.2636639467
  0
LINE
  5
591
100
AcDbEntity
  8
0
100
AcDbLine
 62
7
  6
CONTINUOUS
 10
394.255478387
 20
187.2636639467
 11
382.255479347
 21
187.2636639467
  0
LINE
  5
592
100
AcDbEntity
  8
0
100
AcDbLine
 62
7
  6
CONTINUOUS
 10
86.4517443084
 20
195.9657637682
 11
85.9296395813
 21
195.99998432
  0
LINE
  5
593
100
AcDbEntity
  8
0
100
AcDbLine
 62
7
  6
CONTINUOUS
 10
169.5010234493
 20
192.2676564429
 11
169.9669064666
 21
192.2063896123
  0
LINE
  5
594
100
AcDbEntity
  8
0
100
AcDbLine
 62
7
  6
CONTINUOUS
 10
170.4322742474
 20
195.7451224568
 11
169.9663912301
 21
195.8063892874
  0
LINE
  5
595
100
AcDbEntity
  8
0
100
AcDbLine
 62
7
  6
CONTINUOUS
 10
326.5336255946
 20
183.2609860416
 11
326.9995086118
 21
183.1997192109
  0
LINE
  5
596
100
AcDbEntity
  8
0
100
AcDbLine
 62
7
  6
CONTINUOUS
 10
524.7841981892
 20
144.2229269039
 11
524.3183327282
 21
144.2843270875
  0
LINE
  5
597
100
AcDbEntity
  8
0
100
AcDbLine
 62
7
  6
CONTINUOUS
 10
524.7847134257
 20
147.822926579
 11
525.2505788867
 21
147.7615263953
  0
LINE
  5
598
100
AcDbEntity
  8
0
100
AcDbLine
 62
7
  6
CONTINUOUS
 10
500.4163014371
 20
157.3330576392
 11
499.9504359761
 21
157.3944578228
  0
LINE
  5
599
100
AcDbEntity
  8
0
100
AcDbLine
 62
7
  6
CONTINUOUS
 10
527.0719361386
 20
156.1137628006
 11
526.6060706776
 21
156.1751629843
  0
LINE
  5
59A
100
AcDbEntity
  8
0
100
AcDbLine
 62
7
  6
CONTINUOUS
 10
573.0473792111
 20
150.5236032775
 11
572.5815137501
 21
150.5850034611
  0
LINE
  5
59B
100
AcDbEntity
  8
0
100
AcDbLine
 62
7
  6
CONTINUOUS
 10
500.4168166736
 20
160.9330573143
 11
500.8826821346
 21
160.8716571306
  0
LINE
  5
59C
100
AcDbEntity
  8
0
100
AcDbLine
 62
7
  6
CONTINUOUS
 10
252.8943500437
 20
198.9991571678
 11
253.4075214141
 21
198.8970810357
  0
LINE
  5
59D
100
AcDbEntity
  8
0
100
AcDbLine
 62
7
  6
CONTINUOUS
 10
252.3988925343
 20
199.1673423295
 11
252.8943500437
 21
198.9991571678
  0
LINE
  5
59E
100
AcDbEntity
  8
0
100
AcDbLine
 62
7
  6
CONTINUOUS
 10
169.0668720335
 20
233.4272080583
 11
169.5010234493
 21
233.2474494467
  0
LINE
  5
59F
100
AcDbEntity
  8
0
100
AcDbLine
 62
7
  6
CONTINUOUS
 10
170.8664256632
 20
236.5451568489
 11
170.4322742474
 21
236.7249154605
  0
LINE
  5
5A0
100
AcDbEntity
  8
0
100
AcDbLine
 62
7
  6
CONTINUOUS
 10
244.1796269213
 20
213.7009447982
 11
244.5413983247
 21
213.5510941765
  0
LINE
  5
5A1
100
AcDbEntity
  8
0
100
AcDbLine
 62
7
  6
CONTINUOUS
 10
570.4723085772
 20
62.2507116663
 11
570.0382086338
 21
62.4305945432
  0
LINE
  5
5A2
100
AcDbEntity
  8
0
100
AcDbLine
 62
7
  6
CONTINUOUS
 10
571.4045547358
 20
65.7279109741
 11
571.8386546792
 21
65.5480280972
  0
LINE
  5
5A3
100
AcDbEntity
  8
0
100
AcDbLine
 62
7
  6
CONTINUOUS
 10
594.9677065223
 20
61.4836186709
 11
594.5336065788
 21
61.6635015478
  0
LINE
  5
5A4
100
AcDbEntity
  8
0
100
AcDbLine
 62
7
  6
CONTINUOUS
 10
573.5437368353
 20
72.7454960163
 11
573.7430527656
 21
72.6629032321
  0
LINE
  5
5A5
100
AcDbEntity
  8
0
100
AcDbLine
 62
7
  6
CONTINUOUS
 10
595.8999526809
 20
64.9608179787
 11
596.3340526243
 21
64.7809351018
  0
LINE
  5
5A6
100
AcDbEntity
  8
0
100
AcDbLine
 62
7
  6
CONTINUOUS
 10
251.9296263013
 20
199.3987588259
 11
252.3988925343
 21
199.1673423295
  0
LINE
  5
5A7
100
AcDbEntity
  8
0
100
AcDbLine
 62
7
  6
CONTINUOUS
 10
243.8689667743
 20
213.9393227131
 11
244.1796269213
 21
213.7009447982
  0
LINE
  5
5A8
100
AcDbEntity
  8
0
100
AcDbLine
 62
7
  6
CONTINUOUS
 10
245.9902869482
 20
216.0606428869
 11
245.6796268013
 21
216.2990208018
  0
LINE
  5
5A9
100
AcDbEntity
  8
0
100
AcDbLine
 62
7
  6
CONTINUOUS
 10
263.8689651743
 20
213.9393227131
 11
264.1796253213
 21
213.7009447982
  0
LINE
  5
5AA
100
AcDbEntity
  8
0
100
AcDbLine
 62
7
  6
CONTINUOUS
 10
265.9902853482
 20
216.0606428869
 11
265.6796252013
 21
216.2990208018
  0
LINE
  5
5AB
100
AcDbEntity
  8
0
100
AcDbLine
 62
7
  6
CONTINUOUS
 10
258.7580528797
 20
228.6912852224
 11
258.3646715025
 21
229.0362714312
  0
LINE
  5
5AC
100
AcDbEntity
  8
0
100
AcDbLine
 62
7
  6
CONTINUOUS
 10
442.0427318924
 20
34.399997248
 11
437.0427322924
 21
39.399996848
  0
LINE
  5
5AD
100
AcDbEntity
  8
0
100
AcDbLine
 62
7
  6
CONTINUOUS
 10
269.9296248613
 20
227.99998176
 11
239.9296272613
 21
257.99997936
  0
LINE
  5
5AE
100
AcDbEntity
  8
0
100
AcDbLine
 62
7
  6
CONTINUOUS
 10
259.1030390886
 20
228.2979038451
 11
258.7580528797
 21
228.6912852224
  0
LINE
  5
5AF
100
AcDbEntity
  8
0
100
AcDbLine
 62
7
  6
CONTINUOUS
 10
266.228663263
 20
215.74998274
 11
265.9902853482
 21
216.0606428869
  0
LINE
  5
5B0
100
AcDbEntity
  8
0
100
AcDbLine
 62
7
  6
CONTINUOUS
 10
259.3937273193
 20
227.8628581639
 11
259.1030390886
 21
228.2979038451
  0
LINE
  5
5B1
100
AcDbEntity
  8
0
100
AcDbLine
 62
7
  6
CONTINUOUS
 10
358.2544191208
 20
39.4801125198
 11
358.4343019976
 21
39.0460125764
  0
LINE
  5
5B2
100
AcDbEntity
  8
0
100
AcDbLine
 62
7
  6
CONTINUOUS
 10
361.7316184286
 20
40.4123586784
 11
361.5517355517
 21
40.8464586218
  0
LINE
  5
5B3
100
AcDbEntity
  8
0
100
AcDbLine
 62
7
  6
CONTINUOUS
 10
276.2400066158
 20
319.5103566985
 11
276.178673108
 21
319.9762309425
  0
LINE
  5
5B4
100
AcDbEntity
  8
0
100
AcDbLine
 62
7
  6
CONTINUOUS
 10
318.199974544
 20
5.99999952
 11
318.2613080518
 21
5.5341252761
  0
LINE
  5
5B5
100
AcDbEntity
  8
0
100
AcDbLine
 62
7
  6
CONTINUOUS
 10
321.799974256
 20
5.99999952
 11
321.7386407482
 21
6.4658737639
  0
LINE
  5
5B6
100
AcDbEntity
  8
0
100
AcDbLine
 62
7
  6
CONTINUOUS
 10
325.2006968489
 20
24.999998
 11
325.2620057256
 21
24.5343108473
  0
LINE
  5
5B7
100
AcDbEntity
  8
0
100
AcDbLine
 62
7
  6
CONTINUOUS
 10
328.7992508311
 20
24.999998
 11
328.7379419544
 21
25.4656851527
  0
LINE
  5
5B8
100
AcDbEntity
  8
0
100
AcDbLine
 62
7
  6
CONTINUOUS
 10
314.9999748
 20
324.999974
 11
314.9999748
 21
44.9999964
  0
LINE
  5
5B9
100
AcDbEntity
  8
0
100
AcDbLine
 62
7
  6
CONTINUOUS
 10
323.7499741
 20
36.6499393327
 11
323.7499741
 21
45.6499386127
  0
LINE
  5
5BA
100
AcDbEntity
  8
0
100
AcDbLine
 62
7
  6
CONTINUOUS
 10
323.7499741
 20
164.349986852
 11
323.7499741
 21
173.349986132
  0
LINE
  5
5BB
100
AcDbEntity
  8
0
100
AcDbLine
 62
7
  6
CONTINUOUS
 10
323.7499741
 20
196.649984268
 11
323.7499741
 21
205.649983548
  0
LINE
  5
5BC
100
AcDbEntity
  8
0
100
AcDbLine
 62
7
  6
CONTINUOUS
 10
323.7499741
 20
319.4427457815
 11
323.7499741
 21
328.4427450615
  0
LINE
  5
5BD
100
AcDbEntity
  8
0
100
AcDbLine
 62
7
  6
CONTINUOUS
 10
323.7499741
 20
351.7427431975
 11
323.7499741
 21
360.7427424775
  0
LINE
  5
5BE
100
AcDbEntity
  8
0
100
AcDbLine
 62
7
  6
CONTINUOUS
 10
330.24997358
 20
360.7427424775
 11
330.24997358
 21
351.7427431975
  0
LINE
  5
5BF
100
AcDbEntity
  8
0
100
AcDbLine
 62
7
  6
CONTINUOUS
 10
330.24997358
 20
328.4427450615
 11
330.24997358
 21
319.4427457815
  0
LINE
  5
5C0
100
AcDbEntity
  8
0
100
AcDbLine
 62
7
  6
CONTINUOUS
 10
330.24997358
 20
205.649983548
 11
330.24997358
 21
196.649984268
  0
LINE
  5
5C1
100
AcDbEntity
  8
0
100
AcDbLine
 62
7
  6
CONTINUOUS
 10
330.24997358
 20
173.349986132
 11
330.24997358
 21
164.349986852
  0
LINE
  5
5C2
100
AcDbEntity
  8
0
100
AcDbLine
 62
7
  6
CONTINUOUS
 10
330.24997358
 20
45.6499386127
 11
330.24997358
 21
36.6499393327
  0
LINE
  5
5C3
100
AcDbEntity
  8
0
100
AcDbLine
 62
7
  6
CONTINUOUS
 10
338.2645086182
 20
360.4559560079
 11
338.2032417876
 21
359.9900729906
  0
LINE
  5
5C4
100
AcDbEntity
  8
0
100
AcDbLine
 62
7
  6
CONTINUOUS
 10
341.7419746321
 20
359.5247052099
 11
341.8032414627
 21
359.9905882272
  0
LINE
  5
5C5
100
AcDbEntity
  8
0
100
AcDbLine
 62
7
  6
CONTINUOUS
 10
325.2605179866
 20
185.4653444475
 11
325.199251156
 21
184.9994614302
  0
LINE
  5
5C6
100
AcDbEntity
  8
0
100
AcDbLine
 62
7
  6
CONTINUOUS
 10
328.7379840005
 20
184.5340936495
 11
328.7992508311
 21
184.9999766668
  0
LINE
  5
5C7
100
AcDbEntity
  8
0
100
AcDbLine
 62
7
  6
CONTINUOUS
 10
358.2388363976
 20
360.4889714257
 11
358.177569567
 21
360.0230884085
  0
LINE
  5
5C8
100
AcDbEntity
  8
0
100
AcDbLine
 62
7
  6
CONTINUOUS
 10
325.4402765983
 20
185.8994958633
 11
325.2605179866
 21
185.4653444475
  0
LINE
  5
5C9
100
AcDbEntity
  8
0
100
AcDbLine
 62
7
  6
CONTINUOUS
 10
328.5582253888
 20
184.0999422337
 11
328.7379840005
 21
184.5340936495
  0
LINE
  5
5CA
100
AcDbEntity
  8
0
100
AcDbLine
 62
7
  6
CONTINUOUS
 10
398.3286735561
 20
361.0989262203
 11
398.7282752142
 21
362.0636499627
  0
LINE
  5
5CB
100
AcDbEntity
  8
0
100
AcDbLine
 62
7
  6
CONTINUOUS
 10
325.7262767387
 20
186.2723289762
 11
325.4402765983
 21
185.8994958633
  0
LINE
  5
5CC
100
AcDbEntity
  8
0
100
AcDbLine
 62
7
  6
CONTINUOUS
 10
328.2722252485
 20
183.7271091208
 11
328.5582253888
 21
184.0999422337
  0
LINE
  5
5CD
100
AcDbEntity
  8
0
100
AcDbLine
 62
7
  6
CONTINUOUS
 10
273.1672146555
 20
111.7624010058
 11
272.8811611577
 21
111.3896088295
  0
LINE
  5
5CE
100
AcDbEntity
  8
0
100
AcDbLine
 62
7
  6
CONTINUOUS
 10
275.7127988641
 20
109.2168167971
 11
275.9988523619
 21
109.5896089735
  0
LINE
  5
5CF
100
AcDbEntity
  8
0
100
AcDbLine
 62
7
  6
CONTINUOUS
 10
326.0990279708
 20
186.5584358255
 11
325.7262767387
 21
186.2723289762
  0
LINE
  5
5D0
100
AcDbEntity
  8
0
100
AcDbLine
 62
7
  6
CONTINUOUS
 10
327.8994740163
 20
183.4410022715
 11
328.2722252485
 21
183.7271091208
  0
LINE
  5
5D1
100
AcDbEntity
  8
0
100
AcDbLine
 62
7
  6
CONTINUOUS
 10
102.5043062799
 20
15.662398829
 11
103.5416272191
 21
16.4583631809
  0
LINE
  5
5D2
100
AcDbEntity
  8
0
100
AcDbLine
 62
7
  6
CONTINUOUS
 10
326.5331279143
 20
186.7383187024
 11
326.0990279708
 21
186.5584358255
  0
LINE
  5
5D3
100
AcDbEntity
  8
0
100
AcDbLine
 62
7
  6
CONTINUOUS
 10
327.4653740728
 20
183.2611193946
 11
327.8994740163
 21
183.4410022715
  0
LINE
  5
5D4
100
AcDbEntity
  8
0
100
AcDbLine
 62
7
  6
CONTINUOUS
 10
9.5027699478
 20
41.7592837021
 11
9.0686700043
 21
41.5794008252
  0
LINE
  5
5D5
100
AcDbEntity
  8
0
100
AcDbLine
 62
7
  6
CONTINUOUS
 10
10.4350161063
 20
38.2820843943
 11
10.8691160498
 21
38.4619672712
  0
LINE
  5
5D6
100
AcDbEntity
  8
0
100
AcDbLine
 62
7
  6
CONTINUOUS
 10
86.4517443084
 20
165.0342073518
 11
86.9649156788
 21
165.1362834839
  0
LINE
  5
5D7
100
AcDbEntity
  8
0
100
AcDbLine
 62
7
  6
CONTINUOUS
 10
256.4517307084
 20
198.8970810357
 11
256.9649020788
 21
198.9991571678
  0
LINE
  5
5D8
100
AcDbEntity
  8
0
100
AcDbLine
 62
7
  6
CONTINUOUS
 10
94.9296388613
 20
178.49998572
 11
95.3178673979
 21
178.5510969765
  0
LINE
  5
5D9
100
AcDbEntity
  8
0
100
AcDbLine
 62
7
  6
CONTINUOUS
 10
74.9296404613
 20
178.49998572
 11
75.3178689979
 21
178.5510969765
  0
LINE
  5
5DA
100
AcDbEntity
  8
0
100
AcDbLine
 62
7
  6
CONTINUOUS
 10
255.9296259813
 20
198.8628604839
 11
256.4517307084
 21
198.8970810357
  0
LINE
  5
5DB
100
AcDbEntity
  8
0
100
AcDbLine
 62
7
  6
CONTINUOUS
 10
602.8427190284
 20
188.99998488
 11
597.7427194364
 21
188.99998488
  0
LINE
  5
5DC
100
AcDbEntity
  8
0
100
AcDbLine
 62
7
  6
CONTINUOUS
 10
399.355477979
 20
189.0636638027
 11
394.255478387
 21
189.0636638027
  0
LINE
  5
5DD
100
AcDbEntity
  8
0
100
AcDbLine
 62
7
  6
CONTINUOUS
 10
219.9296288613
 20
189.9999848
 11
209.9296296613
 21
189.9999848
  0
LINE
  5
5DE
100
AcDbEntity
  8
0
100
AcDbLine
 62
7
  6
CONTINUOUS
 10
129.9296360613
 20
189.9999848
 11
109.9296376613
 21
189.9999848
  0
LINE
  5
5DF
100
AcDbEntity
  8
0
100
AcDbLine
 62
7
  6
CONTINUOUS
 10
83.9296397413
 20
195.99998432
 11
85.9296395813
 21
195.99998432
  0
LINE
  5
5E0
100
AcDbEntity
  8
0
100
AcDbLine
 62
7
  6
CONTINUOUS
 10
330.24997358
 20
196.649984268
 11
323.7499741
 21
196.649984268
  0
LINE
  5
5E1
100
AcDbEntity
  8
0
100
AcDbLine
 62
7
  6
CONTINUOUS
 10
46.2499963
 20
196.649984268
 11
39.74999682
 21
196.649984268
  0
LINE
  5
5E2
100
AcDbEntity
  8
0
100
AcDbLine
 62
7
  6
CONTINUOUS
 10
614.8427180684
 20
196.74998426
 11
620.9427175804
 21
196.74998426
  0
LINE
  5
5E3
100
AcDbEntity
  8
0
100
AcDbLine
 62
7
  6
CONTINUOUS
 10
376.155479835
 20
196.8136631827
 11
382.255479347
 21
196.8136631827
  0
LINE
  5
5E4
100
AcDbEntity
  8
0
100
AcDbLine
 62
7
  6
CONTINUOUS
 10
255.9296259813
 20
198.8628604839
 11
253.9296261413
 21
198.8628604839
  0
LINE
  5
5E5
100
AcDbEntity
  8
0
100
AcDbLine
 62
7
  6
CONTINUOUS
 10
620.9427175804
 20
205.549983556
 11
614.8427180684
 21
205.549983556
  0
LINE
  5
5E6
100
AcDbEntity
  8
0
100
AcDbLine
 62
7
  6
CONTINUOUS
 10
382.255479347
 20
205.6136624787
 11
376.155479835
 21
205.6136624787
  0
LINE
  5
5E7
100
AcDbEntity
  8
0
100
AcDbLine
 62
7
  6
CONTINUOUS
 10
39.74999682
 20
205.649983548
 11
46.2499963
 21
205.649983548
  0
LINE
  5
5E8
100
AcDbEntity
  8
0
100
AcDbLine
 62
7
  6
CONTINUOUS
 10
323.7499741
 20
205.649983548
 11
330.24997358
 21
205.649983548
  0
LINE
  5
5E9
100
AcDbEntity
  8
0
100
AcDbLine
 62
7
  6
CONTINUOUS
 10
253.4075214141
 20
198.8970810357
 11
253.9296261413
 21
198.8628604839
  0
LINE
  5
5EA
100
AcDbEntity
  8
0
100
AcDbLine
 62
7
  6
CONTINUOUS
 10
327.4648763926
 20
186.7384520554
 11
326.9989933753
 21
186.7997188861
  0
LINE
  5
5EB
100
AcDbEntity
  8
0
100
AcDbLine
 62
7
  6
CONTINUOUS
 10
244.5413983247
 20
213.5510941765
 11
244.9296268613
 21
213.49998292
  0
LINE
  5
5EC
100
AcDbEntity
  8
0
100
AcDbLine
 62
7
  6
CONTINUOUS
 10
264.5413967247
 20
213.5510941765
 11
264.9296252613
 21
213.49998292
  0
LINE
  5
5ED
100
AcDbEntity
  8
0
100
AcDbLine
 62
7
  6
CONTINUOUS
 10
245.3178553979
 20
216.4488714235
 11
244.9296268613
 21
216.49998268
  0
LINE
  5
5EE
100
AcDbEntity
  8
0
100
AcDbLine
 62
7
  6
CONTINUOUS
 10
527.0724513751
 20
159.7137624757
 11
527.5383168361
 21
159.6523622921
  0
LINE
  5
5EF
100
AcDbEntity
  8
0
100
AcDbLine
 62
7
  6
CONTINUOUS
 10
573.0478944476
 20
154.1236029526
 11
573.5137599086
 21
154.0622027689
  0
LINE
  5
5F0
100
AcDbEntity
  8
0
100
AcDbLine
 62
7
  6
CONTINUOUS
 10
570.9061401666
 20
156.2059813094
 11
570.4402747056
 21
156.2673814931
  0
LINE
  5
5F1
100
AcDbEntity
  8
0
100
AcDbLine
 62
7
  6
CONTINUOUS
 10
570.9066554031
 20
159.8059809845
 11
571.3725208641
 21
159.7445808009
  0
LINE
  5
5F2
100
AcDbEntity
  8
0
100
AcDbLine
 62
7
  6
CONTINUOUS
 10
595.4095796503
 20
157.3787055384
 11
594.9437141893
 21
157.440105722
  0
LINE
  5
5F3
100
AcDbEntity
  8
0
100
AcDbLine
 62
7
  6
CONTINUOUS
 10
595.4100948868
 20
160.9787052135
 11
595.8759603478
 21
160.9173050298
  0
LINE
  5
5F4
100
AcDbEntity
  8
0
100
AcDbLine
 62
7
  6
CONTINUOUS
 10
82.8943636437
 20
235.1433147794
 11
83.4075350141
 21
235.0412386472
  0
LINE
  5
5F5
100
AcDbEntity
  8
0
100
AcDbLine
 62
7
  6
CONTINUOUS
 10
87.4603731883
 20
265.7025337699
 11
86.9649156788
 21
265.8707189315
  0
LINE
  5
5F6
100
AcDbEntity
  8
0
100
AcDbLine
 62
7
  6
CONTINUOUS
 10
326.0994741787
 20
183.4407446532
 11
326.5336255946
 21
183.2609860416
  0
LINE
  5
5F7
100
AcDbEntity
  8
0
100
AcDbLine
 62
7
  6
CONTINUOUS
 10
327.8990278084
 20
186.5586934438
 11
327.4648763926
 21
186.7384520554
  0
LINE
  5
5F8
100
AcDbEntity
  8
0
100
AcDbLine
 62
7
  6
CONTINUOUS
 10
245.6796268013
 20
216.2990208018
 11
245.3178553979
 21
216.4488714235
  0
LINE
  5
5F9
100
AcDbEntity
  8
0
100
AcDbLine
 62
7
  6
CONTINUOUS
 10
264.1796253213
 20
213.7009447982
 11
264.5413967247
 21
213.5510941765
  0
LINE
  5
5FA
100
AcDbEntity
  8
0
100
AcDbLine
 62
7
  6
CONTINUOUS
 10
265.6796252013
 20
216.2990208018
 11
265.3178537979
 21
216.4488714235
  0
LINE
  5
5FB
100
AcDbEntity
  8
0
100
AcDbLine
 62
7
  6
CONTINUOUS
 10
257.9296258213
 20
229.3269596619
 11
257.4603595883
 21
229.5583761583
  0
LINE
  5
5FC
100
AcDbEntity
  8
0
100
AcDbLine
 62
7
  6
CONTINUOUS
 10
572.6114906768
 20
69.2682967085
 11
572.4317670473
 21
69.3583299471
  0
LINE
  5
5FD
100
AcDbEntity
  8
0
100
AcDbLine
 62
7
  6
CONTINUOUS
 10
573.7981131493
 20
72.655646378
 11
573.9778367788
 21
72.5656131394
  0
LINE
  5
5FE
100
AcDbEntity
  8
0
100
AcDbLine
 62
7
  6
CONTINUOUS
 10
523.7292842948
 20
69.6902469685
 11
523.5444282858
 21
69.8057830439
  0
LINE
  5
5FF
100
AcDbEntity
  8
0
100
AcDbLine
 62
7
  6
CONTINUOUS
 10
258.3646715025
 20
229.0362714312
 11
257.9296258213
 21
229.3269596619
  0
LINE
  5
600
100
AcDbEntity
  8
0
100
AcDbLine
 62
7
  6
CONTINUOUS
 10
325.7266410659
 20
183.7267447936
 11
326.0994741787
 21
183.4407446532
  0
LINE
  5
601
100
AcDbEntity
  8
0
100
AcDbLine
 62
7
  6
CONTINUOUS
 10
328.2718609212
 20
186.2726933034
 11
327.8990278084
 21
186.5586934438
  0
LINE
  5
602
100
AcDbEntity
  8
0
100
AcDbLine
 62
7
  6
CONTINUOUS
 10
514.2427261164
 20
33.8105090718
 11
515.1539958807
 21
33.1112671883
  0
LINE
  5
603
100
AcDbEntity
  8
0
100
AcDbLine
 62
7
  6
CONTINUOUS
 10
499.5405336047
 20
61.7070763519
 11
499.1677823725
 21
61.9931832012
  0
LINE
  5
604
100
AcDbEntity
  8
0
100
AcDbLine
 62
7
  6
CONTINUOUS
 10
501.3409796501
 20
64.8245099059
 11
501.7137308823
 21
64.5384030566
  0
LINE
  5
605
100
AcDbEntity
  8
0
100
AcDbLine
 62
7
  6
CONTINUOUS
 10
325.4405342166
 20
184.0994960258
 11
325.7266410659
 21
183.7267447936
  0
LINE
  5
606
100
AcDbEntity
  8
0
100
AcDbLine
 62
7
  6
CONTINUOUS
 10
328.5579677706
 20
185.8999420712
 11
328.2718609212
 21
186.2726933034
  0
LINE
  5
607
100
AcDbEntity
  8
0
100
AcDbLine
 62
7
  6
CONTINUOUS
 10
325.2606513397
 20
184.5335959692
 11
325.4405342166
 21
184.0994960258
  0
LINE
  5
608
100
AcDbEntity
  8
0
100
AcDbLine
 62
7
  6
CONTINUOUS
 10
328.7378506475
 20
185.4658421278
 11
328.5579677706
 21
185.8999420712
  0
LINE
  5
609
100
AcDbEntity
  8
0
100
AcDbLine
 62
7
  6
CONTINUOUS
 10
272.7013404116
 20
319.0444824546
 11
272.8811611577
 21
318.6103567705
  0
LINE
  5
60A
100
AcDbEntity
  8
0
100
AcDbLine
 62
7
  6
CONTINUOUS
 10
276.178673108
 20
319.9762309425
 11
275.9988523619
 21
320.4103566265
  0
LINE
  5
60B
100
AcDbEntity
  8
0
100
AcDbLine
 62
7
  6
CONTINUOUS
 10
338.2141748992
 20
39.9907735953
 11
338.2755750829
 21
39.5249081343
  0
LINE
  5
60C
100
AcDbEntity
  8
0
100
AcDbLine
 62
7
  6
CONTINUOUS
 10
341.8141745743
 20
39.9912888318
 11
341.7527743907
 21
40.4571542928
  0
LINE
  5
60D
100
AcDbEntity
  8
0
100
AcDbLine
 62
7
  6
CONTINUOUS
 10
325.199251156
 20
184.9994614302
 11
325.2606513397
 21
184.5335959692
  0
LINE
  5
60E
100
AcDbEntity
  8
0
100
AcDbLine
 62
7
  6
CONTINUOUS
 10
348.2035969182
 20
19.967133943
 11
348.2649971018
 21
19.501268482
  0
LINE
  5
60F
100
AcDbEntity
  8
0
100
AcDbLine
 62
7
  6
CONTINUOUS
 10
328.7992508311
 20
184.9999766668
 11
328.7378506475
 21
185.4658421278
  0
LINE
  5
610
100
AcDbEntity
  8
0
100
AcDbLine
 62
7
  6
CONTINUOUS
 10
351.8035965933
 20
19.9676491795
 11
351.7421964096
 21
20.4335146405
  0
LINE
  5
611
100
AcDbEntity
  8
0
100
AcDbLine
 62
7
  6
CONTINUOUS
 10
341.5639627702
 20
10.0368200545
 11
341.7002594541
 21
9.0015439569
  0
LINE
  5
612
100
AcDbEntity
  8
0
100
AcDbLine
 62
7
  6
CONTINUOUS
 10
357.5599312074
 20
10.0368200545
 11
357.4236345234
 21
11.0720961521
  0
LINE
  5
613
100
AcDbEntity
  8
0
100
AcDbLine
 62
7
  6
CONTINUOUS
 10
361.7163024115
 20
359.5577206277
 11
361.7775692421
 21
360.023603645
  0
LINE
  5
614
100
AcDbEntity
  8
0
100
AcDbLine
 62
7
  6
CONTINUOUS
 10
318.2613080518
 20
6.4658737639
 11
318.199974544
 21
5.99999952
  0
LINE
  5
615
100
AcDbEntity
  8
0
100
AcDbLine
 62
7
  6
CONTINUOUS
 10
321.7386407482
 20
5.5341252761
 11
321.799974256
 21
5.99999952
  0
LINE
  5
616
100
AcDbEntity
  8
0
100
AcDbLine
 62
7
  6
CONTINUOUS
 10
325.2620057256
 20
25.4656851527
 11
325.2006968489
 21
24.999998
  0
LINE
  5
617
100
AcDbEntity
  8
0
100
AcDbLine
 62
7
  6
CONTINUOUS
 10
328.7379419544
 20
24.5343108473
 11
328.7992508311
 21
24.999998
  0
LINE
  5
618
100
AcDbEntity
  8
0
100
AcDbLine
 62
7
  6
CONTINUOUS
 10
414.0520486254
 20
359.0283740252
 11
413.6524469674
 21
358.0636502827
  0
LINE
  5
619
100
AcDbEntity
  8
0
100
AcDbLine
 62
7
  6
CONTINUOUS
 10
274.337577971
 20
17.4956841201
 11
274.8379420803
 21
18.7036699389
  0
LINE
  5
61A
100
AcDbEntity
  8
0
100
AcDbLine
 62
7
  6
CONTINUOUS
 10
481.2449596511
 20
342.2636515467
 11
481.9442015346
 21
343.1749213111
  0
LINE
  5
61B
100
AcDbEntity
  8
0
100
AcDbLine
 62
7
  6
CONTINUOUS
 10
228.7271894957
 20
7.2727916243
 11
228.4411359979
 21
6.899999448
  0
LINE
  5
61C
100
AcDbEntity
  8
0
100
AcDbLine
 62
7
  6
CONTINUOUS
 10
533.055467283
 20
368.0636494827
 11
535.055467123
 21
370.0636493227
  0
LINE
  5
61D
100
AcDbEntity
  8
0
100
AcDbLine
 62
7
  6
CONTINUOUS
 10
276.9296243013
 20
104.9999916
 11
279.9296240613
 21
107.99999136
  0
LINE
  5
61E
100
AcDbEntity
  8
0
100
AcDbLine
 62
7
  6
CONTINUOUS
 10
189.9999848
 20
14.9999988
 11
214.9999828
 21
39.9999968
  0
LINE
  5
61F
100
AcDbEntity
  8
0
100
AcDbLine
 62
7
  6
CONTINUOUS
 10
273.5400068318
 20
112.0484545036
 11
273.1672146555
 21
111.7624010058
  0
LINE
  5
620
100
AcDbEntity
  8
0
100
AcDbLine
 62
7
  6
CONTINUOUS
 10
139.099988872
 20
7.5588451221
 11
138.7271966957
 21
7.2727916243
  0
LINE
  5
621
100
AcDbEntity
  8
0
100
AcDbLine
 62
7
  6
CONTINUOUS
 10
275.3400066878
 20
108.9307632994
 11
275.7127988641
 21
109.2168167971
  0
LINE
  5
622
100
AcDbEntity
  8
0
100
AcDbLine
 62
7
  6
CONTINUOUS
 10
140.899988728
 20
4.4411539179
 11
141.2727809043
 21
4.7272074157
  0
LINE
  5
623
100
AcDbEntity
  8
0
100
AcDbLine
 62
7
  6
CONTINUOUS
 10
29.516614213
 20
41.7592837021
 11
29.0825142695
 21
41.5794008252
  0
LINE
  5
624
100
AcDbEntity
  8
0
100
AcDbLine
 62
7
  6
CONTINUOUS
 10
30.4488603715
 20
38.2820843943
 11
30.882960315
 21
38.4619672712
  0
LINE
  5
625
100
AcDbEntity
  8
0
100
AcDbLine
 62
7
  6
CONTINUOUS
 10
19.5096920804
 20
21.7454394369
 11
19.0755921369
 21
21.56555656
  0
LINE
  5
626
100
AcDbEntity
  8
0
100
AcDbLine
 62
7
  6
CONTINUOUS
 10
20.4419382389
 20
18.2682401291
 11
20.8760381824
 21
18.448123006
  0
LINE
  5
627
100
AcDbEntity
  8
0
100
AcDbLine
 62
7
  6
CONTINUOUS
 10
42.5170600605
 20
26.7489005032
 11
42.082960117
 21
26.5690176263
  0
LINE
  5
628
100
AcDbEntity
  8
0
100
AcDbLine
 62
7
  6
CONTINUOUS
 10
14.9911924229
 20
13.9005230506
 11
14.0264686805
 21
13.5009213925
  0
LINE
  5
629
100
AcDbEntity
  8
0
100
AcDbLine
 62
7
  6
CONTINUOUS
 10
169.9669064666
 20
192.2063896123
 11
170.4327719276
 21
192.267789796
  0
LINE
  5
62A
100
AcDbEntity
  8
0
100
AcDbLine
 62
7
  6
CONTINUOUS
 10
169.9663912301
 20
195.8063892874
 11
169.5005257691
 21
195.7449891038
  0
LINE
  5
62B
100
AcDbEntity
  8
0
100
AcDbLine
 62
7
  6
CONTINUOUS
 10
43.0254892965
 20
183.1968568446
 11
43.4913547575
 21
183.2582570282
  0
LINE
  5
62C
100
AcDbEntity
  8
0
100
AcDbLine
 62
7
  6
CONTINUOUS
 10
43.02497406
 20
186.7968565197
 11
42.559108599
 21
186.735456336
  0
LINE
  5
62D
100
AcDbEntity
  8
0
100
AcDbLine
 62
7
  6
CONTINUOUS
 10
94.9296388613
 20
181.49998548
 11
94.5414103247
 21
181.4488742235
  0
LINE
  5
62E
100
AcDbEntity
  8
0
100
AcDbLine
 62
7
  6
CONTINUOUS
 10
74.9296404613
 20
181.49998548
 11
74.5414119247
 21
181.4488742235
  0
LINE
  5
62F
100
AcDbEntity
  8
0
100
AcDbLine
 62
7
  6
CONTINUOUS
 10
264.9296252613
 20
213.49998292
 11
265.3178537979
 21
213.5510941765
  0
LINE
  5
630
100
AcDbEntity
  8
0
100
AcDbLine
 62
7
  6
CONTINUOUS
 10
244.9296268613
 20
213.49998292
 11
245.3178553979
 21
213.5510941765
  0
LINE
  5
631
100
AcDbEntity
  8
0
100
AcDbLine
 62
7
  6
CONTINUOUS
 10
264.9296252613
 20
216.49998268
 11
264.5413967247
 21
216.4488714235
  0
LINE
  5
632
100
AcDbEntity
  8
0
100
AcDbLine
 62
7
  6
CONTINUOUS
 10
244.9296268613
 20
216.49998268
 11
244.5413983247
 21
216.4488714235
  0
LINE
  5
633
100
AcDbEntity
  8
0
100
AcDbLine
 62
7
  6
CONTINUOUS
 10
83.9296397413
 20
195.99998432
 11
83.4075350141
 21
195.9657637682
  0
LINE
  5
634
100
AcDbEntity
  8
0
100
AcDbLine
 62
7
  6
CONTINUOUS
 10
253.9296261413
 20
229.8628580039
 11
255.9296259813
 21
229.8628580039
  0
LINE
  5
635
100
AcDbEntity
  8
0
100
AcDbLine
 62
7
  6
CONTINUOUS
 10
83.4075350141
 20
235.0412386472
 11
83.9296397413
 21
235.0070180955
  0
LINE
  5
636
100
AcDbEntity
  8
0
100
AcDbLine
 62
7
  6
CONTINUOUS
 10
256.4517307084
 20
229.8286374521
 11
255.9296259813
 21
229.8628580039
  0
LINE
  5
637
100
AcDbEntity
  8
0
100
AcDbLine
 62
7
  6
CONTINUOUS
 10
169.5010234493
 20
233.2474494467
 11
169.9669064666
 21
233.186182616
  0
LINE
  5
638
100
AcDbEntity
  8
0
100
AcDbLine
 62
7
  6
CONTINUOUS
 10
170.4322742474
 20
236.7249154605
 11
169.9663912301
 21
236.7861822912
  0
LINE
  5
639
100
AcDbEntity
  8
0
100
AcDbLine
 62
7
  6
CONTINUOUS
 10
265.3178537979
 20
216.4488714235
 11
264.9296252613
 21
216.49998268
  0
LINE
  5
63A
100
AcDbEntity
  8
0
100
AcDbLine
 62
7
  6
CONTINUOUS
 10
74.5414119247
 20
248.5510913765
 11
74.9296404613
 21
248.49998012
  0
LINE
  5
63B
100
AcDbEntity
  8
0
100
AcDbLine
 62
7
  6
CONTINUOUS
 10
94.5414103247
 20
248.5510913765
 11
94.9296388613
 21
248.49998012
  0
LINE
  5
63C
100
AcDbEntity
  8
0
100
AcDbLine
 62
7
  6
CONTINUOUS
 10
75.3178689979
 20
251.4488686235
 11
74.9296404613
 21
251.49997988
  0
LINE
  5
63D
100
AcDbEntity
  8
0
100
AcDbLine
 62
7
  6
CONTINUOUS
 10
95.3178673979
 20
251.4488686235
 11
94.9296388613
 21
251.49997988
  0
LINE
  5
63E
100
AcDbEntity
  8
0
100
AcDbLine
 62
7
  6
CONTINUOUS
 10
256.9649020788
 20
229.72656132
 11
256.4517307084
 21
229.8286374521
  0
LINE
  5
63F
100
AcDbEntity
  8
0
100
AcDbLine
 62
7
  6
CONTINUOUS
 10
86.9649156788
 20
265.8707189315
 11
86.4517443084
 21
265.9727950637
  0
LINE
  5
640
100
AcDbEntity
  8
0
100
AcDbLine
 62
7
  6
CONTINUOUS
 10
257.4603595883
 20
229.5583761583
 11
256.9649020788
 21
229.72656132
  0
LINE
  5
641
100
AcDbEntity
  8
0
100
AcDbLine
 62
7
  6
CONTINUOUS
 10
42.1254548634
 20
338.4360277722
 11
42.5596062792
 21
338.2562691605
  0
LINE
  5
642
100
AcDbEntity
  8
0
100
AcDbLine
 62
7
  6
CONTINUOUS
 10
43.9250084931
 20
341.5539765627
 11
43.4908570772
 21
341.7337351744
  0
LINE
  5
643
100
AcDbEntity
  8
0
100
AcDbLine
 62
7
  6
CONTINUOUS
 10
9.104670547
 20
358.454475964
 11
9.5388219628
 21
358.2747173524
  0
LINE
  5
644
100
AcDbEntity
  8
0
100
AcDbLine
 62
7
  6
CONTINUOUS
 10
64.5192590347
 20
317.9515110964
 11
64.9533847188
 21
317.7716903503
  0
LINE
  5
645
100
AcDbEntity
  8
0
100
AcDbLine
 62
7
  6
CONTINUOUS
 10
66.3192588907
 20
321.0692023007
 11
65.8851332066
 21
321.2490230468
  0
LINE
  5
646
100
AcDbEntity
  8
0
100
AcDbLine
 62
7
  6
CONTINUOUS
 10
524.3183327282
 20
144.2843270875
 11
523.8842327847
 21
144.4642099644
  0
LINE
  5
647
100
AcDbEntity
  8
0
100
AcDbLine
 62
7
  6
CONTINUOUS
 10
584.9098519459
 20
6.535897862
 11
584.0814248874
 21
7.1715723015
  0
LINE
  5
648
100
AcDbEntity
  8
0
100
AcDbLine
 62
7
  6
CONTINUOUS
 10
596.9058207031
 20
13.464100538
 11
597.7342477616
 21
12.8284260985
  0
LINE
  5
649
100
AcDbEntity
  8
0
100
AcDbLine
 62
7
  6
CONTINUOUS
 10
526.1063076449
 20
62.4305945432
 11
525.7335564128
 21
62.7167013925
  0
LINE
  5
64A
100
AcDbEntity
  8
0
100
AcDbLine
 62
7
  6
CONTINUOUS
 10
527.9067536904
 20
65.5480280972
 11
528.2795049225
 21
65.2619212478
  0
LINE
  5
64B
100
AcDbEntity
  8
0
100
AcDbLine
 62
7
  6
CONTINUOUS
 10
525.7176255635
 20
72.6371097486
 11
525.8278695362
 21
72.552491502
  0
LINE
  5
64C
100
AcDbEntity
  8
0
100
AcDbLine
 62
7
  6
CONTINUOUS
 10
325.2120559516
 20
339.9767231952
 11
325.2764075679
 21
339.5112562471
  0
LINE
  5
64D
100
AcDbEntity
  8
0
100
AcDbLine
 62
7
  6
CONTINUOUS
 10
328.8119800535
 20
340.0000553016
 11
328.7476284371
 21
340.4655222497
  0
LINE
  5
64E
100
AcDbEntity
  8
0
100
AcDbLine
 62
7
  6
CONTINUOUS
 10
358.1930189371
 20
39.9459779809
 11
358.2544191208
 21
39.4801125198
  0
LINE
  5
64F
100
AcDbEntity
  8
0
100
AcDbLine
 62
7
  6
CONTINUOUS
 10
361.7930186122
 20
39.9464932174
 11
361.7316184286
 21
40.4123586784
  0
LINE
  5
650
100
AcDbEntity
  8
0
100
AcDbLine
 62
7
  6
CONTINUOUS
 10
369.9999704
 20
364.9999708
 11
369.9999704
 21
4.9999996
  0
LINE
  5
651
100
AcDbEntity
  8
0
100
AcDbLine
 62
7
  6
CONTINUOUS
 10
376.155479835
 20
333.313709998
 11
376.155479835
 21
324.513710702
  0
LINE
  5
652
100
AcDbEntity
  8
0
100
AcDbLine
 62
7
  6
CONTINUOUS
 10
376.155479835
 20
205.6136624787
 11
376.155479835
 21
196.8136631827
  0
LINE
  5
653
100
AcDbEntity
  8
0
100
AcDbLine
 62
7
  6
CONTINUOUS
 10
376.155479835
 20
173.3136650627
 11
376.155479835
 21
164.5136657667
  0
LINE
  5
654
100
AcDbEntity
  8
0
100
AcDbLine
 62
7
  6
CONTINUOUS
 10
376.155479835
 20
50.5209035492
 11
376.155479835
 21
41.7209042532
  0
LINE
  5
655
100
AcDbEntity
  8
0
100
AcDbLine
 62
7
  6
CONTINUOUS
 10
376.155479835
 20
18.2209061332
 11
376.155479835
 21
9.4209068372
  0
LINE
  5
656
100
AcDbEntity
  8
0
100
AcDbLine
 62
7
  6
CONTINUOUS
 10
338.2754417298
 20
40.4566566126
 11
338.2141748992
 21
39.9907735953
  0
LINE
  5
657
100
AcDbEntity
  8
0
100
AcDbLine
 62
7
  6
CONTINUOUS
 10
341.7529077437
 20
39.5254058145
 11
341.8141745743
 21
39.9912888318
  0
LINE
  5
658
100
AcDbEntity
  8
0
100
AcDbLine
 62
7
  6
CONTINUOUS
 10
348.2648637488
 20
20.4330169602
 11
348.2035969182
 21
19.967133943
  0
LINE
  5
659
100
AcDbEntity
  8
0
100
AcDbLine
 62
7
  6
CONTINUOUS
 10
351.7423297626
 20
19.5017661622
 11
351.8035965933
 21
19.9676491795
  0
LINE
  5
65A
100
AcDbEntity
  8
0
100
AcDbLine
 62
7
  6
CONTINUOUS
 10
358.2542857677
 20
40.4118609981
 11
358.1930189371
 21
39.9459779809
  0
LINE
  5
65B
100
AcDbEntity
  8
0
100
AcDbLine
 62
7
  6
CONTINUOUS
 10
341.7002594541
 20
11.0720961521
 11
341.5639627702
 21
10.0368200545
  0
LINE
  5
65C
100
AcDbEntity
  8
0
100
AcDbLine
 62
7
  6
CONTINUOUS
 10
398.1923768722
 20
360.0636501227
 11
398.3286735561
 21
361.0989262203
  0
LINE
  5
65D
100
AcDbEntity
  8
0
100
AcDbLine
 62
7
  6
CONTINUOUS
 10
231.2727737043
 20
4.7272074157
 11
231.5588272021
 21
5.099999592
  0
LINE
  5
65E
100
AcDbEntity
  8
0
100
AcDbLine
 62
7
  6
CONTINUOUS
 10
555.055465523
 20
344.4636513707
 11
560.055465123
 21
349.4636509707
  0
LINE
  5
65F
100
AcDbEntity
  8
0
100
AcDbLine
 62
7
  6
CONTINUOUS
 10
43.449306219
 20
23.2717011954
 11
43.8834061625
 21
23.4515840723
  0
LINE
  5
660
100
AcDbEntity
  8
0
100
AcDbLine
 62
7
  6
CONTINUOUS
 10
273.9741325159
 20
112.2282752497
 11
273.5400068318
 21
112.0484545036
  0
LINE
  5
661
100
AcDbEntity
  8
0
100
AcDbLine
 62
7
  6
CONTINUOUS
 10
25.0577136953
 20
6.1731170585
 11
26.0224374377
 21
6.5727187165
  0
LINE
  5
662
100
AcDbEntity
  8
0
100
AcDbLine
 62
7
  6
CONTINUOUS
 10
274.9058810037
 20
108.7509425532
 11
275.3400066878
 21
108.9307632994
  0
LINE
  5
663
100
AcDbEntity
  8
0
100
AcDbLine
 62
7
  6
CONTINUOUS
 10
49.5341217561
 20
7.7386658682
 11
49.099996072
 21
7.5588451221
  0
LINE
  5
664
100
AcDbEntity
  8
0
100
AcDbLine
 62
7
  6
CONTINUOUS
 10
50.4658702439
 20
4.2613331718
 11
50.899995928
 21
4.4411539179
  0
LINE
  5
665
100
AcDbEntity
  8
0
100
AcDbLine
 62
7
  6
CONTINUOUS
 10
83.4075350141
 20
195.9657637682
 11
82.8943636437
 21
195.8636876361
  0
LINE
  5
666
100
AcDbEntity
  8
0
100
AcDbLine
 62
7
  6
CONTINUOUS
 10
253.4075214141
 20
229.8286374521
 11
252.8943500437
 21
229.72656132
  0
LINE
  5
667
100
AcDbEntity
  8
0
100
AcDbLine
 62
7
  6
CONTINUOUS
 10
169.9669064666
 20
233.186182616
 11
170.4327719276
 21
233.2475827997
  0
LINE
  5
668
100
AcDbEntity
  8
0
100
AcDbLine
 62
7
  6
CONTINUOUS
 10
253.9296261413
 20
229.8628580039
 11
253.4075214141
 21
229.8286374521
  0
LINE
  5
669
100
AcDbEntity
  8
0
100
AcDbLine
 62
7
  6
CONTINUOUS
 10
85.9296395813
 20
235.0070180955
 11
86.4517443084
 21
235.0412386472
  0
LINE
  5
66A
100
AcDbEntity
  8
0
100
AcDbLine
 62
7
  6
CONTINUOUS
 10
85.9296395813
 20
235.0070180955
 11
83.9296397413
 21
235.0070180955
  0
LINE
  5
66B
100
AcDbEntity
  8
0
100
AcDbLine
 62
7
  6
CONTINUOUS
 10
109.9296376613
 20
239.9999808
 11
129.9999896
 21
239.9999808
  0
LINE
  5
66C
100
AcDbEntity
  8
0
100
AcDbLine
 62
7
  6
CONTINUOUS
 10
209.9296296613
 20
239.9999808
 11
219.9296288613
 21
239.9999808
  0
LINE
  5
66D
100
AcDbEntity
  8
0
100
AcDbLine
 62
7
  6
CONTINUOUS
 10
197.99998416
 20
249.99998
 11
141.9296351013
 21
249.99998
  0
LINE
  5
66E
100
AcDbEntity
  8
0
100
AcDbLine
 62
7
  6
CONTINUOUS
 10
86.4517443084
 20
265.9727950637
 11
85.9296395813
 21
266.0070156155
  0
LINE
  5
66F
100
AcDbEntity
  8
0
100
AcDbLine
 62
7
  6
CONTINUOUS
 10
10.9042241766
 20
361.5724247546
 11
10.4700727608
 21
361.7521833662
  0
LINE
  5
670
100
AcDbEntity
  8
0
100
AcDbLine
 62
7
  6
CONTINUOUS
 10
29.1231187388
 20
358.454475964
 11
29.5572701546
 21
358.2747173524
  0
LINE
  5
671
100
AcDbEntity
  8
0
100
AcDbLine
 62
7
  6
CONTINUOUS
 10
30.9226723685
 20
361.5724247546
 11
30.4885209526
 21
361.7521833662
  0
LINE
  5
672
100
AcDbEntity
  8
0
100
AcDbLine
 62
7
  6
CONTINUOUS
 10
499.9504359761
 20
157.3944578228
 11
499.5163360326
 21
157.5743406997
  0
LINE
  5
673
100
AcDbEntity
  8
0
100
AcDbLine
 62
7
  6
CONTINUOUS
 10
525.8995059606
 20
147.4167520087
 11
525.9474445583
 21
147.3968871527
  0
LINE
  5
674
100
AcDbEntity
  8
0
100
AcDbLine
 62
7
  6
CONTINUOUS
 10
525.2505788867
 20
147.7615263953
 11
525.6846788302
 21
147.5816435184
  0
LINE
  5
675
100
AcDbEntity
  8
0
100
AcDbLine
 62
7
  6
CONTINUOUS
 10
500.8826821346
 20
160.8716571306
 11
501.3167820781
 21
160.6917742537
  0
LINE
  5
676
100
AcDbEntity
  8
0
100
AcDbLine
 62
7
  6
CONTINUOUS
 10
526.6060706776
 20
156.1751629843
 11
526.1719707341
 21
156.3550458612
  0
LINE
  5
677
100
AcDbEntity
  8
0
100
AcDbLine
 62
7
  6
CONTINUOUS
 10
527.5383168361
 20
159.6523622921
 11
527.9724167796
 21
159.4724794152
  0
LINE
  5
678
100
AcDbEntity
  8
0
100
AcDbLine
 62
7
  6
CONTINUOUS
 10
570.0382086338
 20
62.4305945432
 11
569.6654574016
 21
62.7167013925
  0
LINE
  5
679
100
AcDbEntity
  8
0
100
AcDbLine
 62
7
  6
CONTINUOUS
 10
571.8386546792
 20
65.5480280972
 11
572.2114059114
 21
65.2619212478
  0
LINE
  5
67A
100
AcDbEntity
  8
0
100
AcDbLine
 62
7
  6
CONTINUOUS
 10
572.1773907333
 20
69.4481795854
 11
571.8046395011
 21
69.7342864347
  0
LINE
  5
67B
100
AcDbEntity
  8
0
100
AcDbLine
 62
7
  6
CONTINUOUS
 10
523.917179518
 20
69.5196761946
 11
523.7292842948
 21
69.6902469685
  0
LINE
  5
67C
100
AcDbEntity
  8
0
100
AcDbLine
 62
7
  6
CONTINUOUS
 10
525.9024815725
 20
72.5215736732
 11
526.0903767956
 21
72.3510028993
  0
LINE
  5
67D
100
AcDbEntity
  8
0
100
AcDbLine
 62
7
  6
CONTINUOUS
 10
272.8811611577
 20
318.6103567705
 11
273.1672146555
 21
318.2375645942
  0
LINE
  5
67E
100
AcDbEntity
  8
0
100
AcDbLine
 62
7
  6
CONTINUOUS
 10
275.9988523619
 20
320.4103566265
 11
275.7127988641
 21
320.7831488029
  0
LINE
  5
67F
100
AcDbEntity
  8
0
100
AcDbLine
 62
7
  6
CONTINUOUS
 10
338.2032417876
 20
359.9900729906
 11
338.2646419712
 21
359.5242075296
  0
LINE
  5
680
100
AcDbEntity
  8
0
100
AcDbLine
 62
7
  6
CONTINUOUS
 10
341.8032414627
 20
359.9905882272
 11
341.7418412791
 21
360.4564536882
  0
LINE
  5
681
100
AcDbEntity
  8
0
100
AcDbLine
 62
7
  6
CONTINUOUS
 10
382.255479347
 20
368.0636494827
 11
382.255479347
 21
347.2692099372
  0
LINE
  5
682
100
AcDbEntity
  8
0
100
AcDbLine
 62
7
  6
CONTINUOUS
 10
382.255479347
 20
342.8692102892
 11
382.255479347
 21
333.313709998
  0
LINE
  5
683
100
AcDbEntity
  8
0
100
AcDbLine
 62
7
  6
CONTINUOUS
 10
382.255479347
 20
324.513710702
 11
382.255479347
 21
205.6136624787
  0
LINE
  5
684
100
AcDbEntity
  8
0
100
AcDbLine
 62
7
  6
CONTINUOUS
 10
382.255479347
 20
164.5136657667
 11
382.255479347
 21
50.5209035492
  0
LINE
  5
685
100
AcDbEntity
  8
0
100
AcDbLine
 62
7
  6
CONTINUOUS
 10
382.255479347
 20
27.7787071032
 11
382.255479347
 21
18.2209061332
  0
LINE
  5
686
100
AcDbEntity
  8
0
100
AcDbLine
 62
7
  6
CONTINUOUS
 10
382.255479347
 20
9.4209068372
 11
382.255479347
 21
0.0636789227
  0
LINE
  5
687
100
AcDbEntity
  8
0
100
AcDbLine
 62
7
  6
CONTINUOUS
 10
382.255479347
 20
32.1787067512
 11
382.255479347
 21
41.7209042532
  0
LINE
  5
688
100
AcDbEntity
  8
0
100
AcDbLine
 62
7
  6
CONTINUOUS
 10
382.255479347
 20
173.3136650627
 11
382.255479347
 21
182.8636642987
  0
LINE
  5
689
100
AcDbEntity
  8
0
100
AcDbLine
 62
7
  6
CONTINUOUS
 10
382.255479347
 20
187.2636639467
 11
382.255479347
 21
196.8136631827
  0
LINE
  5
68A
100
AcDbEntity
  8
0
100
AcDbLine
 62
7
  6
CONTINUOUS
 10
394.255478387
 20
349.0692097932
 11
394.255478387
 21
347.2692099372
  0
LINE
  5
68B
100
AcDbEntity
  8
0
100
AcDbLine
 62
7
  6
CONTINUOUS
 10
394.255478387
 20
342.8692102892
 11
394.255478387
 21
341.0692104332
  0
LINE
  5
68C
100
AcDbEntity
  8
0
100
AcDbLine
 62
7
  6
CONTINUOUS
 10
394.255478387
 20
189.0636638027
 11
394.255478387
 21
187.2636639467
  0
LINE
  5
68D
100
AcDbEntity
  8
0
100
AcDbLine
 62
7
  6
CONTINUOUS
 10
394.255478387
 20
182.8636642987
 11
394.255478387
 21
181.0636644427
  0
LINE
  5
68E
100
AcDbEntity
  8
0
100
AcDbLine
 62
7
  6
CONTINUOUS
 10
394.255478387
 20
33.9787066072
 11
394.255478387
 21
32.1787067512
  0
LINE
  5
68F
100
AcDbEntity
  8
0
100
AcDbLine
 62
7
  6
CONTINUOUS
 10
394.255478387
 20
27.7787071032
 11
394.255478387
 21
25.9787072472
  0
LINE
  5
690
100
AcDbEntity
  8
0
100
AcDbLine
 62
7
  6
CONTINUOUS
 10
399.355477979
 20
342.8692102892
 11
399.355477979
 21
341.0692104332
  0
LINE
  5
691
100
AcDbEntity
  8
0
100
AcDbLine
 62
7
  6
CONTINUOUS
 10
399.355477979
 20
182.8636642987
 11
399.355477979
 21
181.0636644427
  0
LINE
  5
692
100
AcDbEntity
  8
0
100
AcDbLine
 62
7
  6
CONTINUOUS
 10
399.355477979
 20
27.7787071032
 11
399.355477979
 21
25.9787072472
  0
LINE
  5
693
100
AcDbEntity
  8
0
100
AcDbLine
 62
7
  6
CONTINUOUS
 10
399.355477979
 20
32.1787067512
 11
399.355477979
 21
33.9787066072
  0
LINE
  5
694
100
AcDbEntity
  8
0
100
AcDbLine
 62
7
  6
CONTINUOUS
 10
399.355477979
 20
187.2636639467
 11
399.355477979
 21
189.0636638027
  0
LINE
  5
695
100
AcDbEntity
  8
0
100
AcDbLine
 62
7
  6
CONTINUOUS
 10
399.355477979
 20
347.2692099372
 11
399.355477979
 21
349.0692097932
  0
LINE
  5
696
100
AcDbEntity
  8
0
100
AcDbLine
 62
7
  6
CONTINUOUS
 10
361.7317517816
 20
39.4806102001
 11
361.7930186122
 21
39.9464932174
  0
LINE
  5
697
100
AcDbEntity
  8
0
100
AcDbLine
 62
7
  6
CONTINUOUS
 10
357.4236345234
 20
9.0015439569
 11
357.5599312074
 21
10.0368200545
  0
LINE
  5
698
100
AcDbEntity
  8
0
100
AcDbLine
 62
7
  6
CONTINUOUS
 10
414.1883453094
 20
360.0636501227
 11
414.0520486254
 21
359.0283740252
  0
LINE
  5
699
100
AcDbEntity
  8
0
100
AcDbLine
 62
7
  6
CONTINUOUS
 10
338.4552003415
 20
40.8908080284
 11
338.2754417298
 21
40.4566566126
  0
LINE
  5
69A
100
AcDbEntity
  8
0
100
AcDbLine
 62
7
  6
CONTINUOUS
 10
341.573149132
 20
39.0912543987
 11
341.7529077437
 21
39.5254058145
  0
LINE
  5
69B
100
AcDbEntity
  8
0
100
AcDbLine
 62
7
  6
CONTINUOUS
 10
325.4417542572
 20
25.8996364956
 11
325.2620057256
 21
25.4656851527
  0
LINE
  5
69C
100
AcDbEntity
  8
0
100
AcDbLine
 62
7
  6
CONTINUOUS
 10
318.4411287979
 20
6.899999448
 11
318.2613080518
 21
6.4658737639
  0
LINE
  5
69D
100
AcDbEntity
  8
0
100
AcDbLine
 62
7
  6
CONTINUOUS
 10
328.5581934228
 20
24.1003595044
 11
328.7379419544
 21
24.5343108473
  0
LINE
  5
69E
100
AcDbEntity
  8
0
100
AcDbLine
 62
7
  6
CONTINUOUS
 10
321.5588200021
 20
5.099999592
 11
321.7386407482
 21
5.5341252761
  0
LINE
  5
69F
100
AcDbEntity
  8
0
100
AcDbLine
 62
7
  6
CONTINUOUS
 10
273.5416136191
 20
16.4583631809
 11
274.337577971
 21
17.4956841201
  0
LINE
  5
6A0
100
AcDbEntity
  8
0
100
AcDbLine
 62
7
  6
CONTINUOUS
 10
274.999978
 20
34.9999972
 11
279.9999776
 21
39.9999968
  0
LINE
  5
6A1
100
AcDbEntity
  8
0
100
AcDbLine
 62
7
  6
CONTINUOUS
 10
101.2963204611
 20
15.1620347197
 11
102.5043062799
 21
15.662398829
  0
LINE
  5
6A2
100
AcDbEntity
  8
0
100
AcDbLine
 62
7
  6
CONTINUOUS
 10
169.9663912301
 20
236.7861822912
 11
169.5005257691
 21
236.7247821075
  0
LINE
  5
6A3
100
AcDbEntity
  8
0
100
AcDbLine
 62
7
  6
CONTINUOUS
 10
83.9296397413
 20
266.0070156155
 11
85.9296395813
 21
266.0070156155
  0
LINE
  5
6A4
100
AcDbEntity
  8
0
100
AcDbLine
 62
7
  6
CONTINUOUS
 10
572.5815137501
 20
150.5850034611
 11
572.1474138066
 21
150.764886338
  0
LINE
  5
6A5
100
AcDbEntity
  8
0
100
AcDbLine
 62
7
  6
CONTINUOUS
 10
574.0962082948
 20
153.7684543917
 11
574.169840902
 21
153.7379424199
  0
LINE
  5
6A6
100
AcDbEntity
  8
0
100
AcDbLine
 62
7
  6
CONTINUOUS
 10
573.5137599086
 20
154.0622027689
 11
573.9478598521
 21
153.882319892
  0
LINE
  5
6A7
100
AcDbEntity
  8
0
100
AcDbLine
 62
7
  6
CONTINUOUS
 10
570.4402747056
 20
156.2673814931
 11
570.0061747621
 21
156.44726437
  0
LINE
  5
6A8
100
AcDbEntity
  8
0
100
AcDbLine
 62
7
  6
CONTINUOUS
 10
571.3725208641
 20
159.7445808009
 11
571.8066208076
 21
159.564697924
  0
LINE
  5
6A9
100
AcDbEntity
  8
0
100
AcDbLine
 62
7
  6
CONTINUOUS
 10
594.9437141893
 20
157.440105722
 11
594.5096142458
 21
157.6199885989
  0
LINE
  5
6AA
100
AcDbEntity
  8
0
100
AcDbLine
 62
7
  6
CONTINUOUS
 10
595.8759603478
 20
160.9173050298
 11
596.3100602913
 21
160.7374221529
  0
LINE
  5
6AB
100
AcDbEntity
  8
0
100
AcDbLine
 62
7
  6
CONTINUOUS
 10
273.1672146555
 20
318.2375645942
 11
273.5400068318
 21
317.9515110964
  0
LINE
  5
6AC
100
AcDbEntity
  8
0
100
AcDbLine
 62
7
  6
CONTINUOUS
 10
275.7127988641
 20
320.7831488029
 11
275.3400066878
 21
321.0692023006
  0
LINE
  5
6AD
100
AcDbEntity
  8
0
100
AcDbLine
 62
7
  6
CONTINUOUS
 10
573.9778367788
 20
72.5656131394
 11
574.3505880109
 21
72.2795062901
  0
LINE
  5
6AE
100
AcDbEntity
  8
0
100
AcDbLine
 62
7
  6
CONTINUOUS
 10
594.5336065788
 20
61.6635015478
 11
594.1608553467
 21
61.9496083971
  0
LINE
  5
6AF
100
AcDbEntity
  8
0
100
AcDbLine
 62
7
  6
CONTINUOUS
 10
596.3340526243
 20
64.7809351018
 11
596.7068038565
 21
64.4948282524
  0
LINE
  5
6B0
100
AcDbEntity
  8
0
100
AcDbLine
 62
7
  6
CONTINUOUS
 10
279.9296240613
 20
321.99997424
 11
276.9296243013
 21
324.999974
  0
LINE
  5
6B1
100
AcDbEntity
  8
0
100
AcDbLine
 62
7
  6
CONTINUOUS
 10
515.1539958807
 20
33.1112671883
 11
515.8532377642
 21
32.199997424
  0
LINE
  5
6B2
100
AcDbEntity
  8
0
100
AcDbLine
 62
7
  6
CONTINUOUS
 10
499.1677823725
 20
61.9931832012
 11
498.8817822321
 21
62.3660163141
  0
LINE
  5
6B3
100
AcDbEntity
  8
0
100
AcDbLine
 62
7
  6
CONTINUOUS
 10
501.7137308823
 20
64.5384030566
 11
501.9997310227
 21
64.1655699437
  0
LINE
  5
6B4
100
AcDbEntity
  8
0
100
AcDbLine
 62
7
  6
CONTINUOUS
 10
325.2764075679
 20
339.5112562471
 11
325.4590381672
 21
339.0783051245
  0
LINE
  5
6B5
100
AcDbEntity
  8
0
100
AcDbLine
 62
7
  6
CONTINUOUS
 10
328.7476284371
 20
340.4655222497
 11
328.5649978379
 21
340.8984733723
  0
LINE
  5
6B6
100
AcDbEntity
  8
0
100
AcDbLine
 62
7
  6
CONTINUOUS
 10
358.177569567
 20
360.0230884085
 11
358.2389697506
 21
359.5572229474
  0
LINE
  5
6B7
100
AcDbEntity
  8
0
100
AcDbLine
 62
7
  6
CONTINUOUS
 10
361.7775692421
 20
360.023603645
 11
361.7161690584
 21
360.489469106
  0
LINE
  5
6B8
100
AcDbEntity
  8
0
100
AcDbLine
 62
7
  6
CONTINUOUS
 10
403.355477659
 20
27.7787071032
 11
403.355477659
 21
32.1787067512
  0
LINE
  5
6B9
100
AcDbEntity
  8
0
100
AcDbLine
 62
7
  6
CONTINUOUS
 10
403.355477659
 20
182.8636642987
 11
403.355477659
 21
187.2636639467
  0
LINE
  5
6BA
100
AcDbEntity
  8
0
100
AcDbLine
 62
7
  6
CONTINUOUS
 10
403.355477659
 20
342.8692102892
 11
403.355477659
 21
347.2692099372
  0
LINE
  5
6BB
100
AcDbEntity
  8
0
100
AcDbLine
 62
7
  6
CONTINUOUS
 10
348.4446223605
 20
20.8671683761
 11
348.2648637488
 21
20.4330169602
  0
LINE
  5
6BC
100
AcDbEntity
  8
0
100
AcDbLine
 62
7
  6
CONTINUOUS
 10
358.4340443794
 20
40.8460124139
 11
358.2542857677
 21
40.4118609981
  0
LINE
  5
6BD
100
AcDbEntity
  8
0
100
AcDbLine
 62
7
  6
CONTINUOUS
 10
351.562571151
 20
19.0676147464
 11
351.7423297626
 21
19.5017661622
  0
LINE
  5
6BE
100
AcDbEntity
  8
0
100
AcDbLine
 62
7
  6
CONTINUOUS
 10
361.5519931699
 20
39.0464587843
 11
361.7317517816
 21
39.4806102001
  0
LINE
  5
6BF
100
AcDbEntity
  8
0
100
AcDbLine
 62
7
  6
CONTINUOUS
 10
342.0998611121
 20
12.0368198945
 11
341.7002594541
 21
11.0720961521
  0
LINE
  5
6C0
100
AcDbEntity
  8
0
100
AcDbLine
 62
7
  6
CONTINUOUS
 10
480.8053978273
 20
341.2024554301
 11
481.2449596511
 21
342.2636515467
  0
LINE
  5
6C1
100
AcDbEntity
  8
0
100
AcDbLine
 62
7
  6
CONTINUOUS
 10
357.0240328654
 20
8.0368202145
 11
357.4236345234
 21
9.0015439569
  0
LINE
  5
6C2
100
AcDbEntity
  8
0
100
AcDbLine
 62
7
  6
CONTINUOUS
 10
338.7412004819
 20
41.2636411412
 11
338.4552003415
 21
40.8908080284
  0
LINE
  5
6C3
100
AcDbEntity
  8
0
100
AcDbLine
 62
7
  6
CONTINUOUS
 10
325.7276928783
 20
26.2722789617
 11
325.4417542572
 21
25.8996364956
  0
LINE
  5
6C4
100
AcDbEntity
  8
0
100
AcDbLine
 62
7
  6
CONTINUOUS
 10
314.9999748
 20
44.9999964
 11
309.9999752
 21
39.9999968
  0
LINE
  5
6C5
100
AcDbEntity
  8
0
100
AcDbLine
 62
7
  6
CONTINUOUS
 10
229.099981672
 20
7.5588451221
 11
228.7271894957
 21
7.2727916243
  0
LINE
  5
6C6
100
AcDbEntity
  8
0
100
AcDbLine
 62
7
  6
CONTINUOUS
 10
230.899981528
 20
4.4411539179
 11
231.2727737043
 21
4.7272074157
  0
LINE
  5
6C7
100
AcDbEntity
  8
0
100
AcDbLine
 62
7
  6
CONTINUOUS
 10
139.5341145561
 20
7.7386658682
 11
139.099988872
 21
7.5588451221
  0
LINE
  5
6C8
100
AcDbEntity
  8
0
100
AcDbLine
 62
7
  6
CONTINUOUS
 10
140.4658630439
 20
4.2613331718
 11
140.899988728
 21
4.4411539179
  0
LINE
  5
6C9
100
AcDbEntity
  8
0
100
AcDbLine
 62
7
  6
CONTINUOUS
 10
499.5167822405
 20
160.692031872
 11
499.9509336563
 21
160.8717904837
  0
LINE
  5
6CA
100
AcDbEntity
  8
0
100
AcDbLine
 62
7
  6
CONTINUOUS
 10
501.3163358702
 20
157.5740830815
 11
500.8821844544
 21
157.3943244698
  0
LINE
  5
6CB
100
AcDbEntity
  8
0
100
AcDbLine
 62
7
  6
CONTINUOUS
 10
526.172416942
 20
159.4727370334
 11
526.6065683578
 21
159.6524956451
  0
LINE
  5
6CC
100
AcDbEntity
  8
0
100
AcDbLine
 62
7
  6
CONTINUOUS
 10
527.9719705717
 20
156.3547882429
 11
527.5378191559
 21
156.1750296312
  0
LINE
  5
6CD
100
AcDbEntity
  8
0
100
AcDbLine
 62
7
  6
CONTINUOUS
 10
86.4517443084
 20
235.0412386472
 11
86.9649156788
 21
235.1433147794
  0
LINE
  5
6CE
100
AcDbEntity
  8
0
100
AcDbLine
 62
7
  6
CONTINUOUS
 10
94.9296388613
 20
248.49998012
 11
95.3178673979
 21
248.5510913765
  0
LINE
  5
6CF
100
AcDbEntity
  8
0
100
AcDbLine
 62
7
  6
CONTINUOUS
 10
74.9296404613
 20
248.49998012
 11
75.3178689979
 21
248.5510913765
  0
LINE
  5
6D0
100
AcDbEntity
  8
0
100
AcDbLine
 62
7
  6
CONTINUOUS
 10
94.9296388613
 20
251.49997988
 11
94.5414103247
 21
251.4488686235
  0
LINE
  5
6D1
100
AcDbEntity
  8
0
100
AcDbLine
 62
7
  6
CONTINUOUS
 10
74.9296404613
 20
251.49997988
 11
74.5414119247
 21
251.4488686235
  0
LINE
  5
6D2
100
AcDbEntity
  8
0
100
AcDbLine
 62
7
  6
CONTINUOUS
 10
83.9296397413
 20
266.0070156155
 11
83.4075350141
 21
265.9727950637
  0
LINE
  5
6D3
100
AcDbEntity
  8
0
100
AcDbLine
 62
7
  6
CONTINUOUS
 10
101.9296383013
 20
289.9999768
 11
237.99998096
 21
289.9999768
  0
LINE
  5
6D4
100
AcDbEntity
  8
0
100
AcDbLine
 62
7
  6
CONTINUOUS
 10
64.9533847188
 20
317.7716903503
 11
65.4192589627
 21
317.7103568425
  0
LINE
  5
6D5
100
AcDbEntity
  8
0
100
AcDbLine
 62
7
  6
CONTINUOUS
 10
65.8851332066
 20
321.2490230468
 11
65.4192589627
 21
321.3103565545
  0
LINE
  5
6D6
100
AcDbEntity
  8
0
100
AcDbLine
 62
7
  6
CONTINUOUS
 10
273.5400068318
 20
317.9515110964
 11
273.9741325159
 21
317.7716903503
  0
LINE
  5
6D7
100
AcDbEntity
  8
0
100
AcDbLine
 62
7
  6
CONTINUOUS
 10
523.7742472807
 20
144.565560448
 11
523.5114815526
 21
144.7503168138
  0
LINE
  5
6D8
100
AcDbEntity
  8
0
100
AcDbLine
 62
7
  6
CONTINUOUS
 10
499.5163360326
 20
157.5743406997
 11
499.1435848005
 21
157.8604475491
  0
LINE
  5
6D9
100
AcDbEntity
  8
0
100
AcDbLine
 62
7
  6
CONTINUOUS
 10
501.3167820781
 20
160.6917742537
 11
501.6895333103
 21
160.4056674044
  0
LINE
  5
6DA
100
AcDbEntity
  8
0
100
AcDbLine
 62
7
  6
CONTINUOUS
 10
525.6846788302
 20
147.5816435184
 11
525.8995059606
 21
147.4167520087
  0
LINE
  5
6DB
100
AcDbEntity
  8
0
100
AcDbLine
 62
7
  6
CONTINUOUS
 10
526.1719707341
 20
156.3550458612
 11
525.7992195019
 21
156.6411527105
  0
LINE
  5
6DC
100
AcDbEntity
  8
0
100
AcDbLine
 62
7
  6
CONTINUOUS
 10
309.9999752
 20
329.9999736
 11
314.9999748
 21
324.999974
  0
LINE
  5
6DD
100
AcDbEntity
  8
0
100
AcDbLine
 62
7
  6
CONTINUOUS
 10
325.4590381672
 20
339.0783051245
 11
325.7475017758
 21
338.707374731
  0
LINE
  5
6DE
100
AcDbEntity
  8
0
100
AcDbLine
 62
7
  6
CONTINUOUS
 10
328.5649978379
 20
340.8984733723
 11
328.2765342293
 21
341.2694037658
  0
LINE
  5
6DF
100
AcDbEntity
  8
0
100
AcDbLine
 62
7
  6
CONTINUOUS
 10
584.0814248874
 20
7.1715723015
 11
583.4457504479
 21
7.99999936
  0
LINE
  5
6E0
100
AcDbEntity
  8
0
100
AcDbLine
 62
7
  6
CONTINUOUS
 10
525.7335564128
 20
62.7167013925
 11
525.4475562724
 21
63.0895345053
  0
LINE
  5
6E1
100
AcDbEntity
  8
0
100
AcDbLine
 62
7
  6
CONTINUOUS
 10
523.5444282858
 20
69.8057830439
 11
523.2584281455
 21
70.1786161568
  0
LINE
  5
6E2
100
AcDbEntity
  8
0
100
AcDbLine
 62
7
  6
CONTINUOUS
 10
528.2795049225
 20
65.2619212478
 11
528.5655050629
 21
64.889088135
  0
LINE
  5
6E3
100
AcDbEntity
  8
0
100
AcDbLine
 62
7
  6
CONTINUOUS
 10
526.0903767956
 20
72.3510028993
 11
526.376376936
 21
71.9781697864
  0
LINE
  5
6E4
100
AcDbEntity
  8
0
100
AcDbLine
 62
7
  6
CONTINUOUS
 10
338.2646419712
 20
359.5242075296
 11
338.4445248481
 21
359.0901075862
  0
LINE
  5
6E5
100
AcDbEntity
  8
0
100
AcDbLine
 62
7
  6
CONTINUOUS
 10
341.7418412791
 20
360.4564536882
 11
341.5619584022
 21
360.8905536316
  0
LINE
  5
6E6
100
AcDbEntity
  8
0
100
AcDbLine
 62
7
  6
CONTINUOUS
 10
358.2389697506
 20
359.5572229474
 11
358.4188526275
 21
359.123123004
  0
LINE
  5
6E7
100
AcDbEntity
  8
0
100
AcDbLine
 62
7
  6
CONTINUOUS
 10
398.3286735561
 20
359.0283740252
 11
398.1923768722
 21
360.0636501227
  0
LINE
  5
6E8
100
AcDbEntity
  8
0
100
AcDbLine
 62
7
  6
CONTINUOUS
 10
437.0427322924
 20
4.9999996
 11
437.0427322924
 21
20.599998352
  0
LINE
  5
6E9
100
AcDbEntity
  8
0
100
AcDbLine
 62
7
  6
CONTINUOUS
 10
437.0427322924
 20
39.399996848
 11
437.0427322924
 21
46.99999624
  0
LINE
  5
6EA
100
AcDbEntity
  8
0
100
AcDbLine
 62
7
  6
CONTINUOUS
 10
341.2871489917
 20
38.7184212859
 11
341.573149132
 21
39.0912543987
  0
LINE
  5
6EB
100
AcDbEntity
  8
0
100
AcDbLine
 62
7
  6
CONTINUOUS
 10
358.7200445198
 20
41.2188455268
 11
358.4340443794
 21
40.8460124139
  0
LINE
  5
6EC
100
AcDbEntity
  8
0
100
AcDbLine
 62
7
  6
CONTINUOUS
 10
361.2659930296
 20
38.6736256715
 11
361.5519931699
 21
39.0464587843
  0
LINE
  5
6ED
100
AcDbEntity
  8
0
100
AcDbLine
 62
7
  6
CONTINUOUS
 10
348.7306225008
 20
21.2400014889
 11
348.4446223605
 21
20.8671683761
  0
LINE
  5
6EE
100
AcDbEntity
  8
0
100
AcDbLine
 62
7
  6
CONTINUOUS
 10
328.2722548017
 20
23.7277170383
 11
328.5581934228
 21
24.1003595044
  0
LINE
  5
6EF
100
AcDbEntity
  8
0
100
AcDbLine
 62
7
  6
CONTINUOUS
 10
318.7271822957
 20
7.2727916243
 11
318.4411287979
 21
6.899999448
  0
LINE
  5
6F0
100
AcDbEntity
  8
0
100
AcDbLine
 62
7
  6
CONTINUOUS
 10
321.2727665043
 20
4.7272074157
 11
321.5588200021
 21
5.099999592
  0
LINE
  5
6F1
100
AcDbEntity
  8
0
100
AcDbLine
 62
7
  6
CONTINUOUS
 10
342.7355355517
 20
12.865246953
 11
342.0998611121
 21
12.0368198945
  0
LINE
  5
6F2
100
AcDbEntity
  8
0
100
AcDbLine
 62
7
  6
CONTINUOUS
 10
339.113951714
 20
41.5497479906
 11
338.7412004819
 21
41.2636411412
  0
LINE
  5
6F3
100
AcDbEntity
  8
0
100
AcDbLine
 62
7
  6
CONTINUOUS
 10
272.5042926799
 20
15.662398829
 11
273.5416136191
 21
16.4583631809
  0
LINE
  5
6F4
100
AcDbEntity
  8
0
100
AcDbLine
 62
7
  6
CONTINUOUS
 10
229.5341073561
 20
7.7386658682
 11
229.099981672
 21
7.5588451221
  0
LINE
  5
6F5
100
AcDbEntity
  8
0
100
AcDbLine
 62
7
  6
CONTINUOUS
 10
523.8846789926
 20
147.5819011367
 11
524.3188304085
 21
147.7616597484
  0
LINE
  5
6F6
100
AcDbEntity
  8
0
100
AcDbLine
 62
7
  6
CONTINUOUS
 10
525.6842326223
 20
144.4639523462
 11
525.2500812065
 21
144.2841937345
  0
LINE
  5
6F7
100
AcDbEntity
  8
0
100
AcDbLine
 62
7
  6
CONTINUOUS
 10
570.0066209701
 20
159.5649555422
 11
570.4407723859
 21
159.7447141539
  0
LINE
  5
6F8
100
AcDbEntity
  8
0
100
AcDbLine
 62
7
  6
CONTINUOUS
 10
571.8061745997
 20
156.4470067517
 11
571.3720231839
 21
156.26724814
  0
LINE
  5
6F9
100
AcDbEntity
  8
0
100
AcDbLine
 62
7
  6
CONTINUOUS
 10
572.1478600145
 20
153.8825775103
 11
572.5820114303
 21
154.062336122
  0
LINE
  5
6FA
100
AcDbEntity
  8
0
100
AcDbLine
 62
7
  6
CONTINUOUS
 10
594.5100604537
 20
160.7376797712
 11
594.9442118696
 21
160.9174383829
  0
LINE
  5
6FB
100
AcDbEntity
  8
0
100
AcDbLine
 62
7
  6
CONTINUOUS
 10
573.9474136442
 20
150.7646287198
 11
573.5132622284
 21
150.5848701081
  0
LINE
  5
6FC
100
AcDbEntity
  8
0
100
AcDbLine
 62
7
  6
CONTINUOUS
 10
83.4075350141
 20
265.9727950637
 11
82.8943636437
 21
265.8707189315
  0
LINE
  5
6FD
100
AcDbEntity
  8
0
100
AcDbLine
 62
7
  6
CONTINUOUS
 10
91.9296391013
 20
299.999976
 11
247.9296266213
 21
299.999976
  0
LINE
  5
6FE
100
AcDbEntity
  8
0
100
AcDbLine
 62
7
  6
CONTINUOUS
 10
42.5596062792
 20
338.2562691605
 11
43.0254892965
 21
338.1950023299
  0
LINE
  5
6FF
100
AcDbEntity
  8
0
100
AcDbLine
 62
7
  6
CONTINUOUS
 10
43.4908570772
 20
341.7337351744
 11
43.02497406
 21
341.795002005
  0
LINE
  5
700
100
AcDbEntity
  8
0
100
AcDbLine
 62
7
  6
CONTINUOUS
 10
9.5388219628
 20
358.2747173524
 11
10.0047049801
 21
358.2134505217
  0
LINE
  5
701
100
AcDbEntity
  8
0
100
AcDbLine
 62
7
  6
CONTINUOUS
 10
273.9741325159
 20
317.7716903503
 11
274.4400067598
 21
317.7103568425
  0
LINE
  5
702
100
AcDbEntity
  8
0
100
AcDbLine
 62
7
  6
CONTINUOUS
 10
274.9058810037
 20
321.2490230468
 11
274.4400067598
 21
321.3103565545
  0
LINE
  5
703
100
AcDbEntity
  8
0
100
AcDbLine
 62
7
  6
CONTINUOUS
 10
275.3400066878
 20
321.0692023006
 11
274.9058810037
 21
321.2490230468
  0
LINE
  5
704
100
AcDbEntity
  8
0
100
AcDbLine
 62
7
  6
CONTINUOUS
 10
571.9966436244
 20
150.9066157153
 11
571.7746625744
 21
151.0509931874
  0
LINE
  5
705
100
AcDbEntity
  8
0
100
AcDbLine
 62
7
  6
CONTINUOUS
 10
325.7475017758
 20
338.707374731
 11
326.1221400755
 21
338.4237433599
  0
LINE
  5
706
100
AcDbEntity
  8
0
100
AcDbLine
 62
7
  6
CONTINUOUS
 10
527.9724167796
 20
159.4724794152
 11
528.3451680117
 21
159.1863725658
  0
LINE
  5
707
100
AcDbEntity
  8
0
100
AcDbLine
 62
7
  6
CONTINUOUS
 10
523.8842327847
 20
144.4642099644
 11
523.7742472807
 21
144.565560448
  0
LINE
  5
708
100
AcDbEntity
  8
0
100
AcDbLine
 62
7
  6
CONTINUOUS
 10
525.9474445583
 20
147.3968871527
 11
526.0574300624
 21
147.2955366691
  0
LINE
  5
709
100
AcDbEntity
  8
0
100
AcDbLine
 62
7
  6
CONTINUOUS
 10
338.4445248481
 20
359.0901075862
 11
338.7306316975
 21
358.717356354
  0
LINE
  5
70A
100
AcDbEntity
  8
0
100
AcDbLine
 62
7
  6
CONTINUOUS
 10
341.5619584022
 20
360.8905536316
 11
341.2758515528
 21
361.2633048638
  0
LINE
  5
70B
100
AcDbEntity
  8
0
100
AcDbLine
 62
7
  6
CONTINUOUS
 10
597.7342477616
 20
12.8284260985
 11
598.3699222012
 21
11.99999904
  0
LINE
  5
70C
100
AcDbEntity
  8
0
100
AcDbLine
 62
7
  6
CONTINUOUS
 10
569.6654574016
 20
62.7167013925
 11
569.3794572612
 21
63.0895345053
  0
LINE
  5
70D
100
AcDbEntity
  8
0
100
AcDbLine
 62
7
  6
CONTINUOUS
 10
361.7161690584
 20
360.489469106
 11
361.5362861815
 21
360.9235690495
  0
LINE
  5
70E
100
AcDbEntity
  8
0
100
AcDbLine
 62
7
  6
CONTINUOUS
 10
515.8532377642
 20
32.199997424
 11
516.292799588
 21
31.1388013073
  0
LINE
  5
70F
100
AcDbEntity
  8
0
100
AcDbLine
 62
7
  6
CONTINUOUS
 10
498.8817822321
 20
62.3660163141
 11
498.7020236205
 21
62.8001677299
  0
LINE
  5
710
100
AcDbEntity
  8
0
100
AcDbLine
 62
7
  6
CONTINUOUS
 10
501.9997310227
 20
64.1655699437
 11
502.1794896343
 21
63.7314185279
  0
LINE
  5
711
100
AcDbEntity
  8
0
100
AcDbLine
 62
7
  6
CONTINUOUS
 10
414.0520486254
 20
361.0989262203
 11
414.1883453094
 21
360.0636501227
  0
LINE
  5
712
100
AcDbEntity
  8
0
100
AcDbLine
 62
7
  6
CONTINUOUS
 10
480.655471475
 20
340.0636517227
 11
480.8053978273
 21
341.2024554301
  0
LINE
  5
713
100
AcDbEntity
  8
0
100
AcDbLine
 62
7
  6
CONTINUOUS
 10
351.2765710106
 20
18.6947816336
 11
351.562571151
 21
19.0676147464
  0
LINE
  5
714
100
AcDbEntity
  8
0
100
AcDbLine
 62
7
  6
CONTINUOUS
 10
356.3883584258
 20
7.208393156
 11
357.0240328654
 21
8.0368202145
  0
LINE
  5
715
100
AcDbEntity
  8
0
100
AcDbLine
 62
7
  6
CONTINUOUS
 10
340.9143977595
 20
38.4323144365
 11
341.2871489917
 21
38.7184212859
  0
LINE
  5
716
100
AcDbEntity
  8
0
100
AcDbLine
 62
7
  6
CONTINUOUS
 10
359.0927957519
 20
41.5049523761
 11
358.7200445198
 21
41.2188455268
  0
LINE
  5
717
100
AcDbEntity
  8
0
100
AcDbLine
 62
7
  6
CONTINUOUS
 10
360.8932417974
 20
38.3875188221
 11
361.2659930296
 21
38.6736256715
  0
LINE
  5
718
100
AcDbEntity
  8
0
100
AcDbLine
 62
7
  6
CONTINUOUS
 10
349.103373733
 20
21.5261083382
 11
348.7306225008
 21
21.2400014889
  0
LINE
  5
719
100
AcDbEntity
  8
0
100
AcDbLine
 62
7
  6
CONTINUOUS
 10
326.1003353444
 20
26.5582175828
 11
325.7276928783
 21
26.2722789617
  0
LINE
  5
71A
100
AcDbEntity
  8
0
100
AcDbLine
 62
7
  6
CONTINUOUS
 10
327.8996123356
 20
23.4417784172
 11
328.2722548017
 21
23.7277170383
  0
LINE
  5
71B
100
AcDbEntity
  8
0
100
AcDbLine
 62
7
  6
CONTINUOUS
 10
319.099974472
 20
7.5588451221
 11
318.7271822957
 21
7.2727916243
  0
LINE
  5
71C
100
AcDbEntity
  8
0
100
AcDbLine
 62
7
  6
CONTINUOUS
 10
320.899974328
 20
4.4411539179
 11
321.2727665043
 21
4.7272074157
  0
LINE
  5
71D
100
AcDbEntity
  8
0
100
AcDbLine
 62
7
  6
CONTINUOUS
 10
499.1439491277
 20
160.4060317316
 11
499.5167822405
 21
160.692031872
  0
LINE
  5
71E
100
AcDbEntity
  8
0
100
AcDbLine
 62
7
  6
CONTINUOUS
 10
501.689168983
 20
157.8600832218
 11
501.3163358702
 21
157.5740830815
  0
LINE
  5
71F
100
AcDbEntity
  8
0
100
AcDbLine
 62
7
  6
CONTINUOUS
 10
525.7995838292
 20
159.1867368931
 11
526.172416942
 21
159.4727370334
  0
LINE
  5
720
100
AcDbEntity
  8
0
100
AcDbLine
 62
7
  6
CONTINUOUS
 10
339.5480516575
 20
41.7296308675
 11
339.113951714
 21
41.5497479906
  0
LINE
  5
721
100
AcDbEntity
  8
0
100
AcDbLine
 62
7
  6
CONTINUOUS
 10
340.480297816
 20
38.2524315596
 11
340.9143977595
 21
38.4323144365
  0
LINE
  5
722
100
AcDbEntity
  8
0
100
AcDbLine
 62
7
  6
CONTINUOUS
 10
359.5268956954
 20
41.684835253
 11
359.0927957519
 21
41.5049523761
  0
LINE
  5
723
100
AcDbEntity
  8
0
100
AcDbLine
 62
7
  6
CONTINUOUS
 10
230.4658558439
 20
4.2613331718
 11
230.899981528
 21
4.4411539179
  0
LINE
  5
724
100
AcDbEntity
  8
0
100
AcDbLine
 62
7
  6
CONTINUOUS
 10
271.2963068611
 20
15.1620347197
 11
272.5042926799
 21
15.662398829
  0
LINE
  5
725
100
AcDbEntity
  8
0
100
AcDbLine
 62
7
  6
CONTINUOUS
 10
326.5342866873
 20
26.7379661144
 11
326.1003353444
 21
26.5582175828
  0
LINE
  5
726
100
AcDbEntity
  8
0
100
AcDbLine
 62
7
  6
CONTINUOUS
 10
596.3096140834
 20
157.6197309807
 11
595.8754626676
 21
157.439972369
  0
LINE
  5
727
100
AcDbEntity
  8
0
100
AcDbLine
 62
7
  6
CONTINUOUS
 10
327.0236840557
 20
338.1884271975
 11
327.4891510038
 21
338.2527788138
  0
LINE
  5
728
100
AcDbEntity
  8
0
100
AcDbLine
 62
7
  6
CONTINUOUS
 10
327.0003519494
 20
341.7883512994
 11
326.5348850012
 21
341.723999683
  0
LINE
  5
729
100
AcDbEntity
  8
0
100
AcDbLine
 62
7
  6
CONTINUOUS
 10
483.9166674156
 20
344.3137250184
 11
485.055471123
 21
344.4636513707
  0
LINE
  5
72A
100
AcDbEntity
  8
0
100
AcDbLine
 62
7
  6
CONTINUOUS
 10
274.4400067598
 20
317.7103568425
 11
274.9058810037
 21
317.7716903503
  0
LINE
  5
72B
100
AcDbEntity
  8
0
100
AcDbLine
 62
7
  6
CONTINUOUS
 10
274.4400067598
 20
321.3103565545
 11
273.9741325159
 21
321.2490230468
  0
LINE
  5
72C
100
AcDbEntity
  8
0
100
AcDbLine
 62
7
  6
CONTINUOUS
 10
64.9999948
 20
321.2499743
 11
64.9533847188
 21
321.2490230468
  0
LINE
  5
72D
100
AcDbEntity
  8
0
100
AcDbLine
 62
7
  6
CONTINUOUS
 10
330.24997358
 20
319.4427457815
 11
323.7499741
 21
319.4427457815
  0
LINE
  5
72E
100
AcDbEntity
  8
0
100
AcDbLine
 62
7
  6
CONTINUOUS
 10
46.2499963
 20
319.4427457815
 11
39.74999682
 21
319.4427457815
  0
LINE
  5
72F
100
AcDbEntity
  8
0
100
AcDbLine
 62
7
  6
CONTINUOUS
 10
614.8427180684
 20
319.5427457735
 11
620.9427175804
 21
319.5427457735
  0
LINE
  5
730
100
AcDbEntity
  8
0
100
AcDbLine
 62
7
  6
CONTINUOUS
 10
376.155479835
 20
324.513710702
 11
382.255479347
 21
324.513710702
  0
LINE
  5
731
100
AcDbEntity
  8
0
100
AcDbLine
 62
7
  6
CONTINUOUS
 10
276.9296243013
 20
324.999974
 11
272.9296246213
 21
324.999974
  0
LINE
  5
732
100
AcDbEntity
  8
0
100
AcDbLine
 62
7
  6
CONTINUOUS
 10
62.9296414213
 20
324.999974
 11
66.9296411013
 21
324.999974
  0
LINE
  5
733
100
AcDbEntity
  8
0
100
AcDbLine
 62
7
  6
CONTINUOUS
 10
620.9427175804
 20
328.3427450695
 11
614.8427180684
 21
328.3427450695
  0
LINE
  5
734
100
AcDbEntity
  8
0
100
AcDbLine
 62
7
  6
CONTINUOUS
 10
39.74999682
 20
328.4427450615
 11
46.2499963
 21
328.4427450615
  0
LINE
  5
735
100
AcDbEntity
  8
0
100
AcDbLine
 62
7
  6
CONTINUOUS
 10
323.7499741
 20
328.4427450615
 11
330.24997358
 21
328.4427450615
  0
LINE
  5
736
100
AcDbEntity
  8
0
100
AcDbLine
 62
7
  6
CONTINUOUS
 10
59.9999952
 20
329.9999736
 11
309.9999752
 21
329.9999736
  0
LINE
  5
737
100
AcDbEntity
  8
0
100
AcDbLine
 62
7
  6
CONTINUOUS
 10
382.255479347
 20
333.313709998
 11
376.155479835
 21
333.313709998
  0
LINE
  5
738
100
AcDbEntity
  8
0
100
AcDbLine
 62
7
  6
CONTINUOUS
 10
555.055465523
 20
335.6636520747
 11
485.055471123
 21
335.6636520747
  0
LINE
  5
739
100
AcDbEntity
  8
0
100
AcDbLine
 62
7
  6
CONTINUOUS
 10
597.7427194364
 20
336.0849427155
 11
602.8427190284
 21
336.0849427155
  0
LINE
  5
73A
100
AcDbEntity
  8
0
100
AcDbLine
 62
7
  6
CONTINUOUS
 10
593.7427197564
 20
337.8849425715
 11
597.7427194364
 21
337.8849425715
  0
LINE
  5
73B
100
AcDbEntity
  8
0
100
AcDbLine
 62
7
  6
CONTINUOUS
 10
602.8427190284
 20
337.8849425715
 11
614.8427180684
 21
337.8849425715
  0
LINE
  5
73C
100
AcDbEntity
  8
0
100
AcDbLine
 62
7
  6
CONTINUOUS
 10
326.5574220854
 20
338.2467400204
 11
327.0236840557
 21
338.1884271975
  0
LINE
  5
73D
100
AcDbEntity
  8
0
100
AcDbLine
 62
7
  6
CONTINUOUS
 10
29.5572701546
 20
358.2747173524
 11
30.0231531719
 21
358.2134505217
  0
LINE
  5
73E
100
AcDbEntity
  8
0
100
AcDbLine
 62
7
  6
CONTINUOUS
 10
10.4700727608
 20
361.7521833662
 11
10.0041897435
 21
361.8134501969
  0
LINE
  5
73F
100
AcDbEntity
  8
0
100
AcDbLine
 62
7
  6
CONTINUOUS
 10
30.4885209526
 20
361.7521833662
 11
30.0226379354
 21
361.8134501969
  0
LINE
  5
740
100
AcDbEntity
  8
0
100
AcDbLine
 62
7
  6
CONTINUOUS
 10
326.1221400755
 20
338.4237433599
 11
326.5574220854
 21
338.2467400204
  0
LINE
  5
741
100
AcDbEntity
  8
0
100
AcDbLine
 62
7
  6
CONTINUOUS
 10
327.9018959296
 20
341.553035137
 11
327.4666139197
 21
341.7300384765
  0
LINE
  5
742
100
AcDbEntity
  8
0
100
AcDbLine
 62
7
  6
CONTINUOUS
 10
328.2765342293
 20
341.2694037658
 11
327.9018959296
 21
341.553035137
  0
LINE
  5
743
100
AcDbEntity
  8
0
100
AcDbLine
 62
7
  6
CONTINUOUS
 10
570.0061747621
 20
156.44726437
 11
569.63342353
 21
156.7333712193
  0
LINE
  5
744
100
AcDbEntity
  8
0
100
AcDbLine
 62
7
  6
CONTINUOUS
 10
573.9478598521
 20
153.882319892
 11
574.0962082948
 21
153.7684543917
  0
LINE
  5
745
100
AcDbEntity
  8
0
100
AcDbLine
 62
7
  6
CONTINUOUS
 10
571.8066208076
 20
159.564697924
 11
572.1793720398
 21
159.2785910746
  0
LINE
  5
746
100
AcDbEntity
  8
0
100
AcDbLine
 62
7
  6
CONTINUOUS
 10
594.5096142458
 20
157.6199885989
 11
594.1368630137
 21
157.9060954483
  0
LINE
  5
747
100
AcDbEntity
  8
0
100
AcDbLine
 62
7
  6
CONTINUOUS
 10
572.1474138066
 20
150.764886338
 11
571.9966436244
 21
150.9066157153
  0
LINE
  5
748
100
AcDbEntity
  8
0
100
AcDbLine
 62
7
  6
CONTINUOUS
 10
358.4188526275
 20
359.123123004
 11
358.7049594769
 21
358.7503717718
  0
LINE
  5
749
100
AcDbEntity
  8
0
100
AcDbLine
 62
7
  6
CONTINUOUS
 10
361.5362861815
 20
360.9235690495
 11
361.2501793322
 21
361.2963202816
  0
LINE
  5
74A
100
AcDbEntity
  8
0
100
AcDbLine
 62
7
  6
CONTINUOUS
 10
499.1435848005
 20
157.8604475491
 11
498.8575846601
 21
158.2332806619
  0
LINE
  5
74B
100
AcDbEntity
  8
0
100
AcDbLine
 62
7
  6
CONTINUOUS
 10
572.2114059114
 20
65.2619212478
 11
572.4974060518
 21
64.889088135
  0
LINE
  5
74C
100
AcDbEntity
  8
0
100
AcDbLine
 62
7
  6
CONTINUOUS
 10
501.6895333103
 20
160.4056674044
 11
501.9755334506
 21
160.0328342916
  0
LINE
  5
74D
100
AcDbEntity
  8
0
100
AcDbLine
 62
7
  6
CONTINUOUS
 10
571.8046395011
 20
69.7342864347
 11
571.5186393608
 21
70.1071195476
  0
LINE
  5
74E
100
AcDbEntity
  8
0
100
AcDbLine
 62
7
  6
CONTINUOUS
 10
574.3505880109
 20
72.2795062901
 11
574.6365881513
 21
71.9066731772
  0
LINE
  5
74F
100
AcDbEntity
  8
0
100
AcDbLine
 62
7
  6
CONTINUOUS
 10
523.5114815526
 20
144.7503168138
 11
523.2254814122
 21
145.1231499266
  0
LINE
  5
750
100
AcDbEntity
  8
0
100
AcDbLine
 62
7
  6
CONTINUOUS
 10
526.0574300624
 20
147.2955366691
 11
526.3434302027
 21
146.9227035563
  0
LINE
  5
751
100
AcDbEntity
  8
0
100
AcDbLine
 62
7
  6
CONTINUOUS
 10
594.1608553467
 20
61.9496083971
 11
593.8748552063
 21
62.32244151
  0
LINE
  5
752
100
AcDbEntity
  8
0
100
AcDbLine
 62
7
  6
CONTINUOUS
 10
525.7992195019
 20
156.6411527105
 11
525.5132193616
 21
157.0139858234
  0
LINE
  5
753
100
AcDbEntity
  8
0
100
AcDbLine
 62
7
  6
CONTINUOUS
 10
596.7068038565
 20
64.4948282524
 11
596.9928039968
 21
64.1219951396
  0
LINE
  5
754
100
AcDbEntity
  8
0
100
AcDbLine
 62
7
  6
CONTINUOUS
 10
398.7282752142
 20
358.0636502827
 11
398.3286735561
 21
359.0283740252
  0
LINE
  5
755
100
AcDbEntity
  8
0
100
AcDbLine
 62
7
  6
CONTINUOUS
 10
525.4475562724
 20
63.0895345053
 11
525.2677976607
 21
63.5236859212
  0
LINE
  5
756
100
AcDbEntity
  8
0
100
AcDbLine
 62
7
  6
CONTINUOUS
 10
523.2584281455
 20
70.1786161568
 11
523.0786695338
 21
70.6127675726
  0
LINE
  5
757
100
AcDbEntity
  8
0
100
AcDbLine
 62
7
  6
CONTINUOUS
 10
560.055465123
 20
323.0636530827
 11
407.655477315
 21
0.0636789227
  0
LINE
  5
758
100
AcDbEntity
  8
0
100
AcDbLine
 62
7
  6
CONTINUOUS
 10
437.0427322924
 20
46.99999624
 11
589.4427201004
 21
369.9999704
  0
LINE
  5
759
100
AcDbEntity
  8
0
100
AcDbLine
 62
7
  6
CONTINUOUS
 10
498.8578422784
 20
160.0332804995
 11
499.1439491277
 21
160.4060317316
  0
LINE
  5
75A
100
AcDbEntity
  8
0
100
AcDbLine
 62
7
  6
CONTINUOUS
 10
501.9752758324
 20
158.232834454
 11
501.689168983
 21
157.8600832218
  0
LINE
  5
75B
100
AcDbEntity
  8
0
100
AcDbLine
 62
7
  6
CONTINUOUS
 10
369.9999704
 20
4.9999996
 11
364.9999708
 21
0.0
  0
LINE
  5
75C
100
AcDbEntity
  8
0
100
AcDbLine
 62
7
  6
CONTINUOUS
 10
350.9038197785
 20
18.4086747842
 11
351.2765710106
 21
18.6947816336
  0
LINE
  5
75D
100
AcDbEntity
  8
0
100
AcDbLine
 62
7
  6
CONTINUOUS
 10
343.5639626102
 20
13.5009213925
 11
342.7355355517
 21
12.865246953
  0
LINE
  5
75E
100
AcDbEntity
  8
0
100
AcDbLine
 62
7
  6
CONTINUOUS
 10
355.5599313674
 20
6.5727187165
 11
356.3883584258
 21
7.208393156
  0
LINE
  5
75F
100
AcDbEntity
  8
0
100
AcDbLine
 62
7
  6
CONTINUOUS
 10
528.3448036845
 20
156.6407883833
 11
527.9719705717
 21
156.3547882429
  0
LINE
  5
760
100
AcDbEntity
  8
0
100
AcDbLine
 62
7
  6
CONTINUOUS
 10
523.5118458798
 20
147.2959009963
 11
523.8846789926
 21
147.5819011367
  0
LINE
  5
761
100
AcDbEntity
  8
0
100
AcDbLine
 62
7
  6
CONTINUOUS
 10
526.0570657351
 20
144.7499524865
 11
525.6842326223
 21
144.4639523462
  0
LINE
  5
762
100
AcDbEntity
  8
0
100
AcDbLine
 62
7
  6
CONTINUOUS
 10
360.4591418539
 20
38.2076359452
 11
360.8932417974
 21
38.3875188221
  0
LINE
  5
763
100
AcDbEntity
  8
0
100
AcDbLine
 62
7
  6
CONTINUOUS
 10
349.5374736764
 20
21.7059912151
 11
349.103373733
 21
21.5261083382
  0
LINE
  5
764
100
AcDbEntity
  8
0
100
AcDbLine
 62
7
  6
CONTINUOUS
 10
350.469719835
 20
18.2287919073
 11
350.9038197785
 21
18.4086747842
  0
LINE
  5
765
100
AcDbEntity
  8
0
100
AcDbLine
 62
7
  6
CONTINUOUS
 10
327.4656609927
 20
23.2620298856
 11
327.8996123356
 21
23.4417784172
  0
LINE
  5
766
100
AcDbEntity
  8
0
100
AcDbLine
 62
7
  6
CONTINUOUS
 10
319.5341001561
 20
7.7386658682
 11
319.099974472
 21
7.5588451221
  0
LINE
  5
767
100
AcDbEntity
  8
0
100
AcDbLine
 62
7
  6
CONTINUOUS
 10
320.4658486439
 20
4.2613331718
 11
320.899974328
 21
4.4411539179
  0
LINE
  5
768
100
AcDbEntity
  8
0
100
AcDbLine
 62
7
  6
CONTINUOUS
 10
344.5286863526
 20
13.9005230506
 11
343.5639626102
 21
13.5009213925
  0
LINE
  5
769
100
AcDbEntity
  8
0
100
AcDbLine
 62
7
  6
CONTINUOUS
 10
65.4192589627
 20
321.3103565545
 11
64.9999948
 21
321.2499743
  0
LINE
  5
76A
100
AcDbEntity
  8
0
100
AcDbLine
 62
7
  6
CONTINUOUS
 10
359.9778270228
 20
358.2233461892
 11
360.4436924838
 21
358.2847463728
  0
LINE
  5
76B
100
AcDbEntity
  8
0
100
AcDbLine
 62
7
  6
CONTINUOUS
 10
340.0034992434
 20
358.1903307713
 11
340.4693647044
 21
358.251730955
  0
LINE
  5
76C
100
AcDbEntity
  8
0
100
AcDbLine
 62
7
  6
CONTINUOUS
 10
359.9773117863
 20
361.8233458643
 11
359.5114463253
 21
361.7619456806
  0
LINE
  5
76D
100
AcDbEntity
  8
0
100
AcDbLine
 62
7
  6
CONTINUOUS
 10
340.0029840069
 20
361.7903304465
 11
339.5371185459
 21
361.7289302628
  0
LINE
  5
76E
100
AcDbEntity
  8
0
100
AcDbLine
 62
7
  6
CONTINUOUS
 10
411.223621727
 20
356.1999471267
 11
410.1883456294
 21
356.0636504427
  0
LINE
  5
76F
100
AcDbEntity
  8
0
100
AcDbLine
 62
7
  6
CONTINUOUS
 10
65.4192589627
 20
317.7103568425
 11
65.8851332066
 21
317.7716903503
  0
LINE
  5
770
100
AcDbEntity
  8
0
100
AcDbLine
 62
7
  6
CONTINUOUS
 10
401.1571004546
 20
363.9273531188
 11
402.1923765522
 21
364.0636498027
  0
LINE
  5
771
100
AcDbEntity
  8
0
100
AcDbLine
 62
7
  6
CONTINUOUS
 10
394.255478387
 20
341.0692104332
 11
399.355477979
 21
341.0692104332
  0
LINE
  5
772
100
AcDbEntity
  8
0
100
AcDbLine
 62
7
  6
CONTINUOUS
 10
614.8427180684
 20
342.2849422195
 11
602.8427190284
 21
342.2849422195
  0
LINE
  5
773
100
AcDbEntity
  8
0
100
AcDbLine
 62
7
  6
CONTINUOUS
 10
597.7427194364
 20
342.2849422195
 11
593.7427197564
 21
342.2849422195
  0
LINE
  5
774
100
AcDbEntity
  8
0
100
AcDbLine
 62
7
  6
CONTINUOUS
 10
382.255479347
 20
342.8692102892
 11
394.255478387
 21
342.8692102892
  0
LINE
  5
775
100
AcDbEntity
  8
0
100
AcDbLine
 62
7
  6
CONTINUOUS
 10
399.355477979
 20
342.8692102892
 11
403.355477659
 21
342.8692102892
  0
LINE
  5
776
100
AcDbEntity
  8
0
100
AcDbLine
 62
7
  6
CONTINUOUS
 10
602.8427190284
 20
344.0849420755
 11
597.7427194364
 21
344.0849420755
  0
LINE
  5
777
100
AcDbEntity
  8
0
100
AcDbLine
 62
7
  6
CONTINUOUS
 10
555.055465523
 20
344.4636513707
 11
485.055471123
 21
344.4636513707
  0
LINE
  5
778
100
AcDbEntity
  8
0
100
AcDbLine
 62
7
  6
CONTINUOUS
 10
403.355477659
 20
347.2692099372
 11
399.355477979
 21
347.2692099372
  0
LINE
  5
779
100
AcDbEntity
  8
0
100
AcDbLine
 62
7
  6
CONTINUOUS
 10
394.255478387
 20
347.2692099372
 11
382.255479347
 21
347.2692099372
  0
LINE
  5
77A
100
AcDbEntity
  8
0
100
AcDbLine
 62
7
  6
CONTINUOUS
 10
399.355477979
 20
349.0692097932
 11
394.255478387
 21
349.0692097932
  0
LINE
  5
77B
100
AcDbEntity
  8
0
100
AcDbLine
 62
7
  6
CONTINUOUS
 10
330.24997358
 20
351.7427431975
 11
323.7499741
 21
351.7427431975
  0
LINE
  5
77C
100
AcDbEntity
  8
0
100
AcDbLine
 62
7
  6
CONTINUOUS
 10
46.2499963
 20
351.7427431975
 11
39.74999682
 21
351.7427431975
  0
LINE
  5
77D
100
AcDbEntity
  8
0
100
AcDbLine
 62
7
  6
CONTINUOUS
 10
614.8427180684
 20
351.8427431895
 11
620.9427175804
 21
351.8427431895
  0
LINE
  5
77E
100
AcDbEntity
  8
0
100
AcDbLine
 62
7
  6
CONTINUOUS
 10
402.1923765522
 20
356.0636504427
 11
410.1883456294
 21
356.0636504427
  0
LINE
  5
77F
100
AcDbEntity
  8
0
100
AcDbLine
 62
7
  6
CONTINUOUS
 10
620.9427175804
 20
360.6427424855
 11
614.8427180684
 21
360.6427424855
  0
LINE
  5
780
100
AcDbEntity
  8
0
100
AcDbLine
 62
7
  6
CONTINUOUS
 10
39.74999682
 20
360.7427424775
 11
46.2499963
 21
360.7427424775
  0
LINE
  5
781
100
AcDbEntity
  8
0
100
AcDbLine
 62
7
  6
CONTINUOUS
 10
323.7499741
 20
360.7427424775
 11
330.24997358
 21
360.7427424775
  0
LINE
  5
782
100
AcDbEntity
  8
0
100
AcDbLine
 62
7
  6
CONTINUOUS
 10
327.4666139197
 20
341.7300384765
 11
327.0003519494
 21
341.7883512994
  0
LINE
  5
783
100
AcDbEntity
  8
0
100
AcDbLine
 62
7
  6
CONTINUOUS
 10
339.5376162261
 20
358.251597602
 11
340.0034992434
 21
358.1903307713
  0
LINE
  5
784
100
AcDbEntity
  8
0
100
AcDbLine
 62
7
  6
CONTINUOUS
 10
485.055471123
 20
335.6636520747
 11
483.9166674156
 21
335.8135784271
  0
LINE
  5
785
100
AcDbEntity
  8
0
100
AcDbLine
 62
7
  6
CONTINUOUS
 10
339.1034648103
 20
358.4313562136
 11
339.5376162261
 21
358.251597602
  0
LINE
  5
786
100
AcDbEntity
  8
0
100
AcDbLine
 62
7
  6
CONTINUOUS
 10
340.90301844
 20
361.5493050042
 11
340.4688670242
 21
361.7290636158
  0
LINE
  5
787
100
AcDbEntity
  8
0
100
AcDbLine
 62
7
  6
CONTINUOUS
 10
338.7306316975
 20
358.717356354
 11
339.1034648103
 21
358.4313562136
  0
LINE
  5
788
100
AcDbEntity
  8
0
100
AcDbLine
 62
7
  6
CONTINUOUS
 10
341.2758515528
 20
361.2633048638
 11
340.90301844
 21
361.5493050042
  0
LINE
  5
789
100
AcDbEntity
  8
0
100
AcDbLine
 62
7
  6
CONTINUOUS
 10
358.7049594769
 20
358.7503717718
 11
359.0777925897
 21
358.4643716315
  0
LINE
  5
78A
100
AcDbEntity
  8
0
100
AcDbLine
 62
7
  6
CONTINUOUS
 10
361.2501793322
 20
361.2963202816
 11
360.8773462194
 21
361.582320422
  0
LINE
  5
78B
100
AcDbEntity
  8
0
100
AcDbLine
 62
7
  6
CONTINUOUS
 10
596.3100602913
 20
160.7374221529
 11
596.6828115235
 21
160.4513153036
  0
LINE
  5
78C
100
AcDbEntity
  8
0
100
AcDbLine
 62
7
  6
CONTINUOUS
 10
574.169840902
 20
153.7379424199
 11
574.3206110842
 21
153.5962130427
  0
LINE
  5
78D
100
AcDbEntity
  8
0
100
AcDbLine
 62
7
  6
CONTINUOUS
 10
364.9999708
 20
369.9999704
 11
369.9999704
 21
364.9999708
  0
LINE
  5
78E
100
AcDbEntity
  8
0
100
AcDbLine
 62
7
  6
CONTINUOUS
 10
399.3639496537
 20
357.2352232243
 11
398.7282752142
 21
358.0636502827
  0
LINE
  5
78F
100
AcDbEntity
  8
0
100
AcDbLine
 62
7
  6
CONTINUOUS
 10
528.3451680117
 20
159.1863725658
 11
528.6311681521
 21
158.813539453
  0
LINE
  5
790
100
AcDbEntity
  8
0
100
AcDbLine
 62
7
  6
CONTINUOUS
 10
413.6524469674
 20
362.0636499627
 11
414.0520486254
 21
361.0989262203
  0
LINE
  5
791
100
AcDbEntity
  8
0
100
AcDbLine
 62
7
  6
CONTINUOUS
 10
528.5655050629
 20
64.889088135
 11
528.7452636746
 21
64.4549367192
  0
LINE
  5
792
100
AcDbEntity
  8
0
100
AcDbLine
 62
7
  6
CONTINUOUS
 10
526.376376936
 20
71.9781697864
 11
526.5561355477
 21
71.5440183706
  0
LINE
  5
793
100
AcDbEntity
  8
0
100
AcDbLine
 62
7
  6
CONTINUOUS
 10
498.8575846601
 20
158.2332806619
 11
498.6778260484
 21
158.6674320777
  0
LINE
  5
794
100
AcDbEntity
  8
0
100
AcDbLine
 62
7
  6
CONTINUOUS
 10
501.9755334506
 20
160.0328342916
 11
502.1552920623
 21
159.5986828757
  0
LINE
  5
795
100
AcDbEntity
  8
0
100
AcDbLine
 62
7
  6
CONTINUOUS
 10
498.7020236205
 20
62.8001677299
 11
498.6407567898
 21
63.2660507472
  0
LINE
  5
796
100
AcDbEntity
  8
0
100
AcDbLine
 62
7
  6
CONTINUOUS
 10
502.1794896343
 20
63.7314185279
 11
502.240756465
 21
63.2655355106
  0
LINE
  5
797
100
AcDbEntity
  8
0
100
AcDbLine
 62
7
  6
CONTINUOUS
 10
498.6165592178
 20
159.133315095
 11
498.6779594015
 21
159.599180556
  0
LINE
  5
798
100
AcDbEntity
  8
0
100
AcDbLine
 62
7
  6
CONTINUOUS
 10
502.2165588929
 20
159.1327998585
 11
502.1551587093
 21
158.6669343975
  0
LINE
  5
799
100
AcDbEntity
  8
0
100
AcDbLine
 62
7
  6
CONTINUOUS
 10
498.6779594015
 20
159.599180556
 11
498.8578422784
 21
160.0332804995
  0
LINE
  5
79A
100
AcDbEntity
  8
0
100
AcDbLine
 62
7
  6
CONTINUOUS
 10
502.1551587093
 20
158.6669343975
 11
501.9752758324
 21
158.232834454
  0
LINE
  5
79B
100
AcDbEntity
  8
0
100
AcDbLine
 62
7
  6
CONTINUOUS
 10
525.5134769798
 20
158.8139856609
 11
525.7995838292
 21
159.1867368931
  0
LINE
  5
79C
100
AcDbEntity
  8
0
100
AcDbLine
 62
7
  6
CONTINUOUS
 10
528.6309105338
 20
157.0135396154
 11
528.3448036845
 21
156.6407883833
  0
LINE
  5
79D
100
AcDbEntity
  8
0
100
AcDbLine
 62
7
  6
CONTINUOUS
 10
523.2257390305
 20
146.9231497642
 11
523.5118458798
 21
147.2959009963
  0
LINE
  5
79E
100
AcDbEntity
  8
0
100
AcDbLine
 62
7
  6
CONTINUOUS
 10
526.3431725845
 20
145.1227037187
 11
526.0570657351
 21
144.7499524865
  0
LINE
  5
79F
100
AcDbEntity
  8
0
100
AcDbLine
 62
7
  6
CONTINUOUS
 10
569.6337878572
 20
159.2789554019
 11
570.0066209701
 21
159.5649555422
  0
LINE
  5
7A0
100
AcDbEntity
  8
0
100
AcDbLine
 62
7
  6
CONTINUOUS
 10
572.1790077125
 20
156.7330068921
 11
571.8061745997
 21
156.4470067517
  0
LINE
  5
7A1
100
AcDbEntity
  8
0
100
AcDbLine
 62
7
  6
CONTINUOUS
 10
571.7750269017
 20
153.5965773699
 11
572.1478600145
 21
153.8825775103
  0
LINE
  5
7A2
100
AcDbEntity
  8
0
100
AcDbLine
 62
7
  6
CONTINUOUS
 10
574.320246757
 20
151.0506288601
 11
573.9474136442
 21
150.7646287198
  0
LINE
  5
7A3
100
AcDbEntity
  8
0
100
AcDbLine
 62
7
  6
CONTINUOUS
 10
594.1372273409
 20
160.4516796308
 11
594.5100604537
 21
160.7376797712
  0
LINE
  5
7A4
100
AcDbEntity
  8
0
100
AcDbLine
 62
7
  6
CONTINUOUS
 10
596.6824471962
 20
157.905731121
 11
596.3096140834
 21
157.6197309807
  0
LINE
  5
7A5
100
AcDbEntity
  8
0
100
AcDbLine
 62
7
  6
CONTINUOUS
 10
354.595207625
 20
6.1731170585
 11
355.5599313674
 21
6.5727187165
  0
LINE
  5
7A6
100
AcDbEntity
  8
0
100
AcDbLine
 62
7
  6
CONTINUOUS
 10
499.5409798126
 20
64.8247675242
 11
499.9751312284
 21
65.0045261358
  0
LINE
  5
7A7
100
AcDbEntity
  8
0
100
AcDbLine
 62
7
  6
CONTINUOUS
 10
523.9176257259
 20
72.6373673669
 11
524.3517771417
 21
72.8171259785
  0
LINE
  5
7A8
100
AcDbEntity
  8
0
100
AcDbLine
 62
7
  6
CONTINUOUS
 10
501.3405334422
 20
61.7068187336
 11
500.9063820264
 21
61.527060122
  0
LINE
  5
7A9
100
AcDbEntity
  8
0
100
AcDbLine
 62
7
  6
CONTINUOUS
 10
525.7171793556
 20
69.5194185763
 11
525.2830279398
 21
69.3396599647
  0
LINE
  5
7AA
100
AcDbEntity
  8
0
100
AcDbLine
 62
7
  6
CONTINUOUS
 10
526.1067538528
 20
65.5482857154
 11
526.5409052686
 21
65.7280443271
  0
LINE
  5
7AB
100
AcDbEntity
  8
0
100
AcDbLine
 62
7
  6
CONTINUOUS
 10
527.9063074825
 20
62.4303369249
 11
527.4721560667
 21
62.2505783132
  0
LINE
  5
7AC
100
AcDbEntity
  8
0
100
AcDbLine
 62
7
  6
CONTINUOUS
 10
43.0254892965
 20
338.1950023299
 11
43.4913547575
 21
338.2564025135
  0
LINE
  5
7AD
100
AcDbEntity
  8
0
100
AcDbLine
 62
7
  6
CONTINUOUS
 10
43.02497406
 20
341.795002005
 11
42.559108599
 21
341.7336018214
  0
LINE
  5
7AE
100
AcDbEntity
  8
0
100
AcDbLine
 62
7
  6
CONTINUOUS
 10
402.1923765522
 20
364.0636498027
 11
410.2552065785
 21
364.0636498027
  0
LINE
  5
7AF
100
AcDbEntity
  8
0
100
AcDbLine
 62
7
  6
CONTINUOUS
 10
382.255479347
 20
368.0636494827
 11
533.055467283
 21
368.0636494827
  0
LINE
  5
7B0
100
AcDbEntity
  8
0
100
AcDbLine
 62
7
  6
CONTINUOUS
 10
614.8427180684
 20
369.9999704
 11
589.4427201004
 21
369.9999704
  0
LINE
  5
7B1
100
AcDbEntity
  8
0
100
AcDbLine
 62
7
  6
CONTINUOUS
 10
4.9999996
 20
369.9999704
 11
364.9999708
 21
369.9999704
  0
LINE
  5
7B2
100
AcDbEntity
  8
0
100
AcDbLine
 62
7
  6
CONTINUOUS
 10
535.055467123
 20
370.0636493227
 11
555.055465523
 21
370.0636493227
  0
LINE
  5
7B3
100
AcDbEntity
  8
0
100
AcDbLine
 62
7
  6
CONTINUOUS
 10
359.5119440055
 20
358.2846130198
 11
359.9778270228
 21
358.2233461892
  0
LINE
  5
7B4
100
AcDbEntity
  8
0
100
AcDbLine
 62
7
  6
CONTINUOUS
 10
340.4688670242
 20
361.7290636158
 11
340.0029840069
 21
361.7903304465
  0
LINE
  5
7B5
100
AcDbEntity
  8
0
100
AcDbLine
 62
7
  6
CONTINUOUS
 10
360.4431948035
 20
361.7620790337
 11
359.9773117863
 21
361.8233458643
  0
LINE
  5
7B6
100
AcDbEntity
  8
0
100
AcDbLine
 62
7
  6
CONTINUOUS
 10
402.1923765522
 20
356.0636504427
 11
401.1571004546
 21
356.1999471267
  0
LINE
  5
7B7
100
AcDbEntity
  8
0
100
AcDbLine
 62
7
  6
CONTINUOUS
 10
410.2552065785
 20
364.0636498027
 11
411.223621727
 21
363.9273531188
  0
LINE
  5
7B8
100
AcDbEntity
  8
0
100
AcDbLine
 62
7
  6
CONTINUOUS
 10
359.0777925897
 20
358.4643716315
 11
359.5119440055
 21
358.2846130198
  0
LINE
  5
7B9
100
AcDbEntity
  8
0
100
AcDbLine
 62
7
  6
CONTINUOUS
 10
360.8773462194
 20
361.582320422
 11
360.4431948035
 21
361.7620790337
  0
LINE
  5
7BA
100
AcDbEntity
  8
0
100
AcDbLine
 62
7
  6
CONTINUOUS
 10
401.1571004546
 20
356.1999471267
 11
400.1923767122
 21
356.5995487847
  0
LINE
  5
7BB
100
AcDbEntity
  8
0
100
AcDbLine
 62
7
  6
CONTINUOUS
 10
400.1923767122
 20
356.5995487847
 11
399.3639496537
 21
357.2352232243
  0
LINE
  5
7BC
100
AcDbEntity
  8
0
100
AcDbLine
 62
7
  6
CONTINUOUS
 10
413.0167725279
 20
362.8920770212
 11
413.6524469674
 21
362.0636499627
  0
LINE
  5
7BD
100
AcDbEntity
  8
0
100
AcDbLine
 62
7
  6
CONTINUOUS
 10
571.7746625744
 20
151.0509931874
 11
571.4886624341
 21
151.4238263002
  0
LINE
  5
7BE
100
AcDbEntity
  8
0
100
AcDbLine
 62
7
  6
CONTINUOUS
 10
569.63342353
 20
156.7333712193
 11
569.3474233896
 21
157.1062043321
  0
LINE
  5
7BF
100
AcDbEntity
  8
0
100
AcDbLine
 62
7
  6
CONTINUOUS
 10
574.3206110842
 20
153.5962130427
 11
574.6066112246
 21
153.2233799299
  0
LINE
  5
7C0
100
AcDbEntity
  8
0
100
AcDbLine
 62
7
  6
CONTINUOUS
 10
572.1793720398
 20
159.2785910746
 11
572.4653721801
 21
158.9057579618
  0
LINE
  5
7C1
100
AcDbEntity
  8
0
100
AcDbLine
 62
7
  6
CONTINUOUS
 10
583.4457504479
 20
7.99999936
 11
583.0461487899
 21
8.9647231024
  0
LINE
  5
7C2
100
AcDbEntity
  8
0
100
AcDbLine
 62
7
  6
CONTINUOUS
 10
523.2254814122
 20
145.1231499266
 11
523.0457228005
 21
145.5573013424
  0
LINE
  5
7C3
100
AcDbEntity
  8
0
100
AcDbLine
 62
7
  6
CONTINUOUS
 10
526.3434302027
 20
146.9227035563
 11
526.5231888144
 21
146.4885521404
  0
LINE
  5
7C4
100
AcDbEntity
  8
0
100
AcDbLine
 62
7
  6
CONTINUOUS
 10
525.5132193616
 20
157.0139858234
 11
525.3334607499
 21
157.4481372392
  0
LINE
  5
7C5
100
AcDbEntity
  8
0
100
AcDbLine
 62
7
  6
CONTINUOUS
 10
528.6311681521
 20
158.813539453
 11
528.8109267638
 21
158.3793880372
  0
LINE
  5
7C6
100
AcDbEntity
  8
0
100
AcDbLine
 62
7
  6
CONTINUOUS
 10
569.3794572612
 20
63.0895345053
 11
569.1996986496
 21
63.5236859212
  0
LINE
  5
7C7
100
AcDbEntity
  8
0
100
AcDbLine
 62
7
  6
CONTINUOUS
 10
572.4974060518
 20
64.889088135
 11
572.6771646634
 21
64.4549367192
  0
LINE
  5
7C8
100
AcDbEntity
  8
0
100
AcDbLine
 62
7
  6
CONTINUOUS
 10
571.5186393608
 20
70.1071195476
 11
571.3388807491
 21
70.5412709634
  0
LINE
  5
7C9
100
AcDbEntity
  8
0
100
AcDbLine
 62
7
  6
CONTINUOUS
 10
516.292799588
 20
31.1388013073
 11
516.4427259404
 21
29.9999976
  0
LINE
  5
7CA
100
AcDbEntity
  8
0
100
AcDbLine
 62
7
  6
CONTINUOUS
 10
480.8053978273
 20
338.9248480154
 11
480.655471475
 21
340.0636517227
  0
LINE
  5
7CB
100
AcDbEntity
  8
0
100
AcDbLine
 62
7
  6
CONTINUOUS
 10
498.6778260484
 20
158.6674320777
 11
498.6165592178
 21
159.133315095
  0
LINE
  5
7CC
100
AcDbEntity
  8
0
100
AcDbLine
 62
7
  6
CONTINUOUS
 10
502.1552920623
 20
159.5986828757
 11
502.2165588929
 21
159.1327998585
  0
LINE
  5
7CD
100
AcDbEntity
  8
0
100
AcDbLine
 62
7
  6
CONTINUOUS
 10
523.0786695338
 20
70.6127675726
 11
523.0174027032
 21
71.0786505899
  0
LINE
  5
7CE
100
AcDbEntity
  8
0
100
AcDbLine
 62
7
  6
CONTINUOUS
 10
525.2677976607
 20
63.5236859212
 11
525.2065308301
 21
63.9895689384
  0
LINE
  5
7CF
100
AcDbEntity
  8
0
100
AcDbLine
 62
7
  6
CONTINUOUS
 10
498.6407567898
 20
63.2660507472
 11
498.7021569735
 21
63.7319162082
  0
LINE
  5
7D0
100
AcDbEntity
  8
0
100
AcDbLine
 62
7
  6
CONTINUOUS
 10
502.240756465
 20
63.2655355106
 11
502.1793562813
 21
62.7996700496
  0
LINE
  5
7D1
100
AcDbEntity
  8
0
100
AcDbLine
 62
7
  6
CONTINUOUS
 10
522.9844559699
 20
146.0231843597
 11
523.0458561536
 21
146.4890498207
  0
LINE
  5
7D2
100
AcDbEntity
  8
0
100
AcDbLine
 62
7
  6
CONTINUOUS
 10
525.2721939193
 20
157.9140202564
 11
525.3335941029
 21
158.3798857174
  0
LINE
  5
7D3
100
AcDbEntity
  8
0
100
AcDbLine
 62
7
  6
CONTINUOUS
 10
526.584455645
 20
146.0226691232
 11
526.5230554614
 21
145.5568036622
  0
LINE
  5
7D4
100
AcDbEntity
  8
0
100
AcDbLine
 62
7
  6
CONTINUOUS
 10
525.3335941029
 20
158.3798857174
 11
525.5134769798
 21
158.8139856609
  0
LINE
  5
7D5
100
AcDbEntity
  8
0
100
AcDbLine
 62
7
  6
CONTINUOUS
 10
523.0458561536
 20
146.4890498207
 11
523.2257390305
 21
146.9231497642
  0
LINE
  5
7D6
100
AcDbEntity
  8
0
100
AcDbLine
 62
7
  6
CONTINUOUS
 10
528.8107934107
 20
157.4476395589
 11
528.6309105338
 21
157.0135396154
  0
LINE
  5
7D7
100
AcDbEntity
  8
0
100
AcDbLine
 62
7
  6
CONTINUOUS
 10
526.5230554614
 20
145.5568036622
 11
526.3431725845
 21
145.1227037187
  0
LINE
  5
7D8
100
AcDbEntity
  8
0
100
AcDbLine
 62
7
  6
CONTINUOUS
 10
442.0427318924
 20
25.599997952
 11
437.0427322924
 21
20.599998352
  0
LINE
  5
7D9
100
AcDbEntity
  8
0
100
AcDbLine
 62
7
  6
CONTINUOUS
 10
499.1681466997
 20
64.5387673838
 11
499.5409798126
 21
64.8247675242
  0
LINE
  5
7DA
100
AcDbEntity
  8
0
100
AcDbLine
 62
7
  6
CONTINUOUS
 10
501.7133665551
 20
61.992818874
 11
501.3405334422
 21
61.7068187336
  0
LINE
  5
7DB
100
AcDbEntity
  8
0
100
AcDbLine
 62
7
  6
CONTINUOUS
 10
523.5447926131
 20
72.3513672265
 11
523.9176257259
 21
72.6373673669
  0
LINE
  5
7DC
100
AcDbEntity
  8
0
100
AcDbLine
 62
7
  6
CONTINUOUS
 10
572.1778369412
 20
72.5658707577
 11
572.611988357
 21
72.7456293693
  0
LINE
  5
7DD
100
AcDbEntity
  8
0
100
AcDbLine
 62
7
  6
CONTINUOUS
 10
573.9773905708
 20
69.4479219671
 11
573.543239155
 21
69.2681633555
  0
LINE
  5
7DE
100
AcDbEntity
  8
0
100
AcDbLine
 62
7
  6
CONTINUOUS
 10
570.0386548417
 20
65.5482857154
 11
570.4728062575
 21
65.7280443271
  0
LINE
  5
7DF
100
AcDbEntity
  8
0
100
AcDbLine
 62
7
  6
CONTINUOUS
 10
571.8382084713
 20
62.4303369249
 11
571.4040570555
 21
62.2505783132
  0
LINE
  5
7E0
100
AcDbEntity
  8
0
100
AcDbLine
 62
7
  6
CONTINUOUS
 10
30.0231531719
 20
358.2134505217
 11
30.4890186329
 21
358.2748507054
  0
LINE
  5
7E1
100
AcDbEntity
  8
0
100
AcDbLine
 62
7
  6
CONTINUOUS
 10
10.0047049801
 20
358.2134505217
 11
10.4705704411
 21
358.2748507054
  0
LINE
  5
7E2
100
AcDbEntity
  8
0
100
AcDbLine
 62
7
  6
CONTINUOUS
 10
30.0226379354
 20
361.8134501969
 11
29.5567724744
 21
361.7520500132
  0
LINE
  5
7E3
100
AcDbEntity
  8
0
100
AcDbLine
 62
7
  6
CONTINUOUS
 10
10.0041897435
 20
361.8134501969
 11
9.5383242825
 21
361.7520500132
  0
LINE
  5
7E4
100
AcDbEntity
  8
0
100
AcDbLine
 62
7
  6
CONTINUOUS
 10
411.223621727
 20
363.9273531188
 11
412.1883454694
 21
363.5277514608
  0
LINE
  5
7E5
100
AcDbEntity
  8
0
100
AcDbLine
 62
7
  6
CONTINUOUS
 10
483.9166674156
 20
335.8135784271
 11
482.855471299
 21
336.2531402509
  0
LINE
  5
7E6
100
AcDbEntity
  8
0
100
AcDbLine
 62
7
  6
CONTINUOUS
 10
412.1883454694
 20
363.5277514608
 11
413.0167725279
 21
362.8920770212
  0
LINE
  5
7E7
100
AcDbEntity
  8
0
100
AcDbLine
 62
7
  6
CONTINUOUS
 10
594.1368630137
 20
157.9060954483
 11
593.8508628733
 21
158.2789285611
  0
LINE
  5
7E8
100
AcDbEntity
  8
0
100
AcDbLine
 62
7
  6
CONTINUOUS
 10
596.6828115235
 20
160.4513153036
 11
596.9688116638
 21
160.0784821907
  0
LINE
  5
7E9
100
AcDbEntity
  8
0
100
AcDbLine
 62
7
  6
CONTINUOUS
 10
598.3699222012
 20
11.99999904
 11
598.7695238592
 21
11.0352752976
  0
LINE
  5
7EA
100
AcDbEntity
  8
0
100
AcDbLine
 62
7
  6
CONTINUOUS
 10
481.2449596511
 20
337.8636518987
 11
480.8053978273
 21
338.9248480154
  0
LINE
  5
7EB
100
AcDbEntity
  8
0
100
AcDbLine
 62
7
  6
CONTINUOUS
 10
574.6365881513
 20
71.9066731772
 11
574.816346763
 21
71.4725217614
  0
LINE
  5
7EC
100
AcDbEntity
  8
0
100
AcDbLine
 62
7
  6
CONTINUOUS
 10
593.8748552063
 20
62.32244151
 11
593.6950965947
 21
62.7565929258
  0
LINE
  5
7ED
100
AcDbEntity
  8
0
100
AcDbLine
 62
7
  6
CONTINUOUS
 10
596.9928039968
 20
64.1219951396
 11
597.1725626085
 21
63.6878437238
  0
LINE
  5
7EE
100
AcDbEntity
  8
0
100
AcDbLine
 62
7
  6
CONTINUOUS
 10
526.5561355477
 20
71.5440183706
 11
526.6174023783
 21
71.0781353533
  0
LINE
  5
7EF
100
AcDbEntity
  8
0
100
AcDbLine
 62
7
  6
CONTINUOUS
 10
528.7452636746
 20
64.4549367192
 11
528.8065305052
 21
63.9890537019
  0
LINE
  5
7F0
100
AcDbEntity
  8
0
100
AcDbLine
 62
7
  6
CONTINUOUS
 10
523.0457228005
 20
145.5573013424
 11
522.9844559699
 21
146.0231843597
  0
LINE
  5
7F1
100
AcDbEntity
  8
0
100
AcDbLine
 62
7
  6
CONTINUOUS
 10
526.5231888144
 20
146.4885521404
 11
526.584455645
 21
146.0226691232
  0
LINE
  5
7F2
100
AcDbEntity
  8
0
100
AcDbLine
 62
7
  6
CONTINUOUS
 10
525.3334607499
 20
157.4481372392
 11
525.2721939193
 21
157.9140202564
  0
LINE
  5
7F3
100
AcDbEntity
  8
0
100
AcDbLine
 62
7
  6
CONTINUOUS
 10
528.8109267638
 20
158.3793880372
 11
528.8721935944
 21
157.9135050199
  0
LINE
  5
7F4
100
AcDbEntity
  8
0
100
AcDbLine
 62
7
  6
CONTINUOUS
 10
516.4427259404
 20
29.9999976
 11
516.292799588
 21
28.8611938927
  0
LINE
  5
7F5
100
AcDbEntity
  8
0
100
AcDbLine
 62
7
  6
CONTINUOUS
 10
528.8721935944
 20
157.9135050199
 11
528.8107934107
 21
157.4476395589
  0
LINE
  5
7F6
100
AcDbEntity
  8
0
100
AcDbLine
 62
7
  6
CONTINUOUS
 10
523.0174027032
 20
71.0786505899
 11
523.0788028868
 21
71.5445160509
  0
LINE
  5
7F7
100
AcDbEntity
  8
0
100
AcDbLine
 62
7
  6
CONTINUOUS
 10
525.2065308301
 20
63.9895689384
 11
525.2679310137
 21
64.4554343994
  0
LINE
  5
7F8
100
AcDbEntity
  8
0
100
AcDbLine
 62
7
  6
CONTINUOUS
 10
526.6174023783
 20
71.0781353533
 11
526.5560021946
 21
70.6122698923
  0
LINE
  5
7F9
100
AcDbEntity
  8
0
100
AcDbLine
 62
7
  6
CONTINUOUS
 10
528.8065305052
 20
63.9890537019
 11
528.7451303216
 21
63.5231882409
  0
LINE
  5
7FA
100
AcDbEntity
  8
0
100
AcDbLine
 62
7
  6
CONTINUOUS
 10
498.7021569735
 20
63.7319162082
 11
498.8820398504
 21
64.1660161516
  0
LINE
  5
7FB
100
AcDbEntity
  8
0
100
AcDbLine
 62
7
  6
CONTINUOUS
 10
502.1793562813
 20
62.7996700496
 11
501.9994734044
 21
62.3655701062
  0
LINE
  5
7FC
100
AcDbEntity
  8
0
100
AcDbLine
 62
7
  6
CONTINUOUS
 10
523.0788028868
 20
71.5445160509
 11
523.2586857637
 21
71.9786159943
  0
LINE
  5
7FD
100
AcDbEntity
  8
0
100
AcDbLine
 62
7
  6
CONTINUOUS
 10
569.3476810079
 20
158.9062041697
 11
569.6337878572
 21
159.2789554019
  0
LINE
  5
7FE
100
AcDbEntity
  8
0
100
AcDbLine
 62
7
  6
CONTINUOUS
 10
498.8820398504
 20
64.1660161516
 11
499.1681466997
 21
64.5387673838
  0
LINE
  5
7FF
100
AcDbEntity
  8
0
100
AcDbLine
 62
7
  6
CONTINUOUS
 10
572.4651145619
 20
157.1057581242
 11
572.1790077125
 21
156.7330068921
  0
LINE
  5
800
100
AcDbEntity
  8
0
100
AcDbLine
 62
7
  6
CONTINUOUS
 10
571.4889200523
 20
153.2238261378
 11
571.7750269017
 21
153.5965773699
  0
LINE
  5
801
100
AcDbEntity
  8
0
100
AcDbLine
 62
7
  6
CONTINUOUS
 10
501.9994734044
 20
62.3655701062
 11
501.7133665551
 21
61.992818874
  0
LINE
  5
802
100
AcDbEntity
  8
0
100
AcDbLine
 62
7
  6
CONTINUOUS
 10
574.6063536064
 20
151.4233800923
 11
574.320246757
 21
151.0506288601
  0
LINE
  5
803
100
AcDbEntity
  8
0
100
AcDbLine
 62
7
  6
CONTINUOUS
 10
523.2586857637
 20
71.9786159943
 11
523.5447926131
 21
72.3513672265
  0
LINE
  5
804
100
AcDbEntity
  8
0
100
AcDbLine
 62
7
  6
CONTINUOUS
 10
593.8511204916
 20
160.0789283987
 11
594.1372273409
 21
160.4516796308
  0
LINE
  5
805
100
AcDbEntity
  8
0
100
AcDbLine
 62
7
  6
CONTINUOUS
 10
526.3761193177
 20
70.1781699489
 11
526.0900124684
 21
69.8054187167
  0
LINE
  5
806
100
AcDbEntity
  8
0
100
AcDbLine
 62
7
  6
CONTINUOUS
 10
464.0427301324
 20
1.99999984
 11
462.0427302924
 21
0.0
  0
LINE
  5
807
100
AcDbEntity
  8
0
100
AcDbLine
 62
7
  6
CONTINUOUS
 10
526.0900124684
 20
69.8054187167
 11
525.7171793556
 21
69.5194185763
  0
LINE
  5
808
100
AcDbEntity
  8
0
100
AcDbLine
 62
7
  6
CONTINUOUS
 10
525.73392074
 20
65.2622855751
 11
526.1067538528
 21
65.5482857154
  0
LINE
  5
809
100
AcDbEntity
  8
0
100
AcDbLine
 62
7
  6
CONTINUOUS
 10
528.2791405953
 20
62.7163370653
 11
527.9063074825
 21
62.4303369249
  0
LINE
  5
80A
100
AcDbEntity
  8
0
100
AcDbLine
 62
7
  6
CONTINUOUS
 10
514.2427261164
 20
26.1894861282
 11
513.1815299997
 21
25.7499243043
  0
LINE
  5
80B
100
AcDbEntity
  8
0
100
AcDbLine
 62
7
  6
CONTINUOUS
 10
594.5340527868
 20
64.78119272
 11
594.9682042026
 21
64.9609513317
  0
LINE
  5
80C
100
AcDbEntity
  8
0
100
AcDbLine
 62
7
  6
CONTINUOUS
 10
596.3336064164
 20
61.6632439295
 11
595.8994550006
 21
61.4834853178
  0
LINE
  5
80D
100
AcDbEntity
  8
0
100
AcDbLine
 62
7
  6
CONTINUOUS
 10
482.855471299
 20
336.2531402509
 11
481.9442015346
 21
336.9523821344
  0
LINE
  5
80E
100
AcDbEntity
  8
0
100
AcDbLine
 62
7
  6
CONTINUOUS
 10
481.9442015346
 20
336.9523821344
 11
481.2449596511
 21
337.8636518987
  0
LINE
  5
80F
100
AcDbEntity
  8
0
100
AcDbLine
 62
7
  6
CONTINUOUS
 10
571.4886624341
 20
151.4238263002
 11
571.3089038224
 21
151.857977716
  0
LINE
  5
810
100
AcDbEntity
  8
0
100
AcDbLine
 62
7
  6
CONTINUOUS
 10
569.3474233896
 20
157.1062043321
 11
569.1676647779
 21
157.5403557479
  0
LINE
  5
811
100
AcDbEntity
  8
0
100
AcDbLine
 62
7
  6
CONTINUOUS
 10
574.6066112246
 20
153.2233799299
 11
574.7863698363
 21
152.7892285141
  0
LINE
  5
812
100
AcDbEntity
  8
0
100
AcDbLine
 62
7
  6
CONTINUOUS
 10
572.4653721801
 20
158.9057579618
 11
572.6451307918
 21
158.471606546
  0
LINE
  5
813
100
AcDbEntity
  8
0
100
AcDbLine
 62
7
  6
CONTINUOUS
 10
569.1996986496
 20
63.5236859212
 11
569.1384318189
 21
63.9895689384
  0
LINE
  5
814
100
AcDbEntity
  8
0
100
AcDbLine
 62
7
  6
CONTINUOUS
 10
560.055465123
 20
365.0636497227
 11
560.055465123
 21
349.4636509707
  0
LINE
  5
815
100
AcDbEntity
  8
0
100
AcDbLine
 62
7
  6
CONTINUOUS
 10
560.055465123
 20
330.6636524747
 11
560.055465123
 21
323.0636530827
  0
LINE
  5
816
100
AcDbEntity
  8
0
100
AcDbLine
 62
7
  6
CONTINUOUS
 10
569.1063979473
 20
158.0062387652
 11
569.167798131
 21
158.4721042262
  0
LINE
  5
817
100
AcDbEntity
  8
0
100
AcDbLine
 62
7
  6
CONTINUOUS
 10
571.2476369918
 20
152.3238607333
 11
571.3090371754
 21
152.7897261943
  0
LINE
  5
818
100
AcDbEntity
  8
0
100
AcDbLine
 62
7
  6
CONTINUOUS
 10
516.292799588
 20
28.8611938927
 11
515.8532377642
 21
27.799997776
  0
LINE
  5
819
100
AcDbEntity
  8
0
100
AcDbLine
 62
7
  6
CONTINUOUS
 10
526.5560021946
 20
70.6122698923
 11
526.3761193177
 21
70.1781699489
  0
LINE
  5
81A
100
AcDbEntity
  8
0
100
AcDbLine
 62
7
  6
CONTINUOUS
 10
525.2679310137
 20
64.4554343994
 11
525.4478138906
 21
64.8895343429
  0
LINE
  5
81B
100
AcDbEntity
  8
0
100
AcDbLine
 62
7
  6
CONTINUOUS
 10
528.7451303216
 20
63.5231882409
 11
528.5652474447
 21
63.0890882974
  0
LINE
  5
81C
100
AcDbEntity
  8
0
100
AcDbLine
 62
7
  6
CONTINUOUS
 10
569.167798131
 20
158.4721042262
 11
569.3476810079
 21
158.9062041697
  0
LINE
  5
81D
100
AcDbEntity
  8
0
100
AcDbLine
 62
7
  6
CONTINUOUS
 10
572.6449974388
 20
157.5398580677
 11
572.4651145619
 21
157.1057581242
  0
LINE
  5
81E
100
AcDbEntity
  8
0
100
AcDbLine
 62
7
  6
CONTINUOUS
 10
571.3090371754
 20
152.7897261943
 11
571.4889200523
 21
153.2238261378
  0
LINE
  5
81F
100
AcDbEntity
  8
0
100
AcDbLine
 62
7
  6
CONTINUOUS
 10
574.7862364832
 20
151.8574800358
 11
574.6063536064
 21
151.4233800923
  0
LINE
  5
820
100
AcDbEntity
  8
0
100
AcDbLine
 62
7
  6
CONTINUOUS
 10
515.8532377642
 20
27.799997776
 11
515.1539958807
 21
26.8887280117
  0
LINE
  5
821
100
AcDbEntity
  8
0
100
AcDbLine
 62
7
  6
CONTINUOUS
 10
596.9685540456
 20
158.2784823532
 11
596.6824471962
 21
157.905731121
  0
LINE
  5
822
100
AcDbEntity
  8
0
100
AcDbLine
 62
7
  6
CONTINUOUS
 10
525.4478138906
 20
64.8895343429
 11
525.73392074
 21
65.2622855751
  0
LINE
  5
823
100
AcDbEntity
  8
0
100
AcDbLine
 62
7
  6
CONTINUOUS
 10
528.5652474447
 20
63.0890882974
 11
528.2791405953
 21
62.7163370653
  0
LINE
  5
824
100
AcDbEntity
  8
0
100
AcDbLine
 62
7
  6
CONTINUOUS
 10
515.1539958807
 20
26.8887280117
 11
514.2427261164
 21
26.1894861282
  0
LINE
  5
825
100
AcDbEntity
  8
0
100
AcDbLine
 62
7
  6
CONTINUOUS
 10
571.8050038284
 20
72.2798706173
 11
572.1778369412
 21
72.5658707577
  0
LINE
  5
826
100
AcDbEntity
  8
0
100
AcDbLine
 62
7
  6
CONTINUOUS
 10
574.3502236837
 20
69.7339221075
 11
573.9773905708
 21
69.4479219671
  0
LINE
  5
827
100
AcDbEntity
  8
0
100
AcDbLine
 62
7
  6
CONTINUOUS
 10
569.6658217288
 20
65.2622855751
 11
570.0386548417
 21
65.5482857154
  0
LINE
  5
828
100
AcDbEntity
  8
0
100
AcDbLine
 62
7
  6
CONTINUOUS
 10
572.2110415842
 20
62.7163370653
 11
571.8382084713
 21
62.4303369249
  0
LINE
  5
829
100
AcDbEntity
  8
0
100
AcDbLine
 62
7
  6
CONTINUOUS
 10
593.8508628733
 20
158.2789285611
 11
593.6711042616
 21
158.7130799769
  0
LINE
  5
82A
100
AcDbEntity
  8
0
100
AcDbLine
 62
7
  6
CONTINUOUS
 10
596.9688116638
 20
160.0784821907
 11
597.1485702755
 21
159.6443307749
  0
LINE
  5
82B
100
AcDbEntity
  8
0
100
AcDbLine
 62
7
  6
CONTINUOUS
 10
583.0461487899
 20
8.9647231024
 11
582.9098521059
 21
9.9999992
  0
LINE
  5
82C
100
AcDbEntity
  8
0
100
AcDbLine
 62
7
  6
CONTINUOUS
 10
571.3388807491
 20
70.5412709634
 11
571.2776139185
 21
71.0071539807
  0
LINE
  5
82D
100
AcDbEntity
  8
0
100
AcDbLine
 62
7
  6
CONTINUOUS
 10
572.6771646634
 20
64.4549367192
 11
572.7384314941
 21
63.9890537019
  0
LINE
  5
82E
100
AcDbEntity
  8
0
100
AcDbLine
 62
7
  6
CONTINUOUS
 10
574.816346763
 20
71.4725217614
 11
574.8776135936
 21
71.0066387441
  0
LINE
  5
82F
100
AcDbEntity
  8
0
100
AcDbLine
 62
7
  6
CONTINUOUS
 10
569.1676647779
 20
157.5403557479
 11
569.1063979473
 21
158.0062387652
  0
LINE
  5
830
100
AcDbEntity
  8
0
100
AcDbLine
 62
7
  6
CONTINUOUS
 10
571.3089038224
 20
151.857977716
 11
571.2476369918
 21
152.3238607333
  0
LINE
  5
831
100
AcDbEntity
  8
0
100
AcDbLine
 62
7
  6
CONTINUOUS
 10
572.6451307918
 20
158.471606546
 11
572.7063976224
 21
158.0057235287
  0
LINE
  5
832
100
AcDbEntity
  8
0
100
AcDbLine
 62
7
  6
CONTINUOUS
 10
574.7863698363
 20
152.7892285141
 11
574.8476366669
 21
152.3233454968
  0
LINE
  5
833
100
AcDbEntity
  8
0
100
AcDbLine
 62
7
  6
CONTINUOUS
 10
593.7427197564
 20
342.2849422195
 11
593.7427197564
 21
337.8849425715
  0
LINE
  5
834
100
AcDbEntity
  8
0
100
AcDbLine
 62
7
  6
CONTINUOUS
 10
593.7427197564
 20
187.199985024
 11
593.7427197564
 21
182.799985376
  0
LINE
  5
835
100
AcDbEntity
  8
0
100
AcDbLine
 62
7
  6
CONTINUOUS
 10
593.7427197564
 20
27.1944390335
 11
593.7427197564
 21
22.7944393855
  0
LINE
  5
836
100
AcDbEntity
  8
0
100
AcDbLine
 62
7
  6
CONTINUOUS
 10
572.7063976224
 20
158.0057235287
 11
572.6449974388
 21
157.5398580677
  0
LINE
  5
837
100
AcDbEntity
  8
0
100
AcDbLine
 62
7
  6
CONTINUOUS
 10
574.8476366669
 20
152.3233454968
 11
574.7862364832
 21
151.8574800358
  0
LINE
  5
838
100
AcDbEntity
  8
0
100
AcDbLine
 62
7
  6
CONTINUOUS
 10
569.1384318189
 20
63.9895689384
 11
569.1998320026
 21
64.4554343994
  0
LINE
  5
839
100
AcDbEntity
  8
0
100
AcDbLine
 62
7
  6
CONTINUOUS
 10
571.2776139185
 20
71.0071539807
 11
571.3390141021
 21
71.4730194417
  0
LINE
  5
83A
100
AcDbEntity
  8
0
100
AcDbLine
 62
7
  6
CONTINUOUS
 10
572.7384314941
 20
63.9890537019
 11
572.6770313104
 21
63.5231882409
  0
LINE
  5
83B
100
AcDbEntity
  8
0
100
AcDbLine
 62
7
  6
CONTINUOUS
 10
574.8776135936
 20
71.0066387441
 11
574.8162134099
 21
70.5407732831
  0
LINE
  5
83C
100
AcDbEntity
  8
0
100
AcDbLine
 62
7
  6
CONTINUOUS
 10
593.609837431
 20
159.1789629942
 11
593.6712376147
 21
159.6448284552
  0
LINE
  5
83D
100
AcDbEntity
  8
0
100
AcDbLine
 62
7
  6
CONTINUOUS
 10
593.6712376147
 20
159.6448284552
 11
593.8511204916
 21
160.0789283987
  0
LINE
  5
83E
100
AcDbEntity
  8
0
100
AcDbLine
 62
7
  6
CONTINUOUS
 10
597.1484369225
 20
158.7125822967
 11
596.9685540456
 21
158.2784823532
  0
LINE
  5
83F
100
AcDbEntity
  8
0
100
AcDbLine
 62
7
  6
CONTINUOUS
 10
571.3390141021
 20
71.4730194417
 11
571.518896979
 21
71.9071193851
  0
LINE
  5
840
100
AcDbEntity
  8
0
100
AcDbLine
 62
7
  6
CONTINUOUS
 10
571.518896979
 20
71.9071193851
 11
571.8050038284
 21
72.2798706173
  0
LINE
  5
841
100
AcDbEntity
  8
0
100
AcDbLine
 62
7
  6
CONTINUOUS
 10
569.3797148795
 20
64.8895343429
 11
569.6658217288
 21
65.2622855751
  0
LINE
  5
842
100
AcDbEntity
  8
0
100
AcDbLine
 62
7
  6
CONTINUOUS
 10
574.636330533
 20
70.1066733397
 11
574.3502236837
 21
69.7339221075
  0
LINE
  5
843
100
AcDbEntity
  8
0
100
AcDbLine
 62
7
  6
CONTINUOUS
 10
572.4971484335
 20
63.0890882974
 11
572.2110415842
 21
62.7163370653
  0
LINE
  5
844
100
AcDbEntity
  8
0
100
AcDbLine
 62
7
  6
CONTINUOUS
 10
594.1612196739
 20
64.4951925797
 11
594.5340527868
 21
64.78119272
  0
LINE
  5
845
100
AcDbEntity
  8
0
100
AcDbLine
 62
7
  6
CONTINUOUS
 10
596.7064395292
 20
61.9492440699
 11
596.3336064164
 21
61.6632439295
  0
LINE
  5
846
100
AcDbEntity
  8
0
100
AcDbLine
 62
7
  6
CONTINUOUS
 10
584.9098519459
 20
13.464100538
 11
585.8745756883
 21
13.8637021961
  0
LINE
  5
847
100
AcDbEntity
  8
0
100
AcDbLine
 62
7
  6
CONTINUOUS
 10
596.9058207031
 20
6.535897862
 11
595.9410969607
 21
6.1362962039
  0
LINE
  5
848
100
AcDbEntity
  8
0
100
AcDbLine
 62
7
  6
CONTINUOUS
 10
555.055465523
 20
335.6636520747
 11
560.055465123
 21
330.6636524747
  0
LINE
  5
849
100
AcDbEntity
  8
0
100
AcDbLine
 62
7
  6
CONTINUOUS
 10
598.7695238592
 20
11.0352752976
 11
598.9058205431
 21
9.9999992
  0
LINE
  5
84A
100
AcDbEntity
  8
0
100
AcDbLine
 62
7
  6
CONTINUOUS
 10
593.6950965947
 20
62.7565929258
 11
593.633829764
 21
63.222475943
  0
LINE
  5
84B
100
AcDbEntity
  8
0
100
AcDbLine
 62
7
  6
CONTINUOUS
 10
597.1725626085
 20
63.6878437238
 11
597.2338294391
 21
63.2219607065
  0
LINE
  5
84C
100
AcDbEntity
  8
0
100
AcDbLine
 62
7
  6
CONTINUOUS
 10
593.6711042616
 20
158.7130799769
 11
593.609837431
 21
159.1789629942
  0
LINE
  5
84D
100
AcDbEntity
  8
0
100
AcDbLine
 62
7
  6
CONTINUOUS
 10
597.1485702755
 20
159.6443307749
 11
597.2098371061
 21
159.1784477577
  0
LINE
  5
84E
100
AcDbEntity
  8
0
100
AcDbLine
 62
7
  6
CONTINUOUS
 10
597.7427194364
 20
337.8849425715
 11
597.7427194364
 21
336.0849427155
  0
LINE
  5
84F
100
AcDbEntity
  8
0
100
AcDbLine
 62
7
  6
CONTINUOUS
 10
597.7427194364
 20
182.799985376
 11
597.7427194364
 21
180.99998552
  0
LINE
  5
850
100
AcDbEntity
  8
0
100
AcDbLine
 62
7
  6
CONTINUOUS
 10
597.7427194364
 20
22.7944393855
 11
597.7427194364
 21
20.9944395295
  0
LINE
  5
851
100
AcDbEntity
  8
0
100
AcDbLine
 62
7
  6
CONTINUOUS
 10
597.7427194364
 20
27.1944390335
 11
597.7427194364
 21
28.9944388895
  0
LINE
  5
852
100
AcDbEntity
  8
0
100
AcDbLine
 62
7
  6
CONTINUOUS
 10
597.7427194364
 20
187.199985024
 11
597.7427194364
 21
188.99998488
  0
LINE
  5
853
100
AcDbEntity
  8
0
100
AcDbLine
 62
7
  6
CONTINUOUS
 10
597.7427194364
 20
342.2849422195
 11
597.7427194364
 21
344.0849420755
  0
LINE
  5
854
100
AcDbEntity
  8
0
100
AcDbLine
 62
7
  6
CONTINUOUS
 10
602.8427190284
 20
20.9944395295
 11
602.8427190284
 21
22.7944393855
  0
LINE
  5
855
100
AcDbEntity
  8
0
100
AcDbLine
 62
7
  6
CONTINUOUS
 10
602.8427190284
 20
27.1944390335
 11
602.8427190284
 21
28.9944388895
  0
LINE
  5
856
100
AcDbEntity
  8
0
100
AcDbLine
 62
7
  6
CONTINUOUS
 10
602.8427190284
 20
180.99998552
 11
602.8427190284
 21
182.799985376
  0
LINE
  5
857
100
AcDbEntity
  8
0
100
AcDbLine
 62
7
  6
CONTINUOUS
 10
602.8427190284
 20
187.199985024
 11
602.8427190284
 21
188.99998488
  0
LINE
  5
858
100
AcDbEntity
  8
0
100
AcDbLine
 62
7
  6
CONTINUOUS
 10
602.8427190284
 20
336.0849427155
 11
602.8427190284
 21
337.8849425715
  0
LINE
  5
859
100
AcDbEntity
  8
0
100
AcDbLine
 62
7
  6
CONTINUOUS
 10
602.8427190284
 20
342.2849422195
 11
602.8427190284
 21
344.0849420755
  0
LINE
  5
85A
100
AcDbEntity
  8
0
100
AcDbLine
 62
7
  6
CONTINUOUS
 10
614.8427180684
 20
337.8849425715
 11
614.8427180684
 21
328.3427450695
  0
LINE
  5
85B
100
AcDbEntity
  8
0
100
AcDbLine
 62
7
  6
CONTINUOUS
 10
614.8427180684
 20
196.74998426
 11
614.8427180684
 21
187.199985024
  0
LINE
  5
85C
100
AcDbEntity
  8
0
100
AcDbLine
 62
7
  6
CONTINUOUS
 10
614.8427180684
 20
182.799985376
 11
614.8427180684
 21
173.24998614
  0
LINE
  5
85D
100
AcDbEntity
  8
0
100
AcDbLine
 62
7
  6
CONTINUOUS
 10
614.8427180684
 20
1.99999984
 11
614.8427180684
 21
22.7944393855
  0
LINE
  5
85E
100
AcDbEntity
  8
0
100
AcDbLine
 62
7
  6
CONTINUOUS
 10
614.8427180684
 20
27.1944390335
 11
614.8427180684
 21
36.7499393247
  0
LINE
  5
85F
100
AcDbEntity
  8
0
100
AcDbLine
 62
7
  6
CONTINUOUS
 10
614.8427180684
 20
45.5499386207
 11
614.8427180684
 21
164.449986844
  0
LINE
  5
860
100
AcDbEntity
  8
0
100
AcDbLine
 62
7
  6
CONTINUOUS
 10
614.8427180684
 20
205.549983556
 11
614.8427180684
 21
319.5427457735
  0
LINE
  5
861
100
AcDbEntity
  8
0
100
AcDbLine
 62
7
  6
CONTINUOUS
 10
614.8427180684
 20
342.2849422195
 11
614.8427180684
 21
351.8427431895
  0
LINE
  5
862
100
AcDbEntity
  8
0
100
AcDbLine
 62
7
  6
CONTINUOUS
 10
614.8427180684
 20
360.6427424855
 11
614.8427180684
 21
369.9999704
  0
LINE
  5
863
100
AcDbEntity
  8
0
100
AcDbLine
 62
7
  6
CONTINUOUS
 10
620.9427175804
 20
36.7499393247
 11
620.9427175804
 21
45.5499386207
  0
LINE
  5
864
100
AcDbEntity
  8
0
100
AcDbLine
 62
7
  6
CONTINUOUS
 10
620.9427175804
 20
164.449986844
 11
620.9427175804
 21
173.24998614
  0
LINE
  5
865
100
AcDbEntity
  8
0
100
AcDbLine
 62
7
  6
CONTINUOUS
 10
620.9427175804
 20
196.74998426
 11
620.9427175804
 21
205.549983556
  0
LINE
  5
866
100
AcDbEntity
  8
0
100
AcDbLine
 62
7
  6
CONTINUOUS
 10
620.9427175804
 20
319.5427457735
 11
620.9427175804
 21
328.3427450695
  0
LINE
  5
867
100
AcDbEntity
  8
0
100
AcDbLine
 62
7
  6
CONTINUOUS
 10
620.9427175804
 20
351.8427431895
 11
620.9427175804
 21
360.6427424855
  0
LINE
  5
868
100
AcDbEntity
  8
0
100
AcDbLine
 62
7
  6
CONTINUOUS
 10
582.9098521059
 20
9.9999992
 11
583.0461487899
 21
11.0352752976
  0
LINE
  5
869
100
AcDbEntity
  8
0
100
AcDbLine
 62
7
  6
CONTINUOUS
 10
598.9058205431
 20
9.9999992
 11
598.7695238592
 21
8.9647231024
  0
LINE
  5
86A
100
AcDbEntity
  8
0
100
AcDbLine
 62
7
  6
CONTINUOUS
 10
597.2098371061
 20
159.1784477577
 11
597.1484369225
 21
158.7125822967
  0
LINE
  5
86B
100
AcDbEntity
  8
0
100
AcDbLine
 62
7
  6
CONTINUOUS
 10
593.633829764
 20
63.222475943
 11
593.6952299477
 21
63.6883414041
  0
LINE
  5
86C
100
AcDbEntity
  8
0
100
AcDbLine
 62
7
  6
CONTINUOUS
 10
597.2338294391
 20
63.2219607065
 11
597.1724292555
 21
62.7560952455
  0
LINE
  5
86D
100
AcDbEntity
  8
0
100
AcDbLine
 62
7
  6
CONTINUOUS
 10
583.0461487899
 20
11.0352752976
 11
583.4457504479
 21
11.99999904
  0
LINE
  5
86E
100
AcDbEntity
  8
0
100
AcDbLine
 62
7
  6
CONTINUOUS
 10
598.7695238592
 20
8.9647231024
 11
598.3699222012
 21
7.99999936
  0
LINE
  5
86F
100
AcDbEntity
  8
0
100
AcDbLine
 62
7
  6
CONTINUOUS
 10
569.1998320026
 20
64.4554343994
 11
569.3797148795
 21
64.8895343429
  0
LINE
  5
870
100
AcDbEntity
  8
0
100
AcDbLine
 62
7
  6
CONTINUOUS
 10
574.8162134099
 20
70.5407732831
 11
574.636330533
 21
70.1066733397
  0
LINE
  5
871
100
AcDbEntity
  8
0
100
AcDbLine
 62
7
  6
CONTINUOUS
 10
572.6770313104
 20
63.5231882409
 11
572.4971484335
 21
63.0890882974
  0
LINE
  5
872
100
AcDbEntity
  8
0
100
AcDbLine
 62
7
  6
CONTINUOUS
 10
593.6952299477
 20
63.6883414041
 11
593.8751128246
 21
64.1224413475
  0
LINE
  5
873
100
AcDbEntity
  8
0
100
AcDbLine
 62
7
  6
CONTINUOUS
 10
597.1724292555
 20
62.7560952455
 11
596.9925463786
 21
62.321995302
  0
LINE
  5
874
100
AcDbEntity
  8
0
100
AcDbLine
 62
7
  6
CONTINUOUS
 10
583.4457504479
 20
11.99999904
 11
584.0814248874
 21
12.8284260985
  0
LINE
  5
875
100
AcDbEntity
  8
0
100
AcDbLine
 62
7
  6
CONTINUOUS
 10
598.3699222012
 20
7.99999936
 11
597.7342477616
 21
7.1715723015
  0
LINE
  5
876
100
AcDbEntity
  8
0
100
AcDbLine
 62
7
  6
CONTINUOUS
 10
593.8751128246
 20
64.1224413475
 11
594.1612196739
 21
64.4951925797
  0
LINE
  5
877
100
AcDbEntity
  8
0
100
AcDbLine
 62
7
  6
CONTINUOUS
 10
596.9925463786
 20
62.321995302
 11
596.7064395292
 21
61.9492440699
  0
LINE
  5
878
100
AcDbEntity
  8
0
100
AcDbLine
 62
7
  6
CONTINUOUS
 10
584.0814248874
 20
12.8284260985
 11
584.9098519459
 21
13.464100538
  0
LINE
  5
879
100
AcDbEntity
  8
0
100
AcDbLine
 62
7
  6
CONTINUOUS
 10
597.7342477616
 20
7.1715723015
 11
596.9058207031
 21
6.535897862
  0
LINE
  5
87A
100
AcDbEntity
  8
0
100
AcDbLine
 62
7
  6
CONTINUOUS
 10
555.055465523
 20
370.0636493227
 11
560.055465123
 21
365.0636497227
  0
ENDSEC
  0
SECTION
  2
OBJECTS
  0
DICTIONARY
  5
C
100
AcDbDictionary
280
0
281
1
  3
ACAD_GROUP
350
D
  3
ACAD_MLINESTYLE
350
17
  3
ACAD_LAYOUT
350
1A
  3
ACAD_PLOTSETTINGS
350
19
  3
ACAD_PLOTSTYLENAME
350
E
  0
DICTIONARY
  5
D
102
{ACAD_REACTORS
330
C
102
}
100
AcDbDictionary
280
0
281
1
  0
ACDBDICTIONARYWDFLT
  5
E
102
{ACAD_REACTORS
330
C
102
}
100
AcDbDictionary
281
1
  3
Normal
350
F
100
AcDbDictionaryWithDefault
340
F
  0
DICTIONARY
  5
17
102
{ACAD_REACTORS
330
C
102
}
100
AcDbDictionary
280
0
281
1
  3
Standard
350
18
  0
DICTIONARY
  5
19
102
{ACAD_REACTORS
330
C
102
}
100
AcDbDictionary
281
1
  0
DICTIONARY
  5
1A
102
{ACAD_REACTORS
330
C
102
}
100
AcDbDictionary
281
1
  3
Model
350
87B
  3
Layout1
350
87C
  0
ACDBPLACEHOLDER
  5
F
102
{ACAD_REACTORS
330
E
102
}
  0
MLINESTYLE
  5
18
102
{ACAD_REACTORS
330
17
102
}
100
AcDbMlineStyle
  2
STANDARD
 70
0
  3

 62
256
 51
90.0
 52
90.0
 71
2
 49
0.5
 62
256
  6
BYLAYER
 49
-0.5
 62
256
  6
BYLAYER
  0
LAYOUT
  5
87B
102
{ACAD_REACTORS
330
1A
102
}
100
AcDbPlotSettings
  1

  2
none_device
  4

  6

 40
0.0
 41
0.0
 42
0.0
 43
0.0
 44
620.9427175804
 45
370.0636493227
 46
0.0
 47
0.0
 48
0.0
 49
0.0
140
0.0
141
0.0
142
1.0
143
1.0
 70
1024
 72
1
 73
0
 74
0
  7

 75
0
147
1.0
148
0.0
149
0.0
100
AcDbLayout
  1
Model
 70
0
 71
0
 10
0.0
 20
0.0
 11
620.9427175804
 21
370.0636493227
 12
0.0
 22
0.0
 32
0.0
 14
0.0
 24
0.0
 34
0.0
 15
0.0
 25
0.0
 35
0.0
146
0.0
 13
0.0
 23
0.0
 33
0.0
 16
1.0
 26
0.0
 36
0.0
 17
0.0
 27
1.0
 37
0.0
 76
0
330
201
345
0
346
0
  0
LAYOUT
  5
87C
102
{ACAD_REACTORS
330
1A
102
}
100
AcDbPlotSettings
  1

  2
none_device
  4

  6

 40
0.0
 41
0.0
 42
0.0
 43
0.0
 44
620.9427175804
 45
370.0636493227
 46
0.0
 47
0.0
 48
0.0
 49
0.0
140
0.0
141
0.0
142
1.0
143
1.0
 70
0
 72
1
 73
0
 74
0
  7

 75
0
147
1.0
148
0.0
149
0.0
100
AcDbLayout
  1
Layout1
 70
0
 71
1
 10
0.0
 20
0.0
 11
620.9427175804
 21
370.0636493227
 12
0.0
 22
0.0
 32
0.0
 14
0.0
 24
0.0
 34
0.0
 15
0.0
 25
0.0
 35
0.0
146
0.0
 13
0.0
 23
0.0
 33
0.0
 16
1.0
 26
0.0
 36
0.0
 17
0.0
 27
1.0
 37
0.0
 76
0
330
202
345
0
346
0
  0
ENDSEC
  0
EOF
