ISO-10303-21;
HEADER;
FILE_DESCRIPTION(('CATIA V5 STEP Exchange'),'2;1');

FILE_NAME('C:\\User\\U482888\\99_Perso\\03_VEHICULES\\Toyota AE86\\CAO\\Train avant\\Entretoise_disque.stp','2018-03-29T09:12:30+00:00',('none'),('none'),'Version 5-6 Release 2012','CATIA V5 STEP AP203','none');

FILE_SCHEMA(('CONFIG_CONTROL_DESIGN'));

ENDSEC;
DATA;
#5=PRODUCT('Entretoise_Disque','','',(#2)) ;
#1=APPLICATION_CONTEXT('configuration controlled 3D design of mechanical parts and assemblies') ;
#14=PRODUCT_DEFINITION('',' ',#6,#3) ;
#16=SECURITY_CLASSIFICATION(' ',' ',#15) ;
#15=SECURITY_CLASSIFICATION_LEVEL('unclassified') ;
#47=CARTESIAN_POINT(' ',(0.,0.,0.)) ;
#52=CARTESIAN_POINT('Axis2P3D Location',(0.,0.,11.6500000004)) ;
#57=CARTESIAN_POINT('Line Origine',(27.806681239,-50.8997885896,6.65)) ;
#61=CARTESIAN_POINT('Vertex',(27.806681239,-50.8997885896,0.)) ;
#63=CARTESIAN_POINT('Vertex',(27.806681239,-50.8997885896,13.3)) ;
#66=CARTESIAN_POINT('Axis2P3D Location',(0.,0.,13.3)) ;
#70=CARTESIAN_POINT('Vertex',(-27.806681239,50.8997885896,13.3)) ;
#73=CARTESIAN_POINT('Line Origine',(-27.806681239,50.8997885896,6.65)) ;
#77=CARTESIAN_POINT('Vertex',(-27.806681239,50.8997885896,0.)) ;
#80=CARTESIAN_POINT('Axis2P3D Location',(0.,0.,0.)) ;
#92=CARTESIAN_POINT('Axis2P3D Location',(0.,0.,13.3)) ;
#97=CARTESIAN_POINT('Axis2P3D Location',(0.,0.,0.)) ;
#109=CARTESIAN_POINT('Axis2P3D Location',(0.,0.,11.6500000004)) ;
#114=CARTESIAN_POINT('Line Origine',(15.101904466,-27.6438506995,16.15)) ;
#118=CARTESIAN_POINT('Vertex',(15.101904466,-27.6438506995,23.3)) ;
#120=CARTESIAN_POINT('Vertex',(15.101904466,-27.6438506995,9.)) ;
#123=CARTESIAN_POINT('Axis2P3D Location',(0.,0.,9.)) ;
#127=CARTESIAN_POINT('Vertex',(-15.101904466,27.6438506995,9.)) ;
#130=CARTESIAN_POINT('Line Origine',(-15.101904466,27.6438506995,16.15)) ;
#134=CARTESIAN_POINT('Vertex',(-15.101904466,27.6438506995,23.3)) ;
#137=CARTESIAN_POINT('Axis2P3D Location',(0.,0.,23.3)) ;
#149=CARTESIAN_POINT('Axis2P3D Location',(0.,0.,9.)) ;
#154=CARTESIAN_POINT('Axis2P3D Location',(0.,0.,23.3)) ;
#166=CARTESIAN_POINT('Axis2P3D Location',(0.,31.5,9.)) ;
#171=CARTESIAN_POINT('Axis2P3D Location',(0.,0.,9.)) ;
#175=CARTESIAN_POINT('Vertex',(-15.5813300046,28.5214332614,9.)) ;
#177=CARTESIAN_POINT('Vertex',(15.5813300046,-28.5214332614,9.)) ;
#180=CARTESIAN_POINT('Axis2P3D Location',(0.,0.,9.)) ;
#194=CARTESIAN_POINT('Axis2P3D Location',(0.,58.,13.3)) ;
#203=CARTESIAN_POINT('Axis2P3D Location',(1.16627724012E-015,0.,13.3)) ;
#207=CARTESIAN_POINT('Vertex',(16.6120949126,-30.4082357695,13.3)) ;
#209=CARTESIAN_POINT('Vertex',(-16.6120949126,30.4082357695,13.3)) ;
#212=CARTESIAN_POINT('Axis2P3D Location',(1.16627724012E-015,0.,13.3)) ;
#222=CARTESIAN_POINT('Axis2P3D Location',(0.,1.7763568394E-015,13.8)) ;
#227=CARTESIAN_POINT('Axis2P3D Location',(0.,1.7763568394E-015,13.8)) ;
#231=CARTESIAN_POINT('Vertex',(-16.3723821433,29.9694444886,13.8)) ;
#233=CARTESIAN_POINT('Vertex',(16.3723821433,-29.9694444886,13.8)) ;
#236=CARTESIAN_POINT('Axis2P3D Location',(16.6120949126,-30.4082357695,13.8)) ;
#241=CARTESIAN_POINT('Axis2P3D Location',(-16.6120949126,30.4082357695,13.8)) ;
#253=CARTESIAN_POINT('Axis2P3D Location',(0.,-7.38298311376E-015,13.8)) ;
#258=CARTESIAN_POINT('Axis2P3D Location',(0.,-7.38298311376E-015,13.8)) ;
#270=CARTESIAN_POINT('Axis2P3D Location',(0.,34.15,23.3)) ;
#275=CARTESIAN_POINT('Axis2P3D Location',(-1.27421059785E-015,-7.1054273576E-015,23.3)) ;
#279=CARTESIAN_POINT('Vertex',(15.8929566047,-29.0918619267,23.3)) ;
#281=CARTESIAN_POINT('Vertex',(-15.8929566047,29.0918619267,23.3)) ;
#284=CARTESIAN_POINT('Axis2P3D Location',(-1.27421059785E-015,-7.1054273576E-015,23.3)) ;
#298=CARTESIAN_POINT('Axis2P3D Location',(0.,0.,11.6500000004)) ;
#303=CARTESIAN_POINT('Line Origine',(-16.3723821433,29.9694444886,18.05)) ;
#307=CARTESIAN_POINT('Vertex',(-16.3723821433,29.9694444886,22.3)) ;
#310=CARTESIAN_POINT('Line Origine',(16.3723821433,-29.9694444886,18.05)) ;
#314=CARTESIAN_POINT('Vertex',(16.3723821433,-29.9694444886,22.3)) ;
#317=CARTESIAN_POINT('Axis2P3D Location',(0.,0.,22.3)) ;
#329=CARTESIAN_POINT('Axis2P3D Location',(0.,0.,22.3)) ;
#341=CARTESIAN_POINT('Axis2P3D Location',(-6.90514312396E-013,-3.56870089036E-013,56.45)) ;
#346=CARTESIAN_POINT('Line Origine',(16.132669374,-29.5306532076,22.8)) ;
#351=CARTESIAN_POINT('Line Origine',(-16.132669374,29.5306532076,22.8)) ;
#363=CARTESIAN_POINT('Axis2P3D Location',(0.,-3.75152686694E-013,56.45)) ;
#375=CARTESIAN_POINT('Axis2P3D Location',(0.,0.,11.6500000004)) ;
#380=CARTESIAN_POINT('Axis2P3D Location',(0.,0.,1.)) ;
#384=CARTESIAN_POINT('Vertex',(-15.5813300046,28.5214332614,1.)) ;
#386=CARTESIAN_POINT('Vertex',(15.5813300046,-28.5214332614,1.)) ;
#389=CARTESIAN_POINT('Line Origine',(-15.5813300046,28.5214332614,5.)) ;
#394=CARTESIAN_POINT('Line Origine',(15.5813300046,-28.5214332614,5.)) ;
#406=CARTESIAN_POINT('Axis2P3D Location',(0.,0.,1.)) ;
#418=CARTESIAN_POINT('Axis2P3D Location',(0.,32.5,0.)) ;
#427=CARTESIAN_POINT('Axis2P3D Location',(1.24772438915E-015,0.,0.)) ;
#431=CARTESIAN_POINT('Vertex',(-16.0607555432,29.3990158233,0.)) ;
#433=CARTESIAN_POINT('Vertex',(16.0607555432,-29.3990158233,0.)) ;
#436=CARTESIAN_POINT('Axis2P3D Location',(1.24772438915E-015,0.,0.)) ;
#446=CARTESIAN_POINT('Axis2P3D Location',(1.11910480882E-013,2.22988294496E-013,33.5)) ;
#451=CARTESIAN_POINT('Line Origine',(-15.8210427739,28.9602245424,0.5)) ;
#456=CARTESIAN_POINT('Line Origine',(15.8210427739,-28.9602245424,0.5)) ;
#468=CARTESIAN_POINT('Axis2P3D Location',(6.30606677987E-014,3.46389583683E-013,33.5)) ;
#53=DIRECTION('Axis2P3D Direction',(0.,0.,1.)) ;
#54=DIRECTION('Axis2P3D XDirection',(0.479425538604,-0.87758256189,0.)) ;
#58=DIRECTION('Vector Direction',(0.,0.,1.)) ;
#67=DIRECTION('Axis2P3D Direction',(0.,0.,1.)) ;
#74=DIRECTION('Vector Direction',(0.,0.,1.)) ;
#81=DIRECTION('Axis2P3D Direction',(0.,0.,1.)) ;
#93=DIRECTION('Axis2P3D Direction',(0.,0.,1.)) ;
#98=DIRECTION('Axis2P3D Direction',(0.,0.,1.)) ;
#110=DIRECTION('Axis2P3D Direction',(0.,0.,1.)) ;
#111=DIRECTION('Axis2P3D XDirection',(0.479425538604,-0.87758256189,0.)) ;
#115=DIRECTION('Vector Direction',(0.,0.,1.)) ;
#124=DIRECTION('Axis2P3D Direction',(0.,0.,1.)) ;
#131=DIRECTION('Vector Direction',(0.,0.,1.)) ;
#138=DIRECTION('Axis2P3D Direction',(0.,0.,1.)) ;
#150=DIRECTION('Axis2P3D Direction',(0.,0.,1.)) ;
#155=DIRECTION('Axis2P3D Direction',(0.,0.,1.)) ;
#167=DIRECTION('Axis2P3D Direction',(0.,0.,1.)) ;
#168=DIRECTION('Axis2P3D XDirection',(1.,0.,0.)) ;
#172=DIRECTION('Axis2P3D Direction',(0.,0.,1.)) ;
#181=DIRECTION('Axis2P3D Direction',(0.,0.,1.)) ;
#195=DIRECTION('Axis2P3D Direction',(0.,0.,1.)) ;
#196=DIRECTION('Axis2P3D XDirection',(1.,0.,0.)) ;
#204=DIRECTION('Axis2P3D Direction',(0.,0.,1.)) ;
#213=DIRECTION('Axis2P3D Direction',(0.,0.,1.)) ;
#223=DIRECTION('Axis2P3D Direction',(0.,0.,1.)) ;
#224=DIRECTION('Axis2P3D XDirection',(0.479425538604,-0.87758256189,0.)) ;
#228=DIRECTION('Axis2P3D Direction',(0.,0.,1.)) ;
#237=DIRECTION('Axis2P3D Direction',(-0.87758256189,-0.479425538604,0.)) ;
#242=DIRECTION('Axis2P3D Direction',(0.87758256189,0.479425538604,-0.)) ;
#254=DIRECTION('Axis2P3D Direction',(0.,-0.,1.)) ;
#255=DIRECTION('Axis2P3D XDirection',(-0.479425538604,0.87758256189,0.)) ;
#259=DIRECTION('Axis2P3D Direction',(0.,-0.,1.)) ;
#271=DIRECTION('Axis2P3D Direction',(0.,0.,1.)) ;
#272=DIRECTION('Axis2P3D XDirection',(1.,0.,0.)) ;
#276=DIRECTION('Axis2P3D Direction',(0.,0.,1.)) ;
#285=DIRECTION('Axis2P3D Direction',(0.,0.,1.)) ;
#299=DIRECTION('Axis2P3D Direction',(0.,0.,1.)) ;
#300=DIRECTION('Axis2P3D XDirection',(0.479425538604,-0.87758256189,0.)) ;
#304=DIRECTION('Vector Direction',(0.,0.,1.)) ;
#311=DIRECTION('Vector Direction',(0.,0.,1.)) ;
#318=DIRECTION('Axis2P3D Direction',(0.,0.,1.)) ;
#330=DIRECTION('Axis2P3D Direction',(0.,0.,1.)) ;
#342=DIRECTION('Axis2P3D Direction',(2.04281036531E-014,1.06581410364E-014,-1.)) ;
#343=DIRECTION('Axis2P3D XDirection',(0.479425538604,-0.87758256189,3.9512670479E-016)) ;
#347=DIRECTION('Vector Direction',(0.339005049421,-0.620544580564,-0.707106781187)) ;
#352=DIRECTION('Vector Direction',(-0.339005049421,0.620544580564,-0.707106781187)) ;
#364=DIRECTION('Axis2P3D Direction',(-0.,1.11577413975E-014,-1.)) ;
#365=DIRECTION('Axis2P3D XDirection',(-0.479425538604,0.87758256189,9.74645871814E-015)) ;
#376=DIRECTION('Axis2P3D Direction',(0.,0.,1.)) ;
#377=DIRECTION('Axis2P3D XDirection',(0.479425538604,-0.87758256189,0.)) ;
#381=DIRECTION('Axis2P3D Direction',(0.,0.,1.)) ;
#390=DIRECTION('Vector Direction',(0.,0.,1.)) ;
#395=DIRECTION('Vector Direction',(0.,0.,1.)) ;
#407=DIRECTION('Axis2P3D Direction',(0.,0.,1.)) ;
#419=DIRECTION('Axis2P3D Direction',(0.,0.,1.)) ;
#420=DIRECTION('Axis2P3D XDirection',(1.,0.,0.)) ;
#428=DIRECTION('Axis2P3D Direction',(0.,0.,1.)) ;
#437=DIRECTION('Axis2P3D Direction',(0.,0.,1.)) ;
#447=DIRECTION('Axis2P3D Direction',(-3.5527136788E-015,-6.99440505514E-015,-1.)) ;
#448=DIRECTION('Axis2P3D XDirection',(-0.479425538604,0.87758256189,-4.47810265428E-015)) ;
#452=DIRECTION('Vector Direction',(-0.339005049421,0.620544580564,-0.707106781187)) ;
#457=DIRECTION('Vector Direction',(0.339005049421,-0.620544580564,-0.707106781187)) ;
#469=DIRECTION('Axis2P3D Direction',(-1.7763568394E-015,-1.06581410364E-014,-1.)) ;
#470=DIRECTION('Axis2P3D XDirection',(0.479425538604,-0.87758256189,8.56107860378E-015)) ;
#48=AXIS2_PLACEMENT_3D(' ',#47,$,$) ;
#55=AXIS2_PLACEMENT_3D('Cylinder Axis2P3D',#52,#53,#54) ;
#68=AXIS2_PLACEMENT_3D('Circle Axis2P3D',#66,#67,$) ;
#82=AXIS2_PLACEMENT_3D('Circle Axis2P3D',#80,#81,$) ;
#94=AXIS2_PLACEMENT_3D('Circle Axis2P3D',#92,#93,$) ;
#99=AXIS2_PLACEMENT_3D('Circle Axis2P3D',#97,#98,$) ;
#112=AXIS2_PLACEMENT_3D('Cylinder Axis2P3D',#109,#110,#111) ;
#125=AXIS2_PLACEMENT_3D('Circle Axis2P3D',#123,#124,$) ;
#139=AXIS2_PLACEMENT_3D('Circle Axis2P3D',#137,#138,$) ;
#151=AXIS2_PLACEMENT_3D('Circle Axis2P3D',#149,#150,$) ;
#156=AXIS2_PLACEMENT_3D('Circle Axis2P3D',#154,#155,$) ;
#169=AXIS2_PLACEMENT_3D('Plane Axis2P3D',#166,#167,#168) ;
#173=AXIS2_PLACEMENT_3D('Circle Axis2P3D',#171,#172,$) ;
#182=AXIS2_PLACEMENT_3D('Circle Axis2P3D',#180,#181,$) ;
#197=AXIS2_PLACEMENT_3D('Plane Axis2P3D',#194,#195,#196) ;
#205=AXIS2_PLACEMENT_3D('Circle Axis2P3D',#203,#204,$) ;
#214=AXIS2_PLACEMENT_3D('Circle Axis2P3D',#212,#213,$) ;
#225=AXIS2_PLACEMENT_3D('Torus Axis2P3D',#222,#223,#224) ;
#229=AXIS2_PLACEMENT_3D('Circle Axis2P3D',#227,#228,$) ;
#238=AXIS2_PLACEMENT_3D('Circle Axis2P3D',#236,#237,$) ;
#243=AXIS2_PLACEMENT_3D('Circle Axis2P3D',#241,#242,$) ;
#256=AXIS2_PLACEMENT_3D('Torus Axis2P3D',#253,#254,#255) ;
#260=AXIS2_PLACEMENT_3D('Circle Axis2P3D',#258,#259,$) ;
#273=AXIS2_PLACEMENT_3D('Plane Axis2P3D',#270,#271,#272) ;
#277=AXIS2_PLACEMENT_3D('Circle Axis2P3D',#275,#276,$) ;
#286=AXIS2_PLACEMENT_3D('Circle Axis2P3D',#284,#285,$) ;
#301=AXIS2_PLACEMENT_3D('Cylinder Axis2P3D',#298,#299,#300) ;
#319=AXIS2_PLACEMENT_3D('Circle Axis2P3D',#317,#318,$) ;
#331=AXIS2_PLACEMENT_3D('Circle Axis2P3D',#329,#330,$) ;
#344=AXIS2_PLACEMENT_3D('Cone Axis2P3D',#341,#342,#343) ;
#366=AXIS2_PLACEMENT_3D('Cone Axis2P3D',#363,#364,#365) ;
#378=AXIS2_PLACEMENT_3D('Cylinder Axis2P3D',#375,#376,#377) ;
#382=AXIS2_PLACEMENT_3D('Circle Axis2P3D',#380,#381,$) ;
#408=AXIS2_PLACEMENT_3D('Circle Axis2P3D',#406,#407,$) ;
#421=AXIS2_PLACEMENT_3D('Plane Axis2P3D',#418,#419,#420) ;
#429=AXIS2_PLACEMENT_3D('Circle Axis2P3D',#427,#428,$) ;
#438=AXIS2_PLACEMENT_3D('Circle Axis2P3D',#436,#437,$) ;
#449=AXIS2_PLACEMENT_3D('Cone Axis2P3D',#446,#447,#448) ;
#471=AXIS2_PLACEMENT_3D('Cone Axis2P3D',#468,#469,#470) ;
#40=PRODUCT_DEFINITION_SHAPE(' ',' ',#14) ;
#31=APPROVAL_PERSON_ORGANIZATION(#25,#21,#19) ;
#25=PERSON_AND_ORGANIZATION(#22,#23) ;
#22=PERSON(' ',' ',' ',$,$,$) ;
#23=ORGANIZATION(' ',' ',' ') ;
#21=APPROVAL(#20,' ') ;
#20=APPROVAL_STATUS('not_yet_approved') ;
#19=APPROVAL_ROLE('APPROVER') ;
#13=DATE_AND_TIME(#11,#12) ;
#12=LOCAL_TIME(11,12,30.,#10) ;
#10=COORDINATED_UNIVERSAL_TIME_OFFSET(0,0,.AHEAD.) ;
#86=ORIENTED_EDGE('',*,*,#65,.T.) ;
#87=ORIENTED_EDGE('',*,*,#72,.F.) ;
#88=ORIENTED_EDGE('',*,*,#79,.F.) ;
#89=ORIENTED_EDGE('',*,*,#84,.T.) ;
#103=ORIENTED_EDGE('',*,*,#79,.T.) ;
#104=ORIENTED_EDGE('',*,*,#96,.F.) ;
#105=ORIENTED_EDGE('',*,*,#65,.F.) ;
#106=ORIENTED_EDGE('',*,*,#101,.T.) ;
#143=ORIENTED_EDGE('',*,*,#122,.T.) ;
#144=ORIENTED_EDGE('',*,*,#129,.F.) ;
#145=ORIENTED_EDGE('',*,*,#136,.F.) ;
#146=ORIENTED_EDGE('',*,*,#141,.T.) ;
#160=ORIENTED_EDGE('',*,*,#136,.T.) ;
#161=ORIENTED_EDGE('',*,*,#153,.F.) ;
#162=ORIENTED_EDGE('',*,*,#122,.F.) ;
#163=ORIENTED_EDGE('',*,*,#158,.T.) ;
#186=ORIENTED_EDGE('',*,*,#179,.F.) ;
#187=ORIENTED_EDGE('',*,*,#184,.F.) ;
#190=ORIENTED_EDGE('',*,*,#153,.T.) ;
#191=ORIENTED_EDGE('',*,*,#129,.T.) ;
#200=ORIENTED_EDGE('',*,*,#96,.T.) ;
#201=ORIENTED_EDGE('',*,*,#72,.T.) ;
#218=ORIENTED_EDGE('',*,*,#211,.T.) ;
#219=ORIENTED_EDGE('',*,*,#216,.T.) ;
#247=ORIENTED_EDGE('',*,*,#235,.T.) ;
#248=ORIENTED_EDGE('',*,*,#240,.T.) ;
#249=ORIENTED_EDGE('',*,*,#216,.F.) ;
#250=ORIENTED_EDGE('',*,*,#245,.F.) ;
#264=ORIENTED_EDGE('',*,*,#262,.T.) ;
#265=ORIENTED_EDGE('',*,*,#245,.T.) ;
#266=ORIENTED_EDGE('',*,*,#211,.F.) ;
#267=ORIENTED_EDGE('',*,*,#240,.F.) ;
#290=ORIENTED_EDGE('',*,*,#283,.T.) ;
#291=ORIENTED_EDGE('',*,*,#288,.T.) ;
#294=ORIENTED_EDGE('',*,*,#141,.F.) ;
#295=ORIENTED_EDGE('',*,*,#158,.F.) ;
#323=ORIENTED_EDGE('',*,*,#309,.F.) ;
#324=ORIENTED_EDGE('',*,*,#262,.F.) ;
#325=ORIENTED_EDGE('',*,*,#316,.T.) ;
#326=ORIENTED_EDGE('',*,*,#321,.F.) ;
#335=ORIENTED_EDGE('',*,*,#316,.F.) ;
#336=ORIENTED_EDGE('',*,*,#235,.F.) ;
#337=ORIENTED_EDGE('',*,*,#309,.T.) ;
#338=ORIENTED_EDGE('',*,*,#333,.F.) ;
#357=ORIENTED_EDGE('',*,*,#350,.T.) ;
#358=ORIENTED_EDGE('',*,*,#333,.T.) ;
#359=ORIENTED_EDGE('',*,*,#355,.F.) ;
#360=ORIENTED_EDGE('',*,*,#283,.F.) ;
#369=ORIENTED_EDGE('',*,*,#355,.T.) ;
#370=ORIENTED_EDGE('',*,*,#321,.T.) ;
#371=ORIENTED_EDGE('',*,*,#350,.F.) ;
#372=ORIENTED_EDGE('',*,*,#288,.F.) ;
#400=ORIENTED_EDGE('',*,*,#388,.F.) ;
#401=ORIENTED_EDGE('',*,*,#393,.F.) ;
#402=ORIENTED_EDGE('',*,*,#179,.T.) ;
#403=ORIENTED_EDGE('',*,*,#398,.T.) ;
#412=ORIENTED_EDGE('',*,*,#410,.F.) ;
#413=ORIENTED_EDGE('',*,*,#398,.F.) ;
#414=ORIENTED_EDGE('',*,*,#184,.T.) ;
#415=ORIENTED_EDGE('',*,*,#393,.T.) ;
#424=ORIENTED_EDGE('',*,*,#84,.F.) ;
#425=ORIENTED_EDGE('',*,*,#101,.F.) ;
#442=ORIENTED_EDGE('',*,*,#435,.T.) ;
#443=ORIENTED_EDGE('',*,*,#440,.T.) ;
#462=ORIENTED_EDGE('',*,*,#455,.T.) ;
#463=ORIENTED_EDGE('',*,*,#388,.T.) ;
#464=ORIENTED_EDGE('',*,*,#460,.F.) ;
#465=ORIENTED_EDGE('',*,*,#435,.F.) ;
#474=ORIENTED_EDGE('',*,*,#460,.T.) ;
#475=ORIENTED_EDGE('',*,*,#410,.T.) ;
#476=ORIENTED_EDGE('',*,*,#455,.F.) ;
#477=ORIENTED_EDGE('',*,*,#440,.F.) ;
#192=FACE_BOUND('',#189,.T.) ;
#220=FACE_BOUND('',#217,.T.) ;
#296=FACE_BOUND('',#293,.T.) ;
#444=FACE_BOUND('',#441,.T.) ;
#51=CLOSED_SHELL('Closed Shell',(#91,#108,#148,#165,#193,#221,#252,#269,#297,#328,#340,#362,#374,#405,#417,#445,#467,#479)) ;
#59=VECTOR('Line Direction',#58,1.) ;
#75=VECTOR('Line Direction',#74,1.) ;
#116=VECTOR('Line Direction',#115,1.) ;
#132=VECTOR('Line Direction',#131,1.) ;
#305=VECTOR('Line Direction',#304,1.) ;
#312=VECTOR('Line Direction',#311,1.) ;
#348=VECTOR('Line Direction',#347,1.) ;
#353=VECTOR('Line Direction',#352,1.) ;
#391=VECTOR('Line Direction',#390,1.) ;
#396=VECTOR('Line Direction',#395,1.) ;
#453=VECTOR('Line Direction',#452,1.) ;
#458=VECTOR('Line Direction',#457,1.) ;
#481=ADVANCED_BREP_SHAPE_REPRESENTATION('NONE',(#480),#46) ;
#49=SHAPE_REPRESENTATION(' ',(#48),#46) ;
#91=ADVANCED_FACE('Corps principal',(#90),#56,.T.) ;
#108=ADVANCED_FACE('Corps principal',(#107),#56,.T.) ;
#148=ADVANCED_FACE('Corps principal',(#147),#113,.F.) ;
#165=ADVANCED_FACE('Corps principal',(#164),#113,.F.) ;
#193=ADVANCED_FACE('Corps principal',(#188,#192),#170,.F.) ;
#221=ADVANCED_FACE('Corps principal',(#202,#220),#198,.T.) ;
#252=ADVANCED_FACE('Corps principal',(#251),#226,.F.) ;
#269=ADVANCED_FACE('Corps principal',(#268),#257,.F.) ;
#297=ADVANCED_FACE('Corps principal',(#292,#296),#274,.T.) ;
#328=ADVANCED_FACE('Corps principal',(#327),#302,.T.) ;
#340=ADVANCED_FACE('Corps principal',(#339),#302,.T.) ;
#362=ADVANCED_FACE('Corps principal',(#361),#345,.T.) ;
#374=ADVANCED_FACE('Corps principal',(#373),#367,.T.) ;
#405=ADVANCED_FACE('Corps principal',(#404),#379,.F.) ;
#417=ADVANCED_FACE('Corps principal',(#416),#379,.F.) ;
#445=ADVANCED_FACE('Corps principal',(#426,#444),#422,.F.) ;
#467=ADVANCED_FACE('Corps principal',(#466),#450,.F.) ;
#479=ADVANCED_FACE('Corps principal',(#478),#472,.F.) ;
#4=APPLICATION_PROTOCOL_DEFINITION('international standard','config_control_design',1994,#1) ;
#32=APPROVAL_DATE_TIME(#13,#21) ;
#480=MANIFOLD_SOLID_BREP('Corps principal',#51) ;
#11=CALENDAR_DATE(2018,29,3) ;
#30=CC_DESIGN_APPROVAL(#21,(#16,#6,#14)) ;
#18=CC_DESIGN_DATE_AND_TIME_ASSIGNMENT(#13,#17,(#16)) ;
#29=CC_DESIGN_DATE_AND_TIME_ASSIGNMENT(#13,#28,(#14)) ;
#17=DATE_TIME_ROLE('classification_date') ;
#28=DATE_TIME_ROLE('creation_date') ;
#27=CC_DESIGN_PERSON_AND_ORGANIZATION_ASSIGNMENT(#25,#26,(#16)) ;
#33=CC_DESIGN_PERSON_AND_ORGANIZATION_ASSIGNMENT(#25,#34,(#6)) ;
#35=CC_DESIGN_PERSON_AND_ORGANIZATION_ASSIGNMENT(#25,#36,(#6,#14)) ;
#37=CC_DESIGN_PERSON_AND_ORGANIZATION_ASSIGNMENT(#25,#38,(#5)) ;
#26=PERSON_AND_ORGANIZATION_ROLE('classification_officer') ;
#34=PERSON_AND_ORGANIZATION_ROLE('design_supplier') ;
#36=PERSON_AND_ORGANIZATION_ROLE('creator') ;
#38=PERSON_AND_ORGANIZATION_ROLE('design_owner') ;
#39=CC_DESIGN_SECURITY_CLASSIFICATION(#16,(#6)) ;
#69=CIRCLE('generated circle',#68,58.) ;
#83=CIRCLE('generated circle',#82,58.) ;
#95=CIRCLE('generated circle',#94,58.) ;
#100=CIRCLE('generated circle',#99,58.) ;
#126=CIRCLE('generated circle',#125,31.5) ;
#140=CIRCLE('generated circle',#139,31.5) ;
#152=CIRCLE('generated circle',#151,31.5) ;
#157=CIRCLE('generated circle',#156,31.5) ;
#174=CIRCLE('generated circle',#173,32.5) ;
#183=CIRCLE('generated circle',#182,32.5) ;
#206=CIRCLE('generated circle',#205,34.65) ;
#215=CIRCLE('generated circle',#214,34.65) ;
#230=CIRCLE('generated circle',#229,34.15) ;
#239=CIRCLE('generated circle',#238,0.5) ;
#244=CIRCLE('generated circle',#243,0.5) ;
#261=CIRCLE('generated circle',#260,34.15) ;
#278=CIRCLE('generated circle',#277,33.15) ;
#287=CIRCLE('generated circle',#286,33.15) ;
#320=CIRCLE('generated circle',#319,34.15) ;
#332=CIRCLE('generated circle',#331,34.15) ;
#383=CIRCLE('generated circle',#382,32.5) ;
#409=CIRCLE('generated circle',#408,32.5) ;
#430=CIRCLE('generated circle',#429,33.5) ;
#439=CIRCLE('generated circle',#438,33.5) ;
#345=CONICAL_SURFACE('Cone',#344,0.,0.785398163397) ;
#367=CONICAL_SURFACE('Cone',#366,0.,0.785398163397) ;
#450=CONICAL_SURFACE('Cone',#449,0.,0.785398163397) ;
#472=CONICAL_SURFACE('Cone',#471,0.,0.785398163397) ;
#482=SHAPE_REPRESENTATION_RELATIONSHIP(' ',' ',#49,#481) ;
#56=CYLINDRICAL_SURFACE('generated cylinder',#55,58.) ;
#113=CYLINDRICAL_SURFACE('generated cylinder',#112,31.5) ;
#302=CYLINDRICAL_SURFACE('generated cylinder',#301,34.15) ;
#379=CYLINDRICAL_SURFACE('generated cylinder',#378,32.5) ;
#226=TOROIDAL_SURFACE('homeo Torus',#225,34.65,0.5) ;
#257=TOROIDAL_SURFACE('homeo Torus',#256,34.65,0.5) ;
#3=DESIGN_CONTEXT(' ',#1,'design') ;
#65=EDGE_CURVE('',#62,#64,#60,.T.) ;
#72=EDGE_CURVE('',#71,#64,#69,.T.) ;
#79=EDGE_CURVE('',#78,#71,#76,.T.) ;
#84=EDGE_CURVE('',#78,#62,#83,.T.) ;
#96=EDGE_CURVE('',#64,#71,#95,.T.) ;
#101=EDGE_CURVE('',#62,#78,#100,.T.) ;
#122=EDGE_CURVE('',#119,#121,#117,.F.) ;
#129=EDGE_CURVE('',#128,#121,#126,.T.) ;
#136=EDGE_CURVE('',#135,#128,#133,.F.) ;
#141=EDGE_CURVE('',#135,#119,#140,.T.) ;
#153=EDGE_CURVE('',#121,#128,#152,.T.) ;
#158=EDGE_CURVE('',#119,#135,#157,.T.) ;
#179=EDGE_CURVE('',#176,#178,#174,.T.) ;
#184=EDGE_CURVE('',#178,#176,#183,.T.) ;
#211=EDGE_CURVE('',#208,#210,#206,.F.) ;
#216=EDGE_CURVE('',#210,#208,#215,.F.) ;
#235=EDGE_CURVE('',#232,#234,#230,.F.) ;
#240=EDGE_CURVE('',#234,#208,#239,.T.) ;
#245=EDGE_CURVE('',#232,#210,#244,.T.) ;
#262=EDGE_CURVE('',#234,#232,#261,.F.) ;
#283=EDGE_CURVE('',#280,#282,#278,.T.) ;
#288=EDGE_CURVE('',#282,#280,#287,.T.) ;
#309=EDGE_CURVE('',#232,#308,#306,.T.) ;
#316=EDGE_CURVE('',#234,#315,#313,.T.) ;
#321=EDGE_CURVE('',#308,#315,#320,.T.) ;
#333=EDGE_CURVE('',#315,#308,#332,.T.) ;
#350=EDGE_CURVE('',#280,#315,#349,.T.) ;
#355=EDGE_CURVE('',#282,#308,#354,.T.) ;
#388=EDGE_CURVE('',#385,#387,#383,.T.) ;
#393=EDGE_CURVE('',#176,#385,#392,.F.) ;
#398=EDGE_CURVE('',#178,#387,#397,.F.) ;
#410=EDGE_CURVE('',#387,#385,#409,.T.) ;
#435=EDGE_CURVE('',#432,#434,#430,.T.) ;
#440=EDGE_CURVE('',#434,#432,#439,.T.) ;
#455=EDGE_CURVE('',#432,#385,#454,.F.) ;
#460=EDGE_CURVE('',#434,#387,#459,.F.) ;
#85=EDGE_LOOP('',(#86,#87,#88,#89)) ;
#102=EDGE_LOOP('',(#103,#104,#105,#106)) ;
#142=EDGE_LOOP('',(#143,#144,#145,#146)) ;
#159=EDGE_LOOP('',(#160,#161,#162,#163)) ;
#185=EDGE_LOOP('',(#186,#187)) ;
#189=EDGE_LOOP('',(#190,#191)) ;
#199=EDGE_LOOP('',(#200,#201)) ;
#217=EDGE_LOOP('',(#218,#219)) ;
#246=EDGE_LOOP('',(#247,#248,#249,#250)) ;
#263=EDGE_LOOP('',(#264,#265,#266,#267)) ;
#289=EDGE_LOOP('',(#290,#291)) ;
#293=EDGE_LOOP('',(#294,#295)) ;
#322=EDGE_LOOP('',(#323,#324,#325,#326)) ;
#334=EDGE_LOOP('',(#335,#336,#337,#338)) ;
#356=EDGE_LOOP('',(#357,#358,#359,#360)) ;
#368=EDGE_LOOP('',(#369,#370,#371,#372)) ;
#399=EDGE_LOOP('',(#400,#401,#402,#403)) ;
#411=EDGE_LOOP('',(#412,#413,#414,#415)) ;
#423=EDGE_LOOP('',(#424,#425)) ;
#441=EDGE_LOOP('',(#442,#443)) ;
#461=EDGE_LOOP('',(#462,#463,#464,#465)) ;
#473=EDGE_LOOP('',(#474,#475,#476,#477)) ;
#90=FACE_OUTER_BOUND('',#85,.T.) ;
#107=FACE_OUTER_BOUND('',#102,.T.) ;
#147=FACE_OUTER_BOUND('',#142,.T.) ;
#164=FACE_OUTER_BOUND('',#159,.T.) ;
#188=FACE_OUTER_BOUND('',#185,.T.) ;
#202=FACE_OUTER_BOUND('',#199,.T.) ;
#251=FACE_OUTER_BOUND('',#246,.T.) ;
#268=FACE_OUTER_BOUND('',#263,.T.) ;
#292=FACE_OUTER_BOUND('',#289,.T.) ;
#327=FACE_OUTER_BOUND('',#322,.T.) ;
#339=FACE_OUTER_BOUND('',#334,.T.) ;
#361=FACE_OUTER_BOUND('',#356,.T.) ;
#373=FACE_OUTER_BOUND('',#368,.T.) ;
#404=FACE_OUTER_BOUND('',#399,.T.) ;
#416=FACE_OUTER_BOUND('',#411,.T.) ;
#426=FACE_OUTER_BOUND('',#423,.T.) ;
#466=FACE_OUTER_BOUND('',#461,.T.) ;
#478=FACE_OUTER_BOUND('',#473,.T.) ;
#45=UNCERTAINTY_MEASURE_WITH_UNIT(LENGTH_MEASURE(0.005),#41,'distance_accuracy_value','CONFUSED CURVE UNCERTAINTY') ;
#60=LINE('Line',#57,#59) ;
#76=LINE('Line',#73,#75) ;
#117=LINE('Line',#114,#116) ;
#133=LINE('Line',#130,#132) ;
#306=LINE('Line',#303,#305) ;
#313=LINE('Line',#310,#312) ;
#349=LINE('Line',#346,#348) ;
#354=LINE('Line',#351,#353) ;
#392=LINE('Line',#389,#391) ;
#397=LINE('Line',#394,#396) ;
#454=LINE('Line',#451,#453) ;
#459=LINE('Line',#456,#458) ;
#2=MECHANICAL_CONTEXT(' ',#1,'mechanical') ;
#24=PERSONAL_ADDRESS(' ',' ',' ',' ',' ',' ',' ',' ',' ',' ',' ',' ',(#22),' ') ;
#170=PLANE('',#169) ;
#198=PLANE('',#197) ;
#274=PLANE('',#273) ;
#422=PLANE('',#421) ;
#43=PLANE_ANGLE_MEASURE_WITH_UNIT(PLANE_ANGLE_MEASURE(0.0174532925199),#42) ;
#7=PRODUCT_CATEGORY('part',$) ;
#9=PRODUCT_CATEGORY_RELATIONSHIP(' ',' ',#7,#8) ;
#6=PRODUCT_DEFINITION_FORMATION_WITH_SPECIFIED_SOURCE('',' ',#5,.NOT_KNOWN.) ;
#8=PRODUCT_RELATED_PRODUCT_CATEGORY('detail',$,(#5)) ;
#50=SHAPE_DEFINITION_REPRESENTATION(#40,#49) ;
#62=VERTEX_POINT('',#61) ;
#64=VERTEX_POINT('',#63) ;
#71=VERTEX_POINT('',#70) ;
#78=VERTEX_POINT('',#77) ;
#119=VERTEX_POINT('',#118) ;
#121=VERTEX_POINT('',#120) ;
#128=VERTEX_POINT('',#127) ;
#135=VERTEX_POINT('',#134) ;
#176=VERTEX_POINT('',#175) ;
#178=VERTEX_POINT('',#177) ;
#208=VERTEX_POINT('',#207) ;
#210=VERTEX_POINT('',#209) ;
#232=VERTEX_POINT('',#231) ;
#234=VERTEX_POINT('',#233) ;
#280=VERTEX_POINT('',#279) ;
#282=VERTEX_POINT('',#281) ;
#308=VERTEX_POINT('',#307) ;
#315=VERTEX_POINT('',#314) ;
#385=VERTEX_POINT('',#384) ;
#387=VERTEX_POINT('',#386) ;
#432=VERTEX_POINT('',#431) ;
#434=VERTEX_POINT('',#433) ;
#41=(LENGTH_UNIT()NAMED_UNIT(*)SI_UNIT(.MILLI.,.METRE.)) ;
#42=(NAMED_UNIT(*)PLANE_ANGLE_UNIT()SI_UNIT($,.RADIAN.)) ;
#44=(NAMED_UNIT(*)SI_UNIT($,.STERADIAN.)SOLID_ANGLE_UNIT()) ;
#46=(GEOMETRIC_REPRESENTATION_CONTEXT(3)GLOBAL_UNCERTAINTY_ASSIGNED_CONTEXT((#45))GLOBAL_UNIT_ASSIGNED_CONTEXT((#41,#42,#44))REPRESENTATION_CONTEXT(' ',' ')) ;
ENDSEC;
END-ISO-10303-21;
