ISO-10303-21;
HEADER;
/* Generated by software containing ST-Developer
 * from STEP Tools, Inc. (www.steptools.com) 
 */
/* OPTION: strings as raw bytes, not using required /X/ escapes */

FILE_DESCRIPTION(
/* description */ ('Unknown'),
/* implementation_level */ '2;1');

FILE_NAME(
/* name */ 'noix dÃ©port chariot',
/* time_stamp */ '2018-03-27T22:37:19+02:00',
/* author */ ('Unknown'),
/* organization */ ('Unknown'),
/* preprocessor_version */ 'ST-DEVELOPER v16.7',
/* originating_system */ 'DEX',
/* authorisation */ $);

FILE_SCHEMA (('AUTOMOTIVE_DESIGN {1 0 10303 214 3 1 1}'));
ENDSEC;

DATA;
#10=PROPERTY_DEFINITION_REPRESENTATION(#14,#12);
#11=PROPERTY_DEFINITION_REPRESENTATION(#15,#13);
#12=REPRESENTATION('',(#16),#504);
#13=REPRESENTATION('',(#17),#504);
#14=PROPERTY_DEFINITION('pmi validation property','',#509);
#15=PROPERTY_DEFINITION('pmi validation property','',#509);
#16=VALUE_REPRESENTATION_ITEM('number of annotations',COUNT_MEASURE(0.));
#17=VALUE_REPRESENTATION_ITEM('number of views',COUNT_MEASURE(0.));
#18=SHAPE_REPRESENTATION_RELATIONSHIP('','',#352,#19);
#19=ADVANCED_BREP_SHAPE_REPRESENTATION('',(#350),#504);
#20=CYLINDRICAL_SURFACE('',#370,8.647);
#21=CYLINDRICAL_SURFACE('',#371,10.25);
#22=CYLINDRICAL_SURFACE('',#372,8.647);
#23=CIRCLE('',#360,8.647);
#24=CIRCLE('',#361,8.647);
#25=CIRCLE('',#363,8.647);
#26=CIRCLE('',#364,10.25);
#27=CIRCLE('',#366,8.647);
#28=CIRCLE('',#369,10.25);
#29=ORIENTED_EDGE('',*,*,#89,.T.);
#30=ORIENTED_EDGE('',*,*,#90,.F.);
#31=ORIENTED_EDGE('',*,*,#91,.F.);
#32=ORIENTED_EDGE('',*,*,#92,.T.);
#33=ORIENTED_EDGE('',*,*,#93,.F.);
#34=ORIENTED_EDGE('',*,*,#94,.T.);
#35=ORIENTED_EDGE('',*,*,#95,.F.);
#36=ORIENTED_EDGE('',*,*,#96,.F.);
#37=ORIENTED_EDGE('',*,*,#97,.T.);
#38=ORIENTED_EDGE('',*,*,#98,.T.);
#39=ORIENTED_EDGE('',*,*,#89,.F.);
#40=ORIENTED_EDGE('',*,*,#99,.T.);
#41=ORIENTED_EDGE('',*,*,#100,.T.);
#42=ORIENTED_EDGE('',*,*,#101,.F.);
#43=ORIENTED_EDGE('',*,*,#94,.F.);
#44=ORIENTED_EDGE('',*,*,#102,.T.);
#45=ORIENTED_EDGE('',*,*,#103,.T.);
#46=ORIENTED_EDGE('',*,*,#104,.F.);
#47=ORIENTED_EDGE('',*,*,#100,.F.);
#48=ORIENTED_EDGE('',*,*,#105,.T.);
#49=ORIENTED_EDGE('',*,*,#106,.F.);
#50=ORIENTED_EDGE('',*,*,#107,.F.);
#51=ORIENTED_EDGE('',*,*,#108,.F.);
#52=ORIENTED_EDGE('',*,*,#96,.T.);
#53=ORIENTED_EDGE('',*,*,#109,.F.);
#54=ORIENTED_EDGE('',*,*,#103,.F.);
#55=ORIENTED_EDGE('',*,*,#110,.T.);
#56=ORIENTED_EDGE('',*,*,#91,.T.);
#57=ORIENTED_EDGE('',*,*,#111,.F.);
#58=ORIENTED_EDGE('',*,*,#92,.F.);
#59=ORIENTED_EDGE('',*,*,#110,.F.);
#60=ORIENTED_EDGE('',*,*,#105,.F.);
#61=ORIENTED_EDGE('',*,*,#99,.F.);
#62=ORIENTED_EDGE('',*,*,#112,.F.);
#63=ORIENTED_EDGE('',*,*,#113,.F.);
#64=ORIENTED_EDGE('',*,*,#114,.F.);
#65=ORIENTED_EDGE('',*,*,#95,.T.);
#66=ORIENTED_EDGE('',*,*,#101,.T.);
#67=ORIENTED_EDGE('',*,*,#104,.T.);
#68=ORIENTED_EDGE('',*,*,#109,.T.);
#69=ORIENTED_EDGE('',*,*,#90,.T.);
#70=ORIENTED_EDGE('',*,*,#98,.F.);
#71=ORIENTED_EDGE('',*,*,#115,.F.);
#72=ORIENTED_EDGE('',*,*,#106,.T.);
#73=ORIENTED_EDGE('',*,*,#116,.T.);
#74=ORIENTED_EDGE('',*,*,#107,.T.);
#75=ORIENTED_EDGE('',*,*,#115,.T.);
#76=ORIENTED_EDGE('',*,*,#97,.F.);
#77=ORIENTED_EDGE('',*,*,#117,.F.);
#78=ORIENTED_EDGE('',*,*,#118,.T.);
#79=ORIENTED_EDGE('',*,*,#93,.T.);
#80=ORIENTED_EDGE('',*,*,#108,.T.);
#81=ORIENTED_EDGE('',*,*,#117,.T.);
#82=ORIENTED_EDGE('',*,*,#102,.F.);
#83=ORIENTED_EDGE('',*,*,#116,.F.);
#84=ORIENTED_EDGE('',*,*,#112,.T.);
#85=ORIENTED_EDGE('',*,*,#118,.F.);
#86=ORIENTED_EDGE('',*,*,#114,.T.);
#87=ORIENTED_EDGE('',*,*,#111,.T.);
#88=ORIENTED_EDGE('',*,*,#113,.T.);
#89=EDGE_CURVE('',#119,#120,#141,.T.);
#90=EDGE_CURVE('',#121,#120,#142,.T.);
#91=EDGE_CURVE('',#122,#121,#143,.T.);
#92=EDGE_CURVE('',#122,#119,#144,.T.);
#93=EDGE_CURVE('',#123,#124,#145,.T.);
#94=EDGE_CURVE('',#123,#125,#146,.T.);
#95=EDGE_CURVE('',#126,#125,#147,.T.);
#96=EDGE_CURVE('',#124,#126,#148,.T.);
#97=EDGE_CURVE('',#127,#128,#149,.T.);
#98=EDGE_CURVE('',#128,#120,#150,.T.);
#99=EDGE_CURVE('',#119,#129,#151,.T.);
#100=EDGE_CURVE('',#129,#130,#152,.T.);
#101=EDGE_CURVE('',#125,#130,#153,.T.);
#102=EDGE_CURVE('',#123,#127,#154,.T.);
#103=EDGE_CURVE('',#131,#132,#155,.T.);
#104=EDGE_CURVE('',#130,#132,#156,.T.);
#105=EDGE_CURVE('',#129,#131,#157,.T.);
#106=EDGE_CURVE('',#133,#121,#158,.T.);
#107=EDGE_CURVE('',#134,#133,#159,.T.);
#108=EDGE_CURVE('',#124,#134,#160,.T.);
#109=EDGE_CURVE('',#132,#126,#161,.T.);
#110=EDGE_CURVE('',#131,#122,#162,.T.);
#111=EDGE_CURVE('',#135,#135,#23,.T.);
#112=EDGE_CURVE('',#136,#136,#24,.T.);
#113=EDGE_CURVE('',#137,#137,#25,.T.);
#114=EDGE_CURVE('',#138,#138,#26,.T.);
#115=EDGE_CURVE('',#133,#128,#163,.T.);
#116=EDGE_CURVE('',#139,#139,#27,.T.);
#117=EDGE_CURVE('',#134,#127,#164,.T.);
#118=EDGE_CURVE('',#140,#140,#28,.T.);
#119=VERTEX_POINT('',#440);
#120=VERTEX_POINT('',#441);
#121=VERTEX_POINT('',#443);
#122=VERTEX_POINT('',#445);
#123=VERTEX_POINT('',#449);
#124=VERTEX_POINT('',#450);
#125=VERTEX_POINT('',#452);
#126=VERTEX_POINT('',#454);
#127=VERTEX_POINT('',#458);
#128=VERTEX_POINT('',#459);
#129=VERTEX_POINT('',#462);
#130=VERTEX_POINT('',#464);
#131=VERTEX_POINT('',#469);
#132=VERTEX_POINT('',#470);
#133=VERTEX_POINT('',#475);
#134=VERTEX_POINT('',#477);
#135=VERTEX_POINT('',#483);
#136=VERTEX_POINT('',#485);
#137=VERTEX_POINT('',#488);
#138=VERTEX_POINT('',#490);
#139=VERTEX_POINT('',#494);
#140=VERTEX_POINT('',#499);
#141=LINE('',#439,#165);
#142=LINE('',#442,#166);
#143=LINE('',#444,#167);
#144=LINE('',#446,#168);
#145=LINE('',#448,#169);
#146=LINE('',#451,#170);
#147=LINE('',#453,#171);
#148=LINE('',#455,#172);
#149=LINE('',#457,#173);
#150=LINE('',#460,#174);
#151=LINE('',#461,#175);
#152=LINE('',#463,#176);
#153=LINE('',#465,#177);
#154=LINE('',#466,#178);
#155=LINE('',#468,#179);
#156=LINE('',#471,#180);
#157=LINE('',#472,#181);
#158=LINE('',#474,#182);
#159=LINE('',#476,#183);
#160=LINE('',#478,#184);
#161=LINE('',#479,#185);
#162=LINE('',#480,#186);
#163=LINE('',#492,#187);
#164=LINE('',#496,#188);
#165=VECTOR('',#377,1000.);
#166=VECTOR('',#378,1000.);
#167=VECTOR('',#379,1000.);
#168=VECTOR('',#380,1000.);
#169=VECTOR('',#383,1000.);
#170=VECTOR('',#384,1000.);
#171=VECTOR('',#385,1000.);
#172=VECTOR('',#386,1000.);
#173=VECTOR('',#389,1000.);
#174=VECTOR('',#390,1000.);
#175=VECTOR('',#391,1000.);
#176=VECTOR('',#392,1000.);
#177=VECTOR('',#393,1000.);
#178=VECTOR('',#394,1000.);
#179=VECTOR('',#397,1000.);
#180=VECTOR('',#398,1000.);
#181=VECTOR('',#399,1000.);
#182=VECTOR('',#402,1000.);
#183=VECTOR('',#403,1000.);
#184=VECTOR('',#404,1000.);
#185=VECTOR('',#405,1000.);
#186=VECTOR('',#406,1000.);
#187=VECTOR('',#421,1000.);
#188=VECTOR('',#426,1000.);
#189=EDGE_LOOP('',(#29,#30,#31,#32));
#190=EDGE_LOOP('',(#33,#34,#35,#36));
#191=EDGE_LOOP('',(#37,#38,#39,#40,#41,#42,#43,#44));
#192=EDGE_LOOP('',(#45,#46,#47,#48));
#193=EDGE_LOOP('',(#49,#50,#51,#52,#53,#54,#55,#56));
#194=EDGE_LOOP('',(#57));
#195=EDGE_LOOP('',(#58,#59,#60,#61));
#196=EDGE_LOOP('',(#62));
#197=EDGE_LOOP('',(#63));
#198=EDGE_LOOP('',(#64));
#199=EDGE_LOOP('',(#65,#66,#67,#68));
#200=EDGE_LOOP('',(#69,#70,#71,#72));
#201=EDGE_LOOP('',(#73));
#202=EDGE_LOOP('',(#74,#75,#76,#77));
#203=EDGE_LOOP('',(#78));
#204=EDGE_LOOP('',(#79,#80,#81,#82));
#205=EDGE_LOOP('',(#83));
#206=EDGE_LOOP('',(#84));
#207=EDGE_LOOP('',(#85));
#208=EDGE_LOOP('',(#86));
#209=EDGE_LOOP('',(#87));
#210=EDGE_LOOP('',(#88));
#211=FACE_BOUND('',#189,.T.);
#212=FACE_BOUND('',#190,.T.);
#213=FACE_BOUND('',#191,.T.);
#214=FACE_BOUND('',#192,.T.);
#215=FACE_BOUND('',#193,.T.);
#216=FACE_BOUND('',#194,.T.);
#217=FACE_BOUND('',#195,.T.);
#218=FACE_BOUND('',#196,.T.);
#219=FACE_BOUND('',#197,.T.);
#220=FACE_BOUND('',#198,.T.);
#221=FACE_BOUND('',#199,.T.);
#222=FACE_BOUND('',#200,.T.);
#223=FACE_BOUND('',#201,.T.);
#224=FACE_BOUND('',#202,.T.);
#225=FACE_BOUND('',#203,.T.);
#226=FACE_BOUND('',#204,.T.);
#227=FACE_BOUND('',#205,.T.);
#228=FACE_BOUND('',#206,.T.);
#229=FACE_BOUND('',#207,.T.);
#230=FACE_BOUND('',#208,.T.);
#231=FACE_BOUND('',#209,.T.);
#232=FACE_BOUND('',#210,.T.);
#233=PLANE('',#354);
#234=PLANE('',#355);
#235=PLANE('',#356);
#236=PLANE('',#357);
#237=PLANE('',#358);
#238=PLANE('',#359);
#239=PLANE('',#362);
#240=PLANE('',#365);
#241=PLANE('',#367);
#242=PLANE('',#368);
#243=STYLED_ITEM('',(#256),#336);
#244=STYLED_ITEM('',(#257),#337);
#245=STYLED_ITEM('',(#258),#338);
#246=STYLED_ITEM('',(#259),#339);
#247=STYLED_ITEM('',(#260),#340);
#248=STYLED_ITEM('',(#261),#341);
#249=STYLED_ITEM('',(#262),#342);
#250=STYLED_ITEM('',(#263),#343);
#251=STYLED_ITEM('',(#264),#344);
#252=STYLED_ITEM('',(#265),#345);
#253=STYLED_ITEM('',(#266),#346);
#254=STYLED_ITEM('',(#267),#347);
#255=STYLED_ITEM('',(#268),#348);
#256=PRESENTATION_STYLE_ASSIGNMENT((#269));
#257=PRESENTATION_STYLE_ASSIGNMENT((#270));
#258=PRESENTATION_STYLE_ASSIGNMENT((#271));
#259=PRESENTATION_STYLE_ASSIGNMENT((#272));
#260=PRESENTATION_STYLE_ASSIGNMENT((#273));
#261=PRESENTATION_STYLE_ASSIGNMENT((#274));
#262=PRESENTATION_STYLE_ASSIGNMENT((#275));
#263=PRESENTATION_STYLE_ASSIGNMENT((#276));
#264=PRESENTATION_STYLE_ASSIGNMENT((#277));
#265=PRESENTATION_STYLE_ASSIGNMENT((#278));
#266=PRESENTATION_STYLE_ASSIGNMENT((#279));
#267=PRESENTATION_STYLE_ASSIGNMENT((#280));
#268=PRESENTATION_STYLE_ASSIGNMENT((#281));
#269=SURFACE_STYLE_USAGE(.BOTH.,#282);
#270=SURFACE_STYLE_USAGE(.BOTH.,#283);
#271=SURFACE_STYLE_USAGE(.BOTH.,#284);
#272=SURFACE_STYLE_USAGE(.BOTH.,#285);
#273=SURFACE_STYLE_USAGE(.BOTH.,#286);
#274=SURFACE_STYLE_USAGE(.BOTH.,#287);
#275=SURFACE_STYLE_USAGE(.BOTH.,#288);
#276=SURFACE_STYLE_USAGE(.BOTH.,#289);
#277=SURFACE_STYLE_USAGE(.BOTH.,#290);
#278=SURFACE_STYLE_USAGE(.BOTH.,#291);
#279=SURFACE_STYLE_USAGE(.BOTH.,#292);
#280=SURFACE_STYLE_USAGE(.BOTH.,#293);
#281=SURFACE_STYLE_USAGE(.BOTH.,#294);
#282=SURFACE_SIDE_STYLE('',(#295));
#283=SURFACE_SIDE_STYLE('',(#296));
#284=SURFACE_SIDE_STYLE('',(#297));
#285=SURFACE_SIDE_STYLE('',(#298));
#286=SURFACE_SIDE_STYLE('',(#299));
#287=SURFACE_SIDE_STYLE('',(#300));
#288=SURFACE_SIDE_STYLE('',(#301));
#289=SURFACE_SIDE_STYLE('',(#302));
#290=SURFACE_SIDE_STYLE('',(#303));
#291=SURFACE_SIDE_STYLE('',(#304));
#292=SURFACE_SIDE_STYLE('',(#305));
#293=SURFACE_SIDE_STYLE('',(#306));
#294=SURFACE_SIDE_STYLE('',(#307));
#295=SURFACE_STYLE_FILL_AREA(#308);
#296=SURFACE_STYLE_FILL_AREA(#309);
#297=SURFACE_STYLE_FILL_AREA(#310);
#298=SURFACE_STYLE_FILL_AREA(#311);
#299=SURFACE_STYLE_FILL_AREA(#312);
#300=SURFACE_STYLE_FILL_AREA(#313);
#301=SURFACE_STYLE_FILL_AREA(#314);
#302=SURFACE_STYLE_FILL_AREA(#315);
#303=SURFACE_STYLE_FILL_AREA(#316);
#304=SURFACE_STYLE_FILL_AREA(#317);
#305=SURFACE_STYLE_FILL_AREA(#318);
#306=SURFACE_STYLE_FILL_AREA(#319);
#307=SURFACE_STYLE_FILL_AREA(#320);
#308=FILL_AREA_STYLE('',(#321));
#309=FILL_AREA_STYLE('',(#322));
#310=FILL_AREA_STYLE('',(#323));
#311=FILL_AREA_STYLE('',(#324));
#312=FILL_AREA_STYLE('',(#325));
#313=FILL_AREA_STYLE('',(#326));
#314=FILL_AREA_STYLE('',(#327));
#315=FILL_AREA_STYLE('',(#328));
#316=FILL_AREA_STYLE('',(#329));
#317=FILL_AREA_STYLE('',(#330));
#318=FILL_AREA_STYLE('',(#331));
#319=FILL_AREA_STYLE('',(#332));
#320=FILL_AREA_STYLE('',(#333));
#321=FILL_AREA_STYLE_COLOUR('',#334);
#322=FILL_AREA_STYLE_COLOUR('',#334);
#323=FILL_AREA_STYLE_COLOUR('',#334);
#324=FILL_AREA_STYLE_COLOUR('',#334);
#325=FILL_AREA_STYLE_COLOUR('',#334);
#326=FILL_AREA_STYLE_COLOUR('',#334);
#327=FILL_AREA_STYLE_COLOUR('',#334);
#328=FILL_AREA_STYLE_COLOUR('',#334);
#329=FILL_AREA_STYLE_COLOUR('',#334);
#330=FILL_AREA_STYLE_COLOUR('',#334);
#331=FILL_AREA_STYLE_COLOUR('',#335);
#332=FILL_AREA_STYLE_COLOUR('',#334);
#333=FILL_AREA_STYLE_COLOUR('',#335);
#334=COLOUR_RGB('',0.331739127635956,0.340869575738907,0.349999994039536);
#335=COLOUR_RGB('',0.200000017881393,0.200000017881393,0.200000017881393);
#336=ADVANCED_FACE('',(#211),#233,.T.);
#337=ADVANCED_FACE('',(#212),#234,.T.);
#338=ADVANCED_FACE('',(#213),#235,.T.);
#339=ADVANCED_FACE('',(#214),#236,.T.);
#340=ADVANCED_FACE('',(#215),#237,.T.);
#341=ADVANCED_FACE('',(#216,#217,#218),#238,.F.);
#342=ADVANCED_FACE('',(#219,#220,#221),#239,.T.);
#343=ADVANCED_FACE('',(#222,#223),#240,.F.);
#344=ADVANCED_FACE('',(#224),#241,.F.);
#345=ADVANCED_FACE('',(#225,#226),#242,.F.);
#346=ADVANCED_FACE('',(#227,#228),#20,.F.);
#347=ADVANCED_FACE('',(#229,#230),#21,.F.);
#348=ADVANCED_FACE('',(#231,#232),#22,.F.);
#349=CLOSED_SHELL('',(#336,#337,#338,#339,#340,#341,#342,#343,#344,#345,
#346,#347,#348));
#350=MANIFOLD_SOLID_BREP('',#349);
#351=SHAPE_DEFINITION_REPRESENTATION(#509,#352);
#352=SHAPE_REPRESENTATION('noix déport chariot',(#353),#504);
#353=AXIS2_PLACEMENT_3D('',#437,#373,#374);
#354=AXIS2_PLACEMENT_3D('',#438,#375,#376);
#355=AXIS2_PLACEMENT_3D('',#447,#381,#382);
#356=AXIS2_PLACEMENT_3D('',#456,#387,#388);
#357=AXIS2_PLACEMENT_3D('',#467,#395,#396);
#358=AXIS2_PLACEMENT_3D('',#473,#400,#401);
#359=AXIS2_PLACEMENT_3D('',#481,#407,#408);
#360=AXIS2_PLACEMENT_3D('',#482,#409,#410);
#361=AXIS2_PLACEMENT_3D('',#484,#411,#412);
#362=AXIS2_PLACEMENT_3D('',#486,#413,#414);
#363=AXIS2_PLACEMENT_3D('',#487,#415,#416);
#364=AXIS2_PLACEMENT_3D('',#489,#417,#418);
#365=AXIS2_PLACEMENT_3D('',#491,#419,#420);
#366=AXIS2_PLACEMENT_3D('',#493,#422,#423);
#367=AXIS2_PLACEMENT_3D('',#495,#424,#425);
#368=AXIS2_PLACEMENT_3D('',#497,#427,#428);
#369=AXIS2_PLACEMENT_3D('',#498,#429,#430);
#370=AXIS2_PLACEMENT_3D('',#500,#431,#432);
#371=AXIS2_PLACEMENT_3D('',#501,#433,#434);
#372=AXIS2_PLACEMENT_3D('',#502,#435,#436);
#373=DIRECTION('',(0.,0.,1.));
#374=DIRECTION('',(1.,0.,0.));
#375=DIRECTION('',(-1.,0.,0.));
#376=DIRECTION('',(0.,0.,1.));
#377=DIRECTION('',(0.,0.,-1.));
#378=DIRECTION('',(0.,1.,0.));
#379=DIRECTION('',(0.,0.,-1.));
#380=DIRECTION('',(0.,1.,0.));
#381=DIRECTION('',(-1.,0.,0.));
#382=DIRECTION('',(0.,0.,1.));
#383=DIRECTION('',(0.,-1.,0.));
#384=DIRECTION('',(0.,0.,-1.));
#385=DIRECTION('',(0.,1.,0.));
#386=DIRECTION('',(0.,0.,-1.));
#387=DIRECTION('',(6.44325862505671E-16,1.,0.));
#388=DIRECTION('',(-1.,6.44325862505671E-16,0.));
#389=DIRECTION('',(-3.30423519233678E-16,2.12900419022398E-31,1.));
#390=DIRECTION('',(-1.,6.44325862505671E-16,0.));
#391=DIRECTION('',(1.,-6.44325862505671E-16,0.));
#392=DIRECTION('',(0.,0.,-1.));
#393=DIRECTION('',(1.,-6.44325862505671E-16,0.));
#394=DIRECTION('',(1.,-6.44325862505671E-16,1.73472347597681E-16));
#395=DIRECTION('',(1.,0.,0.));
#396=DIRECTION('',(0.,0.,-1.));
#397=DIRECTION('',(0.,0.,-1.));
#398=DIRECTION('',(0.,-1.,0.));
#399=DIRECTION('',(0.,-1.,0.));
#400=DIRECTION('',(6.44325862505671E-16,-1.,0.));
#401=DIRECTION('',(1.,6.44325862505671E-16,0.));
#402=DIRECTION('',(-1.,-6.44325862505671E-16,0.));
#403=DIRECTION('',(-3.30423519233678E-16,-2.12900419022398E-31,1.));
#404=DIRECTION('',(1.,6.44325862505671E-16,1.73472347597681E-16));
#405=DIRECTION('',(-1.,-6.44325862505671E-16,0.));
#406=DIRECTION('',(-1.,-6.44325862505671E-16,0.));
#407=DIRECTION('',(0.,0.,-1.));
#408=DIRECTION('',(-1.,0.,0.));
#409=DIRECTION('',(0.,0.,1.));
#410=DIRECTION('',(1.,0.,0.));
#411=DIRECTION('',(0.,0.,1.));
#412=DIRECTION('',(1.,0.,0.));
#413=DIRECTION('',(0.,0.,-1.));
#414=DIRECTION('',(-1.,0.,0.));
#415=DIRECTION('',(0.,0.,-1.));
#416=DIRECTION('',(-1.,0.,0.));
#417=DIRECTION('',(0.,0.,-1.));
#418=DIRECTION('',(1.,0.,0.));
#419=DIRECTION('',(0.,0.,1.));
#420=DIRECTION('',(1.,0.,0.));
#421=DIRECTION('',(0.,1.,0.));
#422=DIRECTION('',(0.,0.,1.));
#423=DIRECTION('',(1.,0.,0.));
#424=DIRECTION('',(1.,0.,3.30423519233678E-16));
#425=DIRECTION('',(3.30423519233678E-16,0.,-1.));
#426=DIRECTION('',(0.,1.,0.));
#427=DIRECTION('',(1.73472347597681E-16,0.,-1.));
#428=DIRECTION('',(-1.,0.,-1.73472347597681E-16));
#429=DIRECTION('',(1.73472347597681E-16,0.,-1.));
#430=DIRECTION('',(-1.,0.,-1.73472347597681E-16));
#431=DIRECTION('',(0.,0.,1.));
#432=DIRECTION('',(1.,0.,0.));
#433=DIRECTION('',(0.,0.,-1.));
#434=DIRECTION('',(-1.,0.,0.));
#435=DIRECTION('',(0.,0.,1.));
#436=DIRECTION('',(1.,0.,0.));
#437=CARTESIAN_POINT('',(0.,0.,0.));
#438=CARTESIAN_POINT('',(-20.,-15.,10.));
#439=CARTESIAN_POINT('',(-20.,15.,10.));
#440=CARTESIAN_POINT('',(-20.,15.,10.));
#441=CARTESIAN_POINT('',(-20.,15.,0.));
#442=CARTESIAN_POINT('',(-20.,-15.,0.));
#443=CARTESIAN_POINT('',(-20.,-15.,0.));
#444=CARTESIAN_POINT('',(-20.,-15.,10.));
#445=CARTESIAN_POINT('',(-20.,-15.,10.));
#446=CARTESIAN_POINT('',(-20.,-15.,10.));
#447=CARTESIAN_POINT('',(-20.,-15.,10.));
#448=CARTESIAN_POINT('',(-20.,-15.,-10.5));
#449=CARTESIAN_POINT('',(-20.,15.,-10.5));
#450=CARTESIAN_POINT('',(-20.,-15.,-10.5));
#451=CARTESIAN_POINT('',(-20.,15.,10.));
#452=CARTESIAN_POINT('',(-20.,15.,-15.));
#453=CARTESIAN_POINT('',(-20.,-15.,-15.));
#454=CARTESIAN_POINT('',(-20.,-15.,-15.));
#455=CARTESIAN_POINT('',(-20.,-15.,10.));
#456=CARTESIAN_POINT('',(-20.,15.,10.));
#457=CARTESIAN_POINT('',(20.5,14.9999999999999,10.));
#458=CARTESIAN_POINT('',(20.5,15.,-10.5));
#459=CARTESIAN_POINT('',(20.5,14.9999999999999,0.));
#460=CARTESIAN_POINT('',(-20.,15.,0.));
#461=CARTESIAN_POINT('',(-20.,15.,10.));
#462=CARTESIAN_POINT('',(50.,14.9999999999999,10.));
#463=CARTESIAN_POINT('',(50.,14.9999999999999,10.));
#464=CARTESIAN_POINT('',(50.,14.9999999999999,-15.));
#465=CARTESIAN_POINT('',(-20.,15.,-15.));
#466=CARTESIAN_POINT('',(-20.,15.,-10.5));
#467=CARTESIAN_POINT('',(50.,14.9999999999999,10.));
#468=CARTESIAN_POINT('',(50.,-14.9999999999999,10.));
#469=CARTESIAN_POINT('',(50.,-14.9999999999999,10.));
#470=CARTESIAN_POINT('',(50.,-14.9999999999999,-15.));
#471=CARTESIAN_POINT('',(50.,14.9999999999999,-15.));
#472=CARTESIAN_POINT('',(50.,14.9999999999999,10.));
#473=CARTESIAN_POINT('',(50.,-14.9999999999999,10.));
#474=CARTESIAN_POINT('',(50.,-14.9999999999999,0.));
#475=CARTESIAN_POINT('',(20.5,-14.9999999999999,0.));
#476=CARTESIAN_POINT('',(20.5,-14.9999999999999,9.99999999999999));
#477=CARTESIAN_POINT('',(20.5,-15.,-10.5));
#478=CARTESIAN_POINT('',(50.,-14.9999999999999,-10.5));
#479=CARTESIAN_POINT('',(50.,-14.9999999999999,-15.));
#480=CARTESIAN_POINT('',(50.,-14.9999999999999,10.));
#481=CARTESIAN_POINT('',(0.,0.,10.));
#482=CARTESIAN_POINT('',(33.,0.,10.));
#483=CARTESIAN_POINT('',(41.647,0.,10.));
#484=CARTESIAN_POINT('',(-1.38777878078145E-14,0.,10.));
#485=CARTESIAN_POINT('',(8.64699999999999,0.,10.));
#486=CARTESIAN_POINT('',(0.,0.,-15.));
#487=CARTESIAN_POINT('',(33.,0.,-15.));
#488=CARTESIAN_POINT('',(24.353,0.,-15.));
#489=CARTESIAN_POINT('',(-1.38777878078145E-14,0.,-15.));
#490=CARTESIAN_POINT('',(10.25,0.,-15.));
#491=CARTESIAN_POINT('',(-29.5,-88.5734158763226,0.));
#492=CARTESIAN_POINT('',(20.5,-88.5734158763226,0.));
#493=CARTESIAN_POINT('',(-1.38777878078145E-14,0.,0.));
#494=CARTESIAN_POINT('',(8.64699999999999,0.,0.));
#495=CARTESIAN_POINT('',(20.5,-88.5734158763226,0.));
#496=CARTESIAN_POINT('',(20.5,-88.5734158763226,-10.5));
#497=CARTESIAN_POINT('',(20.5,-88.5734158763226,-10.5));
#498=CARTESIAN_POINT('',(-1.38777878078145E-14,0.,-10.5));
#499=CARTESIAN_POINT('',(-10.25,0.,-10.5));
#500=CARTESIAN_POINT('',(-1.38777878078145E-14,0.,-70.156097709407));
#501=CARTESIAN_POINT('',(-1.38777878078145E-14,0.,65.156097709407));
#502=CARTESIAN_POINT('',(33.,0.,-70.156097709407));
#503=MECHANICAL_DESIGN_GEOMETRIC_PRESENTATION_REPRESENTATION('',(#243,#244,
#245,#246,#247,#248,#249,#250,#251,#252,#253,#254,#255),#504);
#504=(
GEOMETRIC_REPRESENTATION_CONTEXT(3)
GLOBAL_UNCERTAINTY_ASSIGNED_CONTEXT((#505))
GLOBAL_UNIT_ASSIGNED_CONTEXT((#508,#507,#506))
REPRESENTATION_CONTEXT('noix déport chariot','TOP_LEVEL_ASSEMBLY_PART')
);
#505=UNCERTAINTY_MEASURE_WITH_UNIT(LENGTH_MEASURE(0.005),#508,
'DISTANCE_ACCURACY_VALUE','Maximum Tolerance applied to model');
#506=(
NAMED_UNIT(*)
SI_UNIT($,.STERADIAN.)
SOLID_ANGLE_UNIT()
);
#507=(
NAMED_UNIT(*)
PLANE_ANGLE_UNIT()
SI_UNIT($,.RADIAN.)
);
#508=(
LENGTH_UNIT()
NAMED_UNIT(*)
SI_UNIT(.MILLI.,.METRE.)
);
#509=PRODUCT_DEFINITION_SHAPE('','',#510);
#510=PRODUCT_DEFINITION('','',#512,#511);
#511=PRODUCT_DEFINITION_CONTEXT('',#518,'design');
#512=PRODUCT_DEFINITION_FORMATION_WITH_SPECIFIED_SOURCE('','',#514,
 .NOT_KNOWN.);
#513=PRODUCT_RELATED_PRODUCT_CATEGORY('','',(#514));
#514=PRODUCT('noix déport chariot','noix déport chariot',
'noix déport chariot',(#516));
#515=PRODUCT_CATEGORY('','');
#516=PRODUCT_CONTEXT('',#518,'mechanical');
#517=APPLICATION_PROTOCOL_DEFINITION('international standard',
'automotive_design',2010,#518);
#518=APPLICATION_CONTEXT(
'core data for automotive mechanical design processes');
ENDSEC;
END-ISO-10303-21;
