ISO-10303-21;
HEADER;
FILE_DESCRIPTION (( 'STEP AP203' ),
    '1' );
FILE_NAME ('contact.STEP',
    '2018-03-27T15:09:47',
    ( '' ),
    ( '' ),
    'SwSTEP 2.0',
    'SolidWorks 2016',
    '' );
FILE_SCHEMA (( 'CONFIG_CONTROL_DESIGN' ));
ENDSEC;

DATA;
#1 = ORIENTED_EDGE ( 'NONE', *, *, #116, .F. ) ;
#2 = LINE ( 'NONE', #224, #83 ) ;
#3 = PRODUCT_DEFINITION_SHAPE ( 'NONE', 'NONE',  #97 ) ;
#4 = CARTESIAN_POINT ( 'NONE',  ( 0.0000000000000000000, 0.0000000000000000000, 0.0000000000000000000 ) ) ;
#5 = VECTOR ( 'NONE', #183, 1000.000000000000000 ) ;
#6 = COORDINATED_UNIVERSAL_TIME_OFFSET ( 1, 0, .AHEAD. ) ;
#7 = DIRECTION ( 'NONE',  ( -0.0000000000000000000, -0.0000000000000000000, -1.000000000000000000 ) ) ;
#8 = PERSON_AND_ORGANIZATION_ROLE ( 'classification_officer' ) ;
#9 = MANIFOLD_SOLID_BREP ( 'Boss.-Extru.1', #65 ) ;
#10 = APPROVAL_DATE_TIME ( #49, #109 ) ;
#11 = DIRECTION ( 'NONE',  ( -1.000000000000000000, -0.0000000000000000000, -0.0000000000000000000 ) ) ;
#12 = FACE_OUTER_BOUND ( 'NONE', #129, .T. ) ;
#13 = VECTOR ( 'NONE', #213, 1000.000000000000000 ) ;
#14 = COORDINATED_UNIVERSAL_TIME_OFFSET ( 1, 0, .AHEAD. ) ;
#15 = APPROVAL_PERSON_ORGANIZATION ( #58, #109, #128 ) ;
#16 = VECTOR ( 'NONE', #7, 1000.000000000000000 ) ;
#17 = DATE_AND_TIME ( #60, #111 ) ;
#18 = ORIENTED_EDGE ( 'NONE', *, *, #173, .T. ) ;
#19 = DIRECTION ( 'NONE',  ( -0.0000000000000000000, 0.0000000000000000000, 1.000000000000000000 ) ) ;
#20 = VECTOR ( 'NONE', #135, 1000.000000000000000 ) ;
#21 = PERSON_AND_ORGANIZATION ( #87, #110 ) ;
#22 = PLANE ( 'NONE',  #120 ) ;
#23 = VERTEX_POINT ( 'NONE', #74 ) ;
#24 = CARTESIAN_POINT ( 'NONE',  ( 0.0000000000000000000, 0.0000000000000000000, 2.500000000000000000 ) ) ;
#25 = CARTESIAN_POINT ( 'NONE',  ( -7.999999999999998200, -4.499999999999999100, 2.500000000000000000 ) ) ;
#26 = CARTESIAN_POINT ( 'NONE',  ( 7.999999999999998200, 4.499999999999999100, 2.500000000000000000 ) ) ;
#27 = AXIS2_PLACEMENT_3D ( 'NONE', #24, #55, #153 ) ;
#28 = DIRECTION ( 'NONE',  ( -0.0000000000000000000, -0.0000000000000000000, -1.000000000000000000 ) ) ;
#29 = VERTEX_POINT ( 'NONE', #147 ) ;
#30 = EDGE_LOOP ( 'NONE', ( #34, #124, #81, #187 ) ) ;
#31 = AXIS2_PLACEMENT_3D ( 'NONE', #179, #56, #154 ) ;
#32 = ORIENTED_EDGE ( 'NONE', *, *, #225, .T. ) ;
#33 = PLANE ( 'NONE',  #79 ) ;
#34 = ORIENTED_EDGE ( 'NONE', *, *, #105, .T. ) ;
#35 = DIRECTION ( 'NONE',  ( 0.0000000000000000000, -1.000000000000000000, 0.0000000000000000000 ) ) ;
#36 = CARTESIAN_POINT ( 'NONE',  ( -7.999999999999998200, 4.499999999999999100, 2.500000000000000000 ) ) ;
#37 = EDGE_LOOP ( 'NONE', ( #188, #78, #232, #134 ) ) ;
#38 = LINE ( 'NONE', #36, #191 ) ;
#39 = CARTESIAN_POINT ( 'NONE',  ( -7.999999999999998200, -4.499999999999999100, -2.500000000000000000 ) ) ;
#40 = ORIENTED_EDGE ( 'NONE', *, *, #220, .F. ) ;
#41 = APPROVAL_STATUS ( 'not_yet_approved' ) ;
#42 = CARTESIAN_POINT ( 'NONE',  ( -7.999999999999998200, 4.499999999999999100, 2.500000000000000000 ) ) ;
#43 = DIRECTION ( 'NONE',  ( -0.0000000000000000000, 0.0000000000000000000, -1.000000000000000000 ) ) ;
#44 = VECTOR ( 'NONE', #28, 1000.000000000000000 ) ;
#45 = APPROVAL_DATE_TIME ( #95, #126 ) ;
#46 = LINE ( 'NONE', #98, #5 ) ;
#47 = APPROVAL_PERSON_ORGANIZATION ( #100, #126, #115 ) ;
#48 = APPLICATION_CONTEXT ( 'configuration controlled 3d designs of mechanical parts and assemblies' ) ;
#49 = DATE_AND_TIME ( #102, #159 ) ;
#50 = AXIS2_PLACEMENT_3D ( 'NONE', #91, #76, #197 ) ;
#51 = DIRECTION ( 'NONE',  ( -1.000000000000000000, -0.0000000000000000000, -0.0000000000000000000 ) ) ;
#52 = LINE ( 'NONE', #39, #13 ) ;
#53 = PERSON_AND_ORGANIZATION ( #87, #110 ) ;
#54 = APPROVAL_STATUS ( 'not_yet_approved' ) ;
#55 = DIRECTION ( 'NONE',  ( -0.0000000000000000000, 0.0000000000000000000, 1.000000000000000000 ) ) ;
#56 = DIRECTION ( 'NONE',  ( -1.000000000000000000, 0.0000000000000000000, 0.0000000000000000000 ) ) ;
#57 = PLANE ( 'NONE',  #31 ) ;
#58 = PERSON_AND_ORGANIZATION ( #87, #110 ) ;
#59 = VECTOR ( 'NONE', #170, 1000.000000000000000 ) ;
#60 = CALENDAR_DATE ( 2018, 27, 3 ) ;
#61 = ADVANCED_FACE ( 'NONE', ( #12 ), #96, .F. ) ;
#62 = EDGE_CURVE ( 'NONE', #29, #231, #99, .T. ) ;
#63 = LINE ( 'NONE', #157, #20 ) ;
#64 = DATE_AND_TIME ( #119, #174 ) ;
#65 = CLOSED_SHELL ( 'NONE', ( #163, #61, #217, #80, #237, #139 ) ) ;
#66 = CARTESIAN_POINT ( 'NONE',  ( -7.999999999999998200, 4.499999999999999100, -2.500000000000000000 ) ) ;
#67 = AXIS2_PLACEMENT_3D ( 'NONE', #4, #88, #207 ) ;
#68 = APPLICATION_CONTEXT ( 'configuration controlled 3d designs of mechanical parts and assemblies' ) ;
#69 = ORIENTED_EDGE ( 'NONE', *, *, #215, .F. ) ;
#70 = PERSON_AND_ORGANIZATION_ROLE ( 'creator' ) ;
#71 = CARTESIAN_POINT ( 'NONE',  ( 7.999999999999998200, 4.499999999999999100, -2.500000000000000000 ) ) ;
#72 = ORIENTED_EDGE ( 'NONE', *, *, #105, .F. ) ;
#73 = CC_DESIGN_PERSON_AND_ORGANIZATION_ASSIGNMENT ( #104, #227, ( #165 ) ) ;
#74 = CARTESIAN_POINT ( 'NONE',  ( -7.999999999999998200, 4.499999999999999100, 2.500000000000000000 ) ) ;
#75 = CARTESIAN_POINT ( 'NONE',  ( -7.999999999999998200, 4.499999999999999100, 2.500000000000000000 ) ) ;
#76 = DIRECTION ( 'NONE',  ( 0.0000000000000000000, -1.000000000000000000, 0.0000000000000000000 ) ) ;
#77 = VERTEX_POINT ( 'NONE', #130 ) ;
#78 = ORIENTED_EDGE ( 'NONE', *, *, #103, .F. ) ;
#79 = AXIS2_PLACEMENT_3D ( 'NONE', #75, #160, #43 ) ;
#80 = ADVANCED_FACE ( 'NONE', ( #149 ), #210, .F. ) ;
#81 = ORIENTED_EDGE ( 'NONE', *, *, #173, .F. ) ;
#82 = CC_DESIGN_PERSON_AND_ORGANIZATION_ASSIGNMENT ( #107, #226, ( #145 ) ) ;
#83 = VECTOR ( 'NONE', #205, 1000.000000000000000 ) ;
#84 = ORIENTED_EDGE ( 'NONE', *, *, #225, .F. ) ;
#85 = SECURITY_CLASSIFICATION ( '', '', #108 ) ;
#86 = CARTESIAN_POINT ( 'NONE',  ( 7.999999999999998200, 4.499999999999999100, 2.500000000000000000 ) ) ;
#87 = PERSON ( 'UNSPECIFIED', 'UNSPECIFIED', 'UNSPECIFIED', ('UNSPECIFIED'), ('UNSPECIFIED'), ('UNSPECIFIED') ) ;
#88 = DIRECTION ( 'NONE',  ( 0.0000000000000000000, 0.0000000000000000000, 1.000000000000000000 ) ) ;
#89 = CARTESIAN_POINT ( 'NONE',  ( -7.999999999999998200, 4.499999999999999100, 2.500000000000000000 ) ) ;
#90 = ORIENTED_EDGE ( 'NONE', *, *, #62, .T. ) ;
#91 = CARTESIAN_POINT ( 'NONE',  ( -7.999999999999998200, 4.499999999999999100, 2.500000000000000000 ) ) ;
#92 = FACE_OUTER_BOUND ( 'NONE', #30, .T. ) ;
#93 = EDGE_CURVE ( 'NONE', #223, #221, #46, .T. ) ;
#94 = APPLICATION_PROTOCOL_DEFINITION ( 'international standard', 'config_control_design', 1994, #48 ) ;
#95 = DATE_AND_TIME ( #143, #199 ) ;
#96 = PLANE ( 'NONE',  #235 ) ;
#97 = PRODUCT_DEFINITION ( 'UNKNOWN', '', #165, #133 ) ;
#98 = CARTESIAN_POINT ( 'NONE',  ( -7.999999999999998200, -4.499999999999999100, 2.500000000000000000 ) ) ;
#99 = LINE ( 'NONE', #118, #201 ) ;
#100 = PERSON_AND_ORGANIZATION ( #87, #110 ) ;
#101 = CC_DESIGN_PERSON_AND_ORGANIZATION_ASSIGNMENT ( #53, #8, ( #85 ) ) ;
#102 = CALENDAR_DATE ( 2018, 27, 3 ) ;
#103 = EDGE_CURVE ( 'NONE', #23, #125, #142, .T. ) ;
#104 = PERSON_AND_ORGANIZATION ( #87, #110 ) ;
#105 = EDGE_CURVE ( 'NONE', #125, #221, #198, .T. ) ;
#106 = MECHANICAL_CONTEXT ( 'NONE', #48, 'mechanical' ) ;
#107 = PERSON_AND_ORGANIZATION ( #87, #110 ) ;
#108 = SECURITY_CLASSIFICATION_LEVEL ( 'unclassified' ) ;
#109 = APPROVAL ( #146, 'UNSPECIFIED' ) ;
#110 = ORGANIZATION ( 'UNSPECIFIED', 'UNSPECIFIED', '' ) ;
#111 = LOCAL_TIME ( 17, 9, 47.00000000000000000, #167 ) ;
#112 =( NAMED_UNIT ( * ) SI_UNIT ( $, .STERADIAN. ) SOLID_ANGLE_UNIT ( ) );
#113 = CARTESIAN_POINT ( 'NONE',  ( 7.999999999999998200, 4.499999999999999100, 2.500000000000000000 ) ) ;
#114 = CC_DESIGN_DATE_AND_TIME_ASSIGNMENT ( #150, #155, ( #85 ) ) ;
#115 = APPROVAL_ROLE ( '' ) ;
#116 = EDGE_CURVE ( 'NONE', #77, #29, #2, .T. ) ;
#117 = LINE ( 'NONE', #196, #166 ) ;
#118 = CARTESIAN_POINT ( 'NONE',  ( 7.999999999999998200, 4.499999999999999100, -2.500000000000000000 ) ) ;
#119 = CALENDAR_DATE ( 2018, 27, 3 ) ;
#120 = AXIS2_PLACEMENT_3D ( 'NONE', #127, #19, #144 ) ;
#121 = ORIENTED_EDGE ( 'NONE', *, *, #215, .T. ) ;
#122 = VERTEX_POINT ( 'NONE', #86 ) ;
#123 = CC_DESIGN_APPROVAL ( #109, ( #97 ) ) ;
#124 = ORIENTED_EDGE ( 'NONE', *, *, #93, .F. ) ;
#125 = VERTEX_POINT ( 'NONE', #66 ) ;
#126 = APPROVAL ( #41, 'UNSPECIFIED' ) ;
#127 = CARTESIAN_POINT ( 'NONE',  ( 0.0000000000000000000, 0.0000000000000000000, -2.500000000000000000 ) ) ;
#128 = APPROVAL_ROLE ( '' ) ;
#129 = EDGE_LOOP ( 'NONE', ( #32, #1, #222, #184 ) ) ;
#130 = CARTESIAN_POINT ( 'NONE',  ( 7.999999999999998200, -4.499999999999999100, 2.500000000000000000 ) ) ;
#131 =( LENGTH_UNIT ( ) NAMED_UNIT ( * ) SI_UNIT ( .MILLI., .METRE. ) );
#132 = CARTESIAN_POINT ( 'NONE',  ( -7.999999999999998200, -4.499999999999999100, -2.500000000000000000 ) ) ;
#133 = DESIGN_CONTEXT ( 'detailed design', #68, 'design' ) ;
#134 = ORIENTED_EDGE ( 'NONE', *, *, #220, .T. ) ;
#135 = DIRECTION ( 'NONE',  ( 1.000000000000000000, 0.0000000000000000000, 0.0000000000000000000 ) ) ;
#136 = CC_DESIGN_PERSON_AND_ORGANIZATION_ASSIGNMENT ( #200, #177, ( #97 ) ) ;
#137 = FACE_OUTER_BOUND ( 'NONE', #176, .T. ) ;
#138 = EDGE_LOOP ( 'NONE', ( #90, #40, #69, #189 ) ) ;
#139 = ADVANCED_FACE ( 'NONE', ( #137 ), #22, .F. ) ;
#140 = CC_DESIGN_APPROVAL ( #126, ( #85 ) ) ;
#141 = ORIENTED_EDGE ( 'NONE', *, *, #62, .F. ) ;
#142 = LINE ( 'NONE', #42, #44 ) ;
#143 = CALENDAR_DATE ( 2018, 27, 3 ) ;
#144 = DIRECTION ( 'NONE',  ( 1.000000000000000000, 0.0000000000000000000, 0.0000000000000000000 ) ) ;
#145 = PRODUCT ( 'contact', 'contact', '', ( #106 ) ) ;
#146 = APPROVAL_STATUS ( 'not_yet_approved' ) ;
#147 = CARTESIAN_POINT ( 'NONE',  ( 7.999999999999998200, -4.499999999999999100, -2.500000000000000000 ) ) ;
#148 = CC_DESIGN_DATE_AND_TIME_ASSIGNMENT ( #64, #171, ( #97 ) ) ;
#149 = FACE_OUTER_BOUND ( 'NONE', #37, .T. ) ;
#150 = DATE_AND_TIME ( #152, #204 ) ;
#151 = SHAPE_DEFINITION_REPRESENTATION ( #3, #206 ) ;
#152 = CALENDAR_DATE ( 2018, 27, 3 ) ;
#153 = DIRECTION ( 'NONE',  ( 1.000000000000000000, 0.0000000000000000000, 0.0000000000000000000 ) ) ;
#154 = DIRECTION ( 'NONE',  ( 0.0000000000000000000, 0.0000000000000000000, 1.000000000000000000 ) ) ;
#155 = DATE_TIME_ROLE ( 'classification_date' ) ;
#156 = CC_DESIGN_SECURITY_CLASSIFICATION ( #85, ( #165 ) ) ;
#157 = CARTESIAN_POINT ( 'NONE',  ( -7.999999999999998200, -4.499999999999999100, 2.500000000000000000 ) ) ;
#158 = CARTESIAN_POINT ( 'NONE',  ( -7.999999999999998200, 4.499999999999999100, -2.500000000000000000 ) ) ;
#159 = LOCAL_TIME ( 17, 9, 47.00000000000000000, #208 ) ;
#160 = DIRECTION ( 'NONE',  ( 1.000000000000000000, 0.0000000000000000000, -0.0000000000000000000 ) ) ;
#161 = LINE ( 'NONE', #113, #16 ) ;
#162 = PERSON_AND_ORGANIZATION ( #87, #110 ) ;
#163 = ADVANCED_FACE ( 'NONE', ( #92 ), #33, .F. ) ;
#164 = UNCERTAINTY_MEASURE_WITH_UNIT (LENGTH_MEASURE( 1.000000000000000100E-005 ), #131, 'distance_accuracy_value', 'NONE');
#165 = PRODUCT_DEFINITION_FORMATION_WITH_SPECIFIED_SOURCE ( 'ANY', '', #145, .NOT_KNOWN. ) ;
#166 = VECTOR ( 'NONE', #11, 1000.000000000000000 ) ;
#167 = COORDINATED_UNIVERSAL_TIME_OFFSET ( 1, 0, .AHEAD. ) ;
#168 = ORIENTED_EDGE ( 'NONE', *, *, #190, .T. ) ;
#169 = PRODUCT_RELATED_PRODUCT_CATEGORY ( 'detail', '', ( #145 ) ) ;
#170 = DIRECTION ( 'NONE',  ( -0.0000000000000000000, 1.000000000000000000, -0.0000000000000000000 ) ) ;
#171 = DATE_TIME_ROLE ( 'creation_date' ) ;
#172 = LINE ( 'NONE', #26, #59 ) ;
#173 = EDGE_CURVE ( 'NONE', #23, #223, #38, .T. ) ;
#174 = LOCAL_TIME ( 17, 9, 47.00000000000000000, #219 ) ;
#175 = DIRECTION ( 'NONE',  ( 0.0000000000000000000, 1.000000000000000000, 0.0000000000000000000 ) ) ;
#176 = EDGE_LOOP ( 'NONE', ( #72, #228, #141, #84 ) ) ;
#177 = PERSON_AND_ORGANIZATION_ROLE ( 'creator' ) ;
#178 = PLANE ( 'NONE',  #27 ) ;
#179 = CARTESIAN_POINT ( 'NONE',  ( 7.999999999999998200, 4.499999999999999100, 2.500000000000000000 ) ) ;
#180 = ORIENTED_EDGE ( 'NONE', *, *, #181, .T. ) ;
#181 = EDGE_CURVE ( 'NONE', #122, #23, #233, .T. ) ;
#182 = DIRECTION ( 'NONE',  ( 0.0000000000000000000, -0.0000000000000000000, 1.000000000000000000 ) ) ;
#183 = DIRECTION ( 'NONE',  ( -0.0000000000000000000, -0.0000000000000000000, -1.000000000000000000 ) ) ;
#184 = ORIENTED_EDGE ( 'NONE', *, *, #93, .T. ) ;
#185 = APPROVAL ( #54, 'UNSPECIFIED' ) ;
#186 = DIRECTION ( 'NONE',  ( 0.0000000000000000000, -1.000000000000000000, 0.0000000000000000000 ) ) ;
#187 = ORIENTED_EDGE ( 'NONE', *, *, #103, .T. ) ;
#188 = ORIENTED_EDGE ( 'NONE', *, *, #209, .T. ) ;
#189 = ORIENTED_EDGE ( 'NONE', *, *, #116, .T. ) ;
#190 = EDGE_CURVE ( 'NONE', #223, #77, #63, .T. ) ;
#191 = VECTOR ( 'NONE', #186, 1000.000000000000000 ) ;
#192 =( GEOMETRIC_REPRESENTATION_CONTEXT ( 3 ) GLOBAL_UNCERTAINTY_ASSIGNED_CONTEXT ( ( #164 ) ) GLOBAL_UNIT_ASSIGNED_CONTEXT ( ( #131, #230, #112 ) ) REPRESENTATION_CONTEXT ( 'NONE', 'WORKASPACE' ) );
#193 = CC_DESIGN_APPROVAL ( #185, ( #165 ) ) ;
#194 = VECTOR ( 'NONE', #35, 1000.000000000000000 ) ;
#195 = APPROVAL_ROLE ( '' ) ;
#196 = CARTESIAN_POINT ( 'NONE',  ( -7.999999999999998200, 4.499999999999999100, -2.500000000000000000 ) ) ;
#197 = DIRECTION ( 'NONE',  ( 0.0000000000000000000, -0.0000000000000000000, -1.000000000000000000 ) ) ;
#198 = LINE ( 'NONE', #158, #194 ) ;
#199 = LOCAL_TIME ( 17, 9, 47.00000000000000000, #6 ) ;
#200 = PERSON_AND_ORGANIZATION ( #87, #110 ) ;
#201 = VECTOR ( 'NONE', #234, 1000.000000000000000 ) ;
#202 = CC_DESIGN_PERSON_AND_ORGANIZATION_ASSIGNMENT ( #162, #70, ( #165 ) ) ;
#203 = FACE_OUTER_BOUND ( 'NONE', #236, .T. ) ;
#204 = LOCAL_TIME ( 17, 9, 47.00000000000000000, #14 ) ;
#205 = DIRECTION ( 'NONE',  ( -0.0000000000000000000, -0.0000000000000000000, -1.000000000000000000 ) ) ;
#206 = ADVANCED_BREP_SHAPE_REPRESENTATION ( 'contact', ( #9, #67 ), #192 ) ;
#207 = DIRECTION ( 'NONE',  ( 1.000000000000000000, 0.0000000000000000000, 0.0000000000000000000 ) ) ;
#208 = COORDINATED_UNIVERSAL_TIME_OFFSET ( 1, 0, .AHEAD. ) ;
#209 = EDGE_CURVE ( 'NONE', #231, #125, #117, .T. ) ;
#210 = PLANE ( 'NONE',  #50 ) ;
#211 = FACE_OUTER_BOUND ( 'NONE', #138, .T. ) ;
#212 = APPROVAL_DATE_TIME ( #17, #185 ) ;
#213 = DIRECTION ( 'NONE',  ( 1.000000000000000000, 0.0000000000000000000, 0.0000000000000000000 ) ) ;
#214 = CARTESIAN_POINT ( 'NONE',  ( -7.999999999999998200, -4.499999999999999100, 2.500000000000000000 ) ) ;
#215 = EDGE_CURVE ( 'NONE', #77, #122, #172, .T. ) ;
#216 = APPROVAL_PERSON_ORGANIZATION ( #21, #185, #195 ) ;
#217 = ADVANCED_FACE ( 'NONE', ( #211 ), #57, .F. ) ;
#218 = VECTOR ( 'NONE', #51, 1000.000000000000000 ) ;
#219 = COORDINATED_UNIVERSAL_TIME_OFFSET ( 1, 0, .AHEAD. ) ;
#220 = EDGE_CURVE ( 'NONE', #122, #231, #161, .T. ) ;
#221 = VERTEX_POINT ( 'NONE', #132 ) ;
#222 = ORIENTED_EDGE ( 'NONE', *, *, #190, .F. ) ;
#223 = VERTEX_POINT ( 'NONE', #25 ) ;
#224 = CARTESIAN_POINT ( 'NONE',  ( 7.999999999999998200, -4.499999999999999100, 2.500000000000000000 ) ) ;
#225 = EDGE_CURVE ( 'NONE', #221, #29, #52, .T. ) ;
#226 = PERSON_AND_ORGANIZATION_ROLE ( 'design_owner' ) ;
#227 = PERSON_AND_ORGANIZATION_ROLE ( 'design_supplier' ) ;
#228 = ORIENTED_EDGE ( 'NONE', *, *, #209, .F. ) ;
#229 = APPLICATION_PROTOCOL_DEFINITION ( 'international standard', 'config_control_design', 1994, #68 ) ;
#230 =( NAMED_UNIT ( * ) PLANE_ANGLE_UNIT ( ) SI_UNIT ( $, .RADIAN. ) );
#231 = VERTEX_POINT ( 'NONE', #71 ) ;
#232 = ORIENTED_EDGE ( 'NONE', *, *, #181, .F. ) ;
#233 = LINE ( 'NONE', #89, #218 ) ;
#234 = DIRECTION ( 'NONE',  ( -0.0000000000000000000, 1.000000000000000000, -0.0000000000000000000 ) ) ;
#235 = AXIS2_PLACEMENT_3D ( 'NONE', #214, #175, #182 ) ;
#236 = EDGE_LOOP ( 'NONE', ( #18, #168, #121, #180 ) ) ;
#237 = ADVANCED_FACE ( 'NONE', ( #203 ), #178, .T. ) ;
ENDSEC;
END-ISO-10303-21;
