ISO-10303-21;
HEADER;
FILE_DESCRIPTION(('CATIA V5 STEP'),'2;1');

FILE_NAME('C:\\Users\\Micka\X2\00EB\X0\l Frotin\\Documents\\projet_imprimante3D\\CAO\\double extrution V6\\Coupler PEEK_6Maker_v1.stp','2018-01-30T16:53:59+00:00',('none'),('none'),'CATIA Version 5 Release 21 GA (IN-10)','CATIA V5 STEP AP203','none');

FILE_SCHEMA(('CONFIG_CONTROL_DESIGN'));

ENDSEC;
/* file written by CATIA V5R21 */
DATA;
#5=PRODUCT('Coupler peek_6Maker.1','Mickael Hot End Isolator Coupler','Mickael Hot End Isolator Coupler',(#2)) ;
#1=APPLICATION_CONTEXT('configuration controlled 3D design of mechanical parts and assemblies') ;
#14=PRODUCT_DEFINITION('Mickael Hot End Isolator Coupler',' ',#6,#3) ;
#16=SECURITY_CLASSIFICATION(' ',' ',#15) ;
#15=SECURITY_CLASSIFICATION_LEVEL('unclassified') ;
#47=CARTESIAN_POINT(' ',(0.,0.,0.)) ;
#52=CARTESIAN_POINT('Axis2P3D Location',(0.,9.25000000002,0.)) ;
#57=CARTESIAN_POINT('Line Origine',(-2.15007727663,4.75,1.17459256958)) ;
#61=CARTESIAN_POINT('Vertex',(-2.15007727663,0.,1.17459256958)) ;
#63=CARTESIAN_POINT('Vertex',(-2.15007727663,9.5,1.17459256958)) ;
#66=CARTESIAN_POINT('Axis2P3D Location',(0.,9.5,0.)) ;
#70=CARTESIAN_POINT('Vertex',(2.15007727663,9.5,-1.17459256958)) ;
#73=CARTESIAN_POINT('Line Origine',(2.15007727663,4.75,-1.17459256958)) ;
#77=CARTESIAN_POINT('Vertex',(2.15007727663,0.,-1.17459256958)) ;
#80=CARTESIAN_POINT('Axis2P3D Location',(0.,0.,0.)) ;
#92=CARTESIAN_POINT('Axis2P3D Location',(0.,9.5,0.)) ;
#97=CARTESIAN_POINT('Axis2P3D Location',(0.,0.,0.)) ;
#109=CARTESIAN_POINT('Axis2P3D Location',(0.,9.25000000002,0.)) ;
#114=CARTESIAN_POINT('Line Origine',(-4.8267040904,11.75,2.63684046232)) ;
#118=CARTESIAN_POINT('Vertex',(-4.8267040904,9.5,2.63684046232)) ;
#120=CARTESIAN_POINT('Vertex',(-4.8267040904,14.,2.63684046232)) ;
#123=CARTESIAN_POINT('Axis2P3D Location',(0.,14.,0.)) ;
#127=CARTESIAN_POINT('Vertex',(4.8267040904,14.,-2.63684046232)) ;
#130=CARTESIAN_POINT('Line Origine',(4.8267040904,11.75,-2.63684046232)) ;
#134=CARTESIAN_POINT('Vertex',(4.8267040904,9.5,-2.63684046232)) ;
#137=CARTESIAN_POINT('Axis2P3D Location',(0.,9.5,0.)) ;
#149=CARTESIAN_POINT('Axis2P3D Location',(0.,14.,0.)) ;
#154=CARTESIAN_POINT('Axis2P3D Location',(0.,9.5,0.)) ;
#166=CARTESIAN_POINT('Axis2P3D Location',(0.,9.25000000002,0.)) ;
#171=CARTESIAN_POINT('Line Origine',(-3.51033024756,16.25,1.91770215442)) ;
#175=CARTESIAN_POINT('Vertex',(-3.51033024756,14.,1.91770215442)) ;
#177=CARTESIAN_POINT('Vertex',(-3.51033024756,18.5,1.91770215442)) ;
#180=CARTESIAN_POINT('Axis2P3D Location',(0.,18.5,0.)) ;
#184=CARTESIAN_POINT('Vertex',(3.51033024756,18.5,-1.91770215442)) ;
#187=CARTESIAN_POINT('Line Origine',(3.51033024756,16.25,-1.91770215442)) ;
#191=CARTESIAN_POINT('Vertex',(3.51033024756,14.,-1.91770215442)) ;
#194=CARTESIAN_POINT('Axis2P3D Location',(0.,14.,0.)) ;
#206=CARTESIAN_POINT('Axis2P3D Location',(0.,18.5,0.)) ;
#211=CARTESIAN_POINT('Axis2P3D Location',(0.,14.,0.)) ;
#223=CARTESIAN_POINT('Axis2P3D Location',(0.,9.25000000002,0.)) ;
#228=CARTESIAN_POINT('Line Origine',(-2.89602245424,16.75,1.58210427739)) ;
#232=CARTESIAN_POINT('Vertex',(-2.89602245424,18.5,1.58210427739)) ;
#234=CARTESIAN_POINT('Vertex',(-2.89602245424,15.,1.58210427739)) ;
#237=CARTESIAN_POINT('Axis2P3D Location',(0.,15.,0.)) ;
#241=CARTESIAN_POINT('Vertex',(2.89602245424,15.,-1.58210427739)) ;
#244=CARTESIAN_POINT('Line Origine',(2.89602245424,16.75,-1.58210427739)) ;
#248=CARTESIAN_POINT('Vertex',(2.89602245424,18.5,-1.58210427739)) ;
#251=CARTESIAN_POINT('Axis2P3D Location',(0.,18.5,0.)) ;
#263=CARTESIAN_POINT('Axis2P3D Location',(0.,15.,0.)) ;
#268=CARTESIAN_POINT('Axis2P3D Location',(0.,18.5,0.)) ;
#280=CARTESIAN_POINT('Axis2P3D Location',(1.5,9.04027463537E-016,0.)) ;
#289=CARTESIAN_POINT('Axis2P3D Location',(0.,9.04027463537E-016,0.)) ;
#293=CARTESIAN_POINT('Vertex',(-1.31637384284,0.,0.719138307906)) ;
#295=CARTESIAN_POINT('Vertex',(1.31637384284,0.,-0.719138307906)) ;
#298=CARTESIAN_POINT('Axis2P3D Location',(0.,9.04027463537E-016,0.)) ;
#308=CARTESIAN_POINT('Axis2P3D Location',(5.5,9.5,0.)) ;
#322=CARTESIAN_POINT('Axis2P3D Location',(4.,14.,0.)) ;
#336=CARTESIAN_POINT('Axis2P3D Location',(3.3,18.5,0.)) ;
#350=CARTESIAN_POINT('Axis2P3D Location',(0.,9.25000000002,0.)) ;
#355=CARTESIAN_POINT('Axis2P3D Location',(0.,14.5,0.)) ;
#359=CARTESIAN_POINT('Vertex',(1.31637384284,14.5,-0.719138307906)) ;
#361=CARTESIAN_POINT('Vertex',(-1.31637384284,14.5,0.719138307906)) ;
#364=CARTESIAN_POINT('Line Origine',(-1.31637384284,7.5,0.719138307906)) ;
#369=CARTESIAN_POINT('Line Origine',(1.31637384284,7.5,-0.719138307906)) ;
#381=CARTESIAN_POINT('Axis2P3D Location',(0.,14.5,0.)) ;
#393=CARTESIAN_POINT('Axis2P3D Location',(1.5,15.,0.)) ;
#402=CARTESIAN_POINT('Axis2P3D Location',(6.66133814775E-016,15.,8.54650082837E-017)) ;
#406=CARTESIAN_POINT('Vertex',(1.75516512378,15.,-0.958851077208)) ;
#408=CARTESIAN_POINT('Vertex',(-1.75516512378,15.,0.958851077208)) ;
#411=CARTESIAN_POINT('Axis2P3D Location',(6.66133814775E-016,15.,8.54650082837E-017)) ;
#421=CARTESIAN_POINT('Axis2P3D Location',(1.11022302463E-016,13.,2.05391259556E-015)) ;
#426=CARTESIAN_POINT('Line Origine',(-1.53576948331,14.75,0.838994692557)) ;
#431=CARTESIAN_POINT('Line Origine',(1.53576948331,14.75,-0.838994692557)) ;
#443=CARTESIAN_POINT('Axis2P3D Location',(-4.64905891562E-016,13.,6.66133814775E-016)) ;
#53=DIRECTION('Axis2P3D Direction',(0.,1.,0.)) ;
#54=DIRECTION('Axis2P3D XDirection',(0.87758256189,0.,-0.479425538604)) ;
#58=DIRECTION('Vector Direction',(0.,1.,0.)) ;
#67=DIRECTION('Axis2P3D Direction',(0.,1.,0.)) ;
#74=DIRECTION('Vector Direction',(0.,1.,0.)) ;
#81=DIRECTION('Axis2P3D Direction',(0.,1.,0.)) ;
#93=DIRECTION('Axis2P3D Direction',(0.,1.,0.)) ;
#98=DIRECTION('Axis2P3D Direction',(0.,1.,0.)) ;
#110=DIRECTION('Axis2P3D Direction',(0.,1.,0.)) ;
#111=DIRECTION('Axis2P3D XDirection',(0.87758256189,0.,-0.479425538604)) ;
#115=DIRECTION('Vector Direction',(0.,1.,0.)) ;
#124=DIRECTION('Axis2P3D Direction',(0.,1.,0.)) ;
#131=DIRECTION('Vector Direction',(0.,1.,0.)) ;
#138=DIRECTION('Axis2P3D Direction',(0.,1.,0.)) ;
#150=DIRECTION('Axis2P3D Direction',(0.,1.,0.)) ;
#155=DIRECTION('Axis2P3D Direction',(0.,1.,0.)) ;
#167=DIRECTION('Axis2P3D Direction',(0.,1.,0.)) ;
#168=DIRECTION('Axis2P3D XDirection',(0.87758256189,0.,-0.479425538604)) ;
#172=DIRECTION('Vector Direction',(0.,1.,0.)) ;
#181=DIRECTION('Axis2P3D Direction',(0.,1.,0.)) ;
#188=DIRECTION('Vector Direction',(0.,1.,0.)) ;
#195=DIRECTION('Axis2P3D Direction',(0.,1.,0.)) ;
#207=DIRECTION('Axis2P3D Direction',(0.,1.,0.)) ;
#212=DIRECTION('Axis2P3D Direction',(0.,1.,0.)) ;
#224=DIRECTION('Axis2P3D Direction',(0.,1.,0.)) ;
#225=DIRECTION('Axis2P3D XDirection',(0.87758256189,0.,-0.479425538604)) ;
#229=DIRECTION('Vector Direction',(0.,1.,0.)) ;
#238=DIRECTION('Axis2P3D Direction',(0.,1.,0.)) ;
#245=DIRECTION('Vector Direction',(0.,1.,0.)) ;
#252=DIRECTION('Axis2P3D Direction',(0.,1.,0.)) ;
#264=DIRECTION('Axis2P3D Direction',(0.,1.,0.)) ;
#269=DIRECTION('Axis2P3D Direction',(0.,1.,0.)) ;
#281=DIRECTION('Axis2P3D Direction',(0.,1.,0.)) ;
#282=DIRECTION('Axis2P3D XDirection',(1.,-0.,0.)) ;
#290=DIRECTION('Axis2P3D Direction',(0.,1.,0.)) ;
#299=DIRECTION('Axis2P3D Direction',(0.,1.,0.)) ;
#309=DIRECTION('Axis2P3D Direction',(0.,1.,0.)) ;
#310=DIRECTION('Axis2P3D XDirection',(1.,-0.,0.)) ;
#323=DIRECTION('Axis2P3D Direction',(0.,1.,0.)) ;
#324=DIRECTION('Axis2P3D XDirection',(1.,-0.,0.)) ;
#337=DIRECTION('Axis2P3D Direction',(0.,1.,0.)) ;
#338=DIRECTION('Axis2P3D XDirection',(1.,-0.,0.)) ;
#351=DIRECTION('Axis2P3D Direction',(0.,1.,0.)) ;
#352=DIRECTION('Axis2P3D XDirection',(0.87758256189,0.,-0.479425538604)) ;
#356=DIRECTION('Axis2P3D Direction',(0.,1.,0.)) ;
#365=DIRECTION('Vector Direction',(0.,1.,0.)) ;
#370=DIRECTION('Vector Direction',(0.,1.,0.)) ;
#382=DIRECTION('Axis2P3D Direction',(0.,1.,0.)) ;
#394=DIRECTION('Axis2P3D Direction',(0.,1.,0.)) ;
#395=DIRECTION('Axis2P3D XDirection',(1.,-0.,0.)) ;
#403=DIRECTION('Axis2P3D Direction',(0.,1.,0.)) ;
#412=DIRECTION('Axis2P3D Direction',(0.,1.,0.)) ;
#422=DIRECTION('Axis2P3D Direction',(2.22044604925E-016,1.,-1.33226762955E-015)) ;
#423=DIRECTION('Axis2P3D XDirection',(-0.853985976599,-5.26835606386E-016,-0.520296023213)) ;
#427=DIRECTION('Vector Direction',(-0.620544580564,0.707106781187,0.339005049421)) ;
#432=DIRECTION('Vector Direction',(0.620544580564,0.707106781187,-0.339005049421)) ;
#444=DIRECTION('Axis2P3D Direction',(4.09394740331E-016,1.,-4.4408920985E-016)) ;
#445=DIRECTION('Axis2P3D XDirection',(0.87758256189,-6.58544507983E-016,-0.479425538604)) ;
#48=AXIS2_PLACEMENT_3D(' ',#47,$,$) ;
#55=AXIS2_PLACEMENT_3D('Cylinder Axis2P3D',#52,#53,#54) ;
#68=AXIS2_PLACEMENT_3D('Circle Axis2P3D',#66,#67,$) ;
#82=AXIS2_PLACEMENT_3D('Circle Axis2P3D',#80,#81,$) ;
#94=AXIS2_PLACEMENT_3D('Circle Axis2P3D',#92,#93,$) ;
#99=AXIS2_PLACEMENT_3D('Circle Axis2P3D',#97,#98,$) ;
#112=AXIS2_PLACEMENT_3D('Cylinder Axis2P3D',#109,#110,#111) ;
#125=AXIS2_PLACEMENT_3D('Circle Axis2P3D',#123,#124,$) ;
#139=AXIS2_PLACEMENT_3D('Circle Axis2P3D',#137,#138,$) ;
#151=AXIS2_PLACEMENT_3D('Circle Axis2P3D',#149,#150,$) ;
#156=AXIS2_PLACEMENT_3D('Circle Axis2P3D',#154,#155,$) ;
#169=AXIS2_PLACEMENT_3D('Cylinder Axis2P3D',#166,#167,#168) ;
#182=AXIS2_PLACEMENT_3D('Circle Axis2P3D',#180,#181,$) ;
#196=AXIS2_PLACEMENT_3D('Circle Axis2P3D',#194,#195,$) ;
#208=AXIS2_PLACEMENT_3D('Circle Axis2P3D',#206,#207,$) ;
#213=AXIS2_PLACEMENT_3D('Circle Axis2P3D',#211,#212,$) ;
#226=AXIS2_PLACEMENT_3D('Cylinder Axis2P3D',#223,#224,#225) ;
#239=AXIS2_PLACEMENT_3D('Circle Axis2P3D',#237,#238,$) ;
#253=AXIS2_PLACEMENT_3D('Circle Axis2P3D',#251,#252,$) ;
#265=AXIS2_PLACEMENT_3D('Circle Axis2P3D',#263,#264,$) ;
#270=AXIS2_PLACEMENT_3D('Circle Axis2P3D',#268,#269,$) ;
#283=AXIS2_PLACEMENT_3D('Plane Axis2P3D',#280,#281,#282) ;
#291=AXIS2_PLACEMENT_3D('Circle Axis2P3D',#289,#290,$) ;
#300=AXIS2_PLACEMENT_3D('Circle Axis2P3D',#298,#299,$) ;
#311=AXIS2_PLACEMENT_3D('Plane Axis2P3D',#308,#309,#310) ;
#325=AXIS2_PLACEMENT_3D('Plane Axis2P3D',#322,#323,#324) ;
#339=AXIS2_PLACEMENT_3D('Plane Axis2P3D',#336,#337,#338) ;
#353=AXIS2_PLACEMENT_3D('Cylinder Axis2P3D',#350,#351,#352) ;
#357=AXIS2_PLACEMENT_3D('Circle Axis2P3D',#355,#356,$) ;
#383=AXIS2_PLACEMENT_3D('Circle Axis2P3D',#381,#382,$) ;
#396=AXIS2_PLACEMENT_3D('Plane Axis2P3D',#393,#394,#395) ;
#404=AXIS2_PLACEMENT_3D('Circle Axis2P3D',#402,#403,$) ;
#413=AXIS2_PLACEMENT_3D('Circle Axis2P3D',#411,#412,$) ;
#424=AXIS2_PLACEMENT_3D('Cone Axis2P3D',#421,#422,#423) ;
#446=AXIS2_PLACEMENT_3D('Cone Axis2P3D',#443,#444,#445) ;
#40=PRODUCT_DEFINITION_SHAPE(' ',' ',#14) ;
#31=APPROVAL_PERSON_ORGANIZATION(#25,#21,#19) ;
#25=PERSON_AND_ORGANIZATION(#22,#23) ;
#22=PERSON(' ',' ',' ',$,$,$) ;
#23=ORGANIZATION(' ',' ',' ') ;
#21=APPROVAL(#20,' ') ;
#20=APPROVAL_STATUS('not_yet_approved') ;
#19=APPROVAL_ROLE('APPROVER') ;
#13=DATE_AND_TIME(#11,#12) ;
#12=LOCAL_TIME(17,53,59.,#10) ;
#10=COORDINATED_UNIVERSAL_TIME_OFFSET(0,0,.AHEAD.) ;
#86=ORIENTED_EDGE('',*,*,#65,.T.) ;
#87=ORIENTED_EDGE('',*,*,#72,.F.) ;
#88=ORIENTED_EDGE('',*,*,#79,.F.) ;
#89=ORIENTED_EDGE('',*,*,#84,.T.) ;
#103=ORIENTED_EDGE('',*,*,#79,.T.) ;
#104=ORIENTED_EDGE('',*,*,#96,.F.) ;
#105=ORIENTED_EDGE('',*,*,#65,.F.) ;
#106=ORIENTED_EDGE('',*,*,#101,.T.) ;
#143=ORIENTED_EDGE('',*,*,#122,.T.) ;
#144=ORIENTED_EDGE('',*,*,#129,.F.) ;
#145=ORIENTED_EDGE('',*,*,#136,.F.) ;
#146=ORIENTED_EDGE('',*,*,#141,.T.) ;
#160=ORIENTED_EDGE('',*,*,#136,.T.) ;
#161=ORIENTED_EDGE('',*,*,#153,.F.) ;
#162=ORIENTED_EDGE('',*,*,#122,.F.) ;
#163=ORIENTED_EDGE('',*,*,#158,.T.) ;
#200=ORIENTED_EDGE('',*,*,#179,.T.) ;
#201=ORIENTED_EDGE('',*,*,#186,.F.) ;
#202=ORIENTED_EDGE('',*,*,#193,.F.) ;
#203=ORIENTED_EDGE('',*,*,#198,.T.) ;
#217=ORIENTED_EDGE('',*,*,#193,.T.) ;
#218=ORIENTED_EDGE('',*,*,#210,.F.) ;
#219=ORIENTED_EDGE('',*,*,#179,.F.) ;
#220=ORIENTED_EDGE('',*,*,#215,.T.) ;
#257=ORIENTED_EDGE('',*,*,#236,.T.) ;
#258=ORIENTED_EDGE('',*,*,#243,.F.) ;
#259=ORIENTED_EDGE('',*,*,#250,.F.) ;
#260=ORIENTED_EDGE('',*,*,#255,.T.) ;
#274=ORIENTED_EDGE('',*,*,#250,.T.) ;
#275=ORIENTED_EDGE('',*,*,#267,.F.) ;
#276=ORIENTED_EDGE('',*,*,#236,.F.) ;
#277=ORIENTED_EDGE('',*,*,#272,.T.) ;
#286=ORIENTED_EDGE('',*,*,#84,.F.) ;
#287=ORIENTED_EDGE('',*,*,#101,.F.) ;
#304=ORIENTED_EDGE('',*,*,#297,.T.) ;
#305=ORIENTED_EDGE('',*,*,#302,.T.) ;
#314=ORIENTED_EDGE('',*,*,#141,.F.) ;
#315=ORIENTED_EDGE('',*,*,#158,.F.) ;
#318=ORIENTED_EDGE('',*,*,#96,.T.) ;
#319=ORIENTED_EDGE('',*,*,#72,.T.) ;
#328=ORIENTED_EDGE('',*,*,#153,.T.) ;
#329=ORIENTED_EDGE('',*,*,#129,.T.) ;
#332=ORIENTED_EDGE('',*,*,#198,.F.) ;
#333=ORIENTED_EDGE('',*,*,#215,.F.) ;
#342=ORIENTED_EDGE('',*,*,#210,.T.) ;
#343=ORIENTED_EDGE('',*,*,#186,.T.) ;
#346=ORIENTED_EDGE('',*,*,#255,.F.) ;
#347=ORIENTED_EDGE('',*,*,#272,.F.) ;
#375=ORIENTED_EDGE('',*,*,#363,.T.) ;
#376=ORIENTED_EDGE('',*,*,#368,.T.) ;
#377=ORIENTED_EDGE('',*,*,#302,.F.) ;
#378=ORIENTED_EDGE('',*,*,#373,.F.) ;
#387=ORIENTED_EDGE('',*,*,#385,.T.) ;
#388=ORIENTED_EDGE('',*,*,#373,.T.) ;
#389=ORIENTED_EDGE('',*,*,#297,.F.) ;
#390=ORIENTED_EDGE('',*,*,#368,.F.) ;
#399=ORIENTED_EDGE('',*,*,#267,.T.) ;
#400=ORIENTED_EDGE('',*,*,#243,.T.) ;
#417=ORIENTED_EDGE('',*,*,#410,.F.) ;
#418=ORIENTED_EDGE('',*,*,#415,.F.) ;
#437=ORIENTED_EDGE('',*,*,#430,.T.) ;
#438=ORIENTED_EDGE('',*,*,#415,.T.) ;
#439=ORIENTED_EDGE('',*,*,#435,.F.) ;
#440=ORIENTED_EDGE('',*,*,#385,.F.) ;
#449=ORIENTED_EDGE('',*,*,#435,.T.) ;
#450=ORIENTED_EDGE('',*,*,#410,.T.) ;
#451=ORIENTED_EDGE('',*,*,#430,.F.) ;
#452=ORIENTED_EDGE('',*,*,#363,.F.) ;
#306=FACE_BOUND('',#303,.T.) ;
#320=FACE_BOUND('',#317,.T.) ;
#334=FACE_BOUND('',#331,.T.) ;
#348=FACE_BOUND('',#345,.T.) ;
#419=FACE_BOUND('',#416,.T.) ;
#51=CLOSED_SHELL('Closed Shell',(#91,#108,#148,#165,#205,#222,#262,#279,#307,#321,#335,#349,#380,#392,#420,#442,#454)) ;
#59=VECTOR('Line Direction',#58,1.) ;
#75=VECTOR('Line Direction',#74,1.) ;
#116=VECTOR('Line Direction',#115,1.) ;
#132=VECTOR('Line Direction',#131,1.) ;
#173=VECTOR('Line Direction',#172,1.) ;
#189=VECTOR('Line Direction',#188,1.) ;
#230=VECTOR('Line Direction',#229,1.) ;
#246=VECTOR('Line Direction',#245,1.) ;
#366=VECTOR('Line Direction',#365,1.) ;
#371=VECTOR('Line Direction',#370,1.) ;
#428=VECTOR('Line Direction',#427,1.) ;
#433=VECTOR('Line Direction',#432,1.) ;
#456=ADVANCED_BREP_SHAPE_REPRESENTATION('NONE',(#455),#46) ;
#49=SHAPE_REPRESENTATION(' ',(#48),#46) ;
#91=ADVANCED_FACE('Revolve1',(#90),#56,.T.) ;
#108=ADVANCED_FACE('Revolve1',(#107),#56,.T.) ;
#148=ADVANCED_FACE('Revolve1',(#147),#113,.T.) ;
#165=ADVANCED_FACE('Revolve1',(#164),#113,.T.) ;
#205=ADVANCED_FACE('Revolve1',(#204),#170,.T.) ;
#222=ADVANCED_FACE('Revolve1',(#221),#170,.T.) ;
#262=ADVANCED_FACE('Revolve1',(#261),#227,.F.) ;
#279=ADVANCED_FACE('Revolve1',(#278),#227,.F.) ;
#307=ADVANCED_FACE('Revolve1',(#288,#306),#284,.F.) ;
#321=ADVANCED_FACE('Revolve1',(#316,#320),#312,.F.) ;
#335=ADVANCED_FACE('Revolve1',(#330,#334),#326,.T.) ;
#349=ADVANCED_FACE('Revolve1',(#344,#348),#340,.T.) ;
#380=ADVANCED_FACE('Revolve1',(#379),#354,.F.) ;
#392=ADVANCED_FACE('Revolve1',(#391),#354,.F.) ;
#420=ADVANCED_FACE('Revolve1',(#401,#419),#397,.T.) ;
#442=ADVANCED_FACE('Revolve1',(#441),#425,.F.) ;
#454=ADVANCED_FACE('Revolve1',(#453),#447,.F.) ;
#4=APPLICATION_PROTOCOL_DEFINITION('international standard','config_control_design',1994,#1) ;
#32=APPROVAL_DATE_TIME(#13,#21) ;
#455=MANIFOLD_SOLID_BREP('Revolve1',#51) ;
#11=CALENDAR_DATE(2018,30,1) ;
#30=CC_DESIGN_APPROVAL(#21,(#16,#6,#14)) ;
#18=CC_DESIGN_DATE_AND_TIME_ASSIGNMENT(#13,#17,(#16)) ;
#29=CC_DESIGN_DATE_AND_TIME_ASSIGNMENT(#13,#28,(#14)) ;
#17=DATE_TIME_ROLE('classification_date') ;
#28=DATE_TIME_ROLE('creation_date') ;
#27=CC_DESIGN_PERSON_AND_ORGANIZATION_ASSIGNMENT(#25,#26,(#16)) ;
#33=CC_DESIGN_PERSON_AND_ORGANIZATION_ASSIGNMENT(#25,#34,(#6)) ;
#35=CC_DESIGN_PERSON_AND_ORGANIZATION_ASSIGNMENT(#25,#36,(#6,#14)) ;
#37=CC_DESIGN_PERSON_AND_ORGANIZATION_ASSIGNMENT(#25,#38,(#5)) ;
#26=PERSON_AND_ORGANIZATION_ROLE('classification_officer') ;
#34=PERSON_AND_ORGANIZATION_ROLE('design_supplier') ;
#36=PERSON_AND_ORGANIZATION_ROLE('creator') ;
#38=PERSON_AND_ORGANIZATION_ROLE('design_owner') ;
#39=CC_DESIGN_SECURITY_CLASSIFICATION(#16,(#6)) ;
#69=CIRCLE('generated circle',#68,2.45) ;
#83=CIRCLE('generated circle',#82,2.45) ;
#95=CIRCLE('generated circle',#94,2.45) ;
#100=CIRCLE('generated circle',#99,2.45) ;
#126=CIRCLE('generated circle',#125,5.5) ;
#140=CIRCLE('generated circle',#139,5.5) ;
#152=CIRCLE('generated circle',#151,5.5) ;
#157=CIRCLE('generated circle',#156,5.5) ;
#183=CIRCLE('generated circle',#182,4.) ;
#197=CIRCLE('generated circle',#196,4.) ;
#209=CIRCLE('generated circle',#208,4.) ;
#214=CIRCLE('generated circle',#213,4.) ;
#240=CIRCLE('generated circle',#239,3.3) ;
#254=CIRCLE('generated circle',#253,3.3) ;
#266=CIRCLE('generated circle',#265,3.3) ;
#271=CIRCLE('generated circle',#270,3.3) ;
#292=CIRCLE('generated circle',#291,1.5) ;
#301=CIRCLE('generated circle',#300,1.5) ;
#358=CIRCLE('generated circle',#357,1.5) ;
#384=CIRCLE('generated circle',#383,1.5) ;
#405=CIRCLE('generated circle',#404,2.) ;
#414=CIRCLE('generated circle',#413,2.) ;
#425=CONICAL_SURFACE('Cone',#424,0.,0.785398163397) ;
#447=CONICAL_SURFACE('Cone',#446,0.,0.785398163397) ;
#457=SHAPE_REPRESENTATION_RELATIONSHIP(' ',' ',#49,#456) ;
#56=CYLINDRICAL_SURFACE('generated cylinder',#55,2.45) ;
#113=CYLINDRICAL_SURFACE('generated cylinder',#112,5.5) ;
#170=CYLINDRICAL_SURFACE('generated cylinder',#169,4.) ;
#227=CYLINDRICAL_SURFACE('generated cylinder',#226,3.3) ;
#354=CYLINDRICAL_SURFACE('generated cylinder',#353,1.5) ;
#3=DESIGN_CONTEXT(' ',#1,'design') ;
#65=EDGE_CURVE('',#62,#64,#60,.T.) ;
#72=EDGE_CURVE('',#71,#64,#69,.T.) ;
#79=EDGE_CURVE('',#78,#71,#76,.T.) ;
#84=EDGE_CURVE('',#78,#62,#83,.T.) ;
#96=EDGE_CURVE('',#64,#71,#95,.T.) ;
#101=EDGE_CURVE('',#62,#78,#100,.T.) ;
#122=EDGE_CURVE('',#119,#121,#117,.T.) ;
#129=EDGE_CURVE('',#128,#121,#126,.T.) ;
#136=EDGE_CURVE('',#135,#128,#133,.T.) ;
#141=EDGE_CURVE('',#135,#119,#140,.T.) ;
#153=EDGE_CURVE('',#121,#128,#152,.T.) ;
#158=EDGE_CURVE('',#119,#135,#157,.T.) ;
#179=EDGE_CURVE('',#176,#178,#174,.T.) ;
#186=EDGE_CURVE('',#185,#178,#183,.T.) ;
#193=EDGE_CURVE('',#192,#185,#190,.T.) ;
#198=EDGE_CURVE('',#192,#176,#197,.T.) ;
#210=EDGE_CURVE('',#178,#185,#209,.T.) ;
#215=EDGE_CURVE('',#176,#192,#214,.T.) ;
#236=EDGE_CURVE('',#233,#235,#231,.F.) ;
#243=EDGE_CURVE('',#242,#235,#240,.T.) ;
#250=EDGE_CURVE('',#249,#242,#247,.F.) ;
#255=EDGE_CURVE('',#249,#233,#254,.T.) ;
#267=EDGE_CURVE('',#235,#242,#266,.T.) ;
#272=EDGE_CURVE('',#233,#249,#271,.T.) ;
#297=EDGE_CURVE('',#294,#296,#292,.T.) ;
#302=EDGE_CURVE('',#296,#294,#301,.T.) ;
#363=EDGE_CURVE('',#360,#362,#358,.T.) ;
#368=EDGE_CURVE('',#362,#294,#367,.F.) ;
#373=EDGE_CURVE('',#360,#296,#372,.F.) ;
#385=EDGE_CURVE('',#362,#360,#384,.T.) ;
#410=EDGE_CURVE('',#407,#409,#405,.T.) ;
#415=EDGE_CURVE('',#409,#407,#414,.T.) ;
#430=EDGE_CURVE('',#362,#409,#429,.T.) ;
#435=EDGE_CURVE('',#360,#407,#434,.T.) ;
#85=EDGE_LOOP('',(#86,#87,#88,#89)) ;
#102=EDGE_LOOP('',(#103,#104,#105,#106)) ;
#142=EDGE_LOOP('',(#143,#144,#145,#146)) ;
#159=EDGE_LOOP('',(#160,#161,#162,#163)) ;
#199=EDGE_LOOP('',(#200,#201,#202,#203)) ;
#216=EDGE_LOOP('',(#217,#218,#219,#220)) ;
#256=EDGE_LOOP('',(#257,#258,#259,#260)) ;
#273=EDGE_LOOP('',(#274,#275,#276,#277)) ;
#285=EDGE_LOOP('',(#286,#287)) ;
#303=EDGE_LOOP('',(#304,#305)) ;
#313=EDGE_LOOP('',(#314,#315)) ;
#317=EDGE_LOOP('',(#318,#319)) ;
#327=EDGE_LOOP('',(#328,#329)) ;
#331=EDGE_LOOP('',(#332,#333)) ;
#341=EDGE_LOOP('',(#342,#343)) ;
#345=EDGE_LOOP('',(#346,#347)) ;
#374=EDGE_LOOP('',(#375,#376,#377,#378)) ;
#386=EDGE_LOOP('',(#387,#388,#389,#390)) ;
#398=EDGE_LOOP('',(#399,#400)) ;
#416=EDGE_LOOP('',(#417,#418)) ;
#436=EDGE_LOOP('',(#437,#438,#439,#440)) ;
#448=EDGE_LOOP('',(#449,#450,#451,#452)) ;
#90=FACE_OUTER_BOUND('',#85,.T.) ;
#107=FACE_OUTER_BOUND('',#102,.T.) ;
#147=FACE_OUTER_BOUND('',#142,.T.) ;
#164=FACE_OUTER_BOUND('',#159,.T.) ;
#204=FACE_OUTER_BOUND('',#199,.T.) ;
#221=FACE_OUTER_BOUND('',#216,.T.) ;
#261=FACE_OUTER_BOUND('',#256,.T.) ;
#278=FACE_OUTER_BOUND('',#273,.T.) ;
#288=FACE_OUTER_BOUND('',#285,.T.) ;
#316=FACE_OUTER_BOUND('',#313,.T.) ;
#330=FACE_OUTER_BOUND('',#327,.T.) ;
#344=FACE_OUTER_BOUND('',#341,.T.) ;
#379=FACE_OUTER_BOUND('',#374,.T.) ;
#391=FACE_OUTER_BOUND('',#386,.T.) ;
#401=FACE_OUTER_BOUND('',#398,.T.) ;
#441=FACE_OUTER_BOUND('',#436,.T.) ;
#453=FACE_OUTER_BOUND('',#448,.T.) ;
#45=UNCERTAINTY_MEASURE_WITH_UNIT(LENGTH_MEASURE(0.005),#41,'distance_accuracy_value','CONFUSED CURVE UNCERTAINTY') ;
#60=LINE('Line',#57,#59) ;
#76=LINE('Line',#73,#75) ;
#117=LINE('Line',#114,#116) ;
#133=LINE('Line',#130,#132) ;
#174=LINE('Line',#171,#173) ;
#190=LINE('Line',#187,#189) ;
#231=LINE('Line',#228,#230) ;
#247=LINE('Line',#244,#246) ;
#367=LINE('Line',#364,#366) ;
#372=LINE('Line',#369,#371) ;
#429=LINE('Line',#426,#428) ;
#434=LINE('Line',#431,#433) ;
#2=MECHANICAL_CONTEXT(' ',#1,'mechanical') ;
#24=PERSONAL_ADDRESS(' ',' ',' ',' ',' ',' ',' ',' ',' ',' ',' ',' ',(#22),' ') ;
#284=PLANE('',#283) ;
#312=PLANE('',#311) ;
#326=PLANE('',#325) ;
#340=PLANE('',#339) ;
#397=PLANE('',#396) ;
#43=PLANE_ANGLE_MEASURE_WITH_UNIT(PLANE_ANGLE_MEASURE(0.0174532925199),#42) ;
#7=PRODUCT_CATEGORY('part',$) ;
#9=PRODUCT_CATEGORY_RELATIONSHIP(' ',' ',#7,#8) ;
#6=PRODUCT_DEFINITION_FORMATION_WITH_SPECIFIED_SOURCE(' ',' ',#5,.NOT_KNOWN.) ;
#8=PRODUCT_RELATED_PRODUCT_CATEGORY('detail',$,(#5)) ;
#50=SHAPE_DEFINITION_REPRESENTATION(#40,#49) ;
#62=VERTEX_POINT('',#61) ;
#64=VERTEX_POINT('',#63) ;
#71=VERTEX_POINT('',#70) ;
#78=VERTEX_POINT('',#77) ;
#119=VERTEX_POINT('',#118) ;
#121=VERTEX_POINT('',#120) ;
#128=VERTEX_POINT('',#127) ;
#135=VERTEX_POINT('',#134) ;
#176=VERTEX_POINT('',#175) ;
#178=VERTEX_POINT('',#177) ;
#185=VERTEX_POINT('',#184) ;
#192=VERTEX_POINT('',#191) ;
#233=VERTEX_POINT('',#232) ;
#235=VERTEX_POINT('',#234) ;
#242=VERTEX_POINT('',#241) ;
#249=VERTEX_POINT('',#248) ;
#294=VERTEX_POINT('',#293) ;
#296=VERTEX_POINT('',#295) ;
#360=VERTEX_POINT('',#359) ;
#362=VERTEX_POINT('',#361) ;
#407=VERTEX_POINT('',#406) ;
#409=VERTEX_POINT('',#408) ;
#41=(LENGTH_UNIT()NAMED_UNIT(*)SI_UNIT(.MILLI.,.METRE.)) ;
#42=(NAMED_UNIT(*)PLANE_ANGLE_UNIT()SI_UNIT($,.RADIAN.)) ;
#44=(NAMED_UNIT(*)SI_UNIT($,.STERADIAN.)SOLID_ANGLE_UNIT()) ;
#46=(GEOMETRIC_REPRESENTATION_CONTEXT(3)GLOBAL_UNCERTAINTY_ASSIGNED_CONTEXT((#45))GLOBAL_UNIT_ASSIGNED_CONTEXT((#41,#42,#44))REPRESENTATION_CONTEXT(' ',' ')) ;
ENDSEC;
END-ISO-10303-21;
