ISO-10303-21;
HEADER;
FILE_DESCRIPTION(('FreeCAD Model'),'2;1');
FILE_NAME(
'/Users/aurelien/Documents/EURO MAKERS/R&D EUROMAKERS/HADRON 
EUROMAKERS/Double Extrudeur - Twin Heads - Retractation/Marlin-Hadron 
with retraction-PKECM-Euro-Makers-Double-extrudeur/BUSHING-EM-1.step',
  '2018-02-09T21:42:52',('Author'),(''),
  'Open CASCADE STEP processor 6.8','FreeCAD','Unknown');
FILE_SCHEMA(('AUTOMOTIVE_DESIGN_CC2 { 1 2 10303 214 -1 1 5 4 }'));
ENDSEC;
DATA;
#1 = APPLICATION_PROTOCOL_DEFINITION('committee draft',
  'automotive_design',1997,#2);
#2 = APPLICATION_CONTEXT(
  'core data for automotive mechanical design processes');
#3 = SHAPE_DEFINITION_REPRESENTATION(#4,#10);
#4 = PRODUCT_DEFINITION_SHAPE('','',#5);
#5 = PRODUCT_DEFINITION('design','',#6,#9);
#6 = PRODUCT_DEFINITION_FORMATION('','',#7);
#7 = PRODUCT('Bushing004','Bushing004','',(#8));
#8 = MECHANICAL_CONTEXT('',#2,'mechanical');
#9 = PRODUCT_DEFINITION_CONTEXT('part definition',#2,'design');
#10 = ADVANCED_BREP_SHAPE_REPRESENTATION('',(#11,#15),#428);
#11 = AXIS2_PLACEMENT_3D('',#12,#13,#14);
#12 = CARTESIAN_POINT('',(0.,0.,0.));
#13 = DIRECTION('',(0.,0.,1.));
#14 = DIRECTION('',(1.,0.,-0.));
#15 = MANIFOLD_SOLID_BREP('',#16);
#16 = CLOSED_SHELL('',(#17,#133,#209,#270,#346,#421));
#17 = ADVANCED_FACE('',(#18,#80),#31,.F.);
#18 = FACE_BOUND('',#19,.T.);
#19 = EDGE_LOOP('',(#20));
#20 = ORIENTED_EDGE('',*,*,#21,.T.);
#21 = EDGE_CURVE('',#22,#22,#24,.T.);
#22 = VERTEX_POINT('',#23);
#23 = CARTESIAN_POINT('',(-41.1139119704,338.23573178047,84.554052215224
    ));
#24 = SURFACE_CURVE('',#25,(#30,#46),.PCURVE_S1.);
#25 = CIRCLE('',#26,6.);
#26 = AXIS2_PLACEMENT_3D('',#27,#28,#29);
#27 = CARTESIAN_POINT('',(-45.47692062894,338.23573178047,
    88.672808756406));
#28 = DIRECTION('',(-3.946202449622E-16,-1.,6.717316159747E-17));
#29 = DIRECTION('',(-0.727168109756,3.330669073875E-16,0.68645942353));
#30 = PCURVE('',#31,#36);
#31 = PLANE('',#32);
#32 = AXIS2_PLACEMENT_3D('',#33,#34,#35);
#33 = CARTESIAN_POINT('',(-45.47692062894,338.23573178047,
    88.672808756406));
#34 = DIRECTION('',(3.946202449622E-16,1.,-6.717316159747E-17));
#35 = DIRECTION('',(0.727168109756,-3.330669073875E-16,-0.68645942353));
#36 = DEFINITIONAL_REPRESENTATION('',(#37),#45);
#37 = ( BOUNDED_CURVE() B_SPLINE_CURVE(2,(#38,#39,#40,#41,#42,#43,#44),
.UNSPECIFIED.,.F.,.F.) B_SPLINE_CURVE_WITH_KNOTS((1,2,2,2,2,1),(
    -2.094395102393,0.,2.094395102393,4.188790204786,6.28318530718,
8.377580409573),.UNSPECIFIED.) CURVE() GEOMETRIC_REPRESENTATION_ITEM() 
RATIONAL_B_SPLINE_CURVE((1.,0.5,1.,0.5,1.,0.5,1.)) REPRESENTATION_ITEM(
  '') );
#38 = CARTESIAN_POINT('',(-6.,1.54197642309E-16));
#39 = CARTESIAN_POINT('',(-6.,10.392304845413));
#40 = CARTESIAN_POINT('',(3.,5.196152422707));
#41 = CARTESIAN_POINT('',(12.,1.623773801286E-15));
#42 = CARTESIAN_POINT('',(3.,-5.196152422707));
#43 = CARTESIAN_POINT('',(-6.,-10.39230484541));
#44 = CARTESIAN_POINT('',(-6.,1.54197642309E-16));
#45 = ( GEOMETRIC_REPRESENTATION_CONTEXT(2) 
PARAMETRIC_REPRESENTATION_CONTEXT() REPRESENTATION_CONTEXT('2D SPACE',''
  ) );
#46 = PCURVE('',#47,#52);
#47 = CYLINDRICAL_SURFACE('',#48,6.);
#48 = AXIS2_PLACEMENT_3D('',#49,#50,#51);
#49 = CARTESIAN_POINT('',(-45.47692062894,338.23573178047,
    88.672808756406));
#50 = DIRECTION('',(3.946202449622E-16,1.,-6.717316159747E-17));
#51 = DIRECTION('',(-0.727168109756,3.330669073875E-16,0.68645942353));
#52 = DEFINITIONAL_REPRESENTATION('',(#53),#79);
#53 = B_SPLINE_CURVE_WITH_KNOTS('',3,(#54,#55,#56,#57,#58,#59,#60,#61,
    #62,#63,#64,#65,#66,#67,#68,#69,#70,#71,#72,#73,#74,#75,#76,#77,#78)
  ,.UNSPECIFIED.,.F.,.F.,(4,1,1,1,1,1,1,1,1,1,1,1,1,1,1,1,1,1,1,1,1,1,4)
  ,(3.14159265359,3.427191985734,3.712791317879,3.998390650023,
    4.283989982168,4.569589314312,4.855188646457,5.140787978601,
    5.426387310746,5.711986642891,5.997585975035,6.28318530718,
    6.568784639324,6.854383971469,7.139983303613,7.425582635758,
    7.711181967902,7.996781300047,8.282380632191,8.567979964336,
    8.85357929648,9.139178628625,9.424777960769),.QUASI_UNIFORM_KNOTS.);
#54 = CARTESIAN_POINT('',(9.424777960769,0.));
#55 = CARTESIAN_POINT('',(9.329578183388,0.));
#56 = CARTESIAN_POINT('',(9.139178628625,0.));
#57 = CARTESIAN_POINT('',(8.85357929648,0.));
#58 = CARTESIAN_POINT('',(8.567979964336,0.));
#59 = CARTESIAN_POINT('',(8.282380632191,0.));
#60 = CARTESIAN_POINT('',(7.996781300047,0.));
#61 = CARTESIAN_POINT('',(7.711181967902,0.));
#62 = CARTESIAN_POINT('',(7.425582635758,0.));
#63 = CARTESIAN_POINT('',(7.139983303613,0.));
#64 = CARTESIAN_POINT('',(6.854383971469,0.));
#65 = CARTESIAN_POINT('',(6.568784639324,0.));
#66 = CARTESIAN_POINT('',(6.28318530718,0.));
#67 = CARTESIAN_POINT('',(5.997585975035,0.));
#68 = CARTESIAN_POINT('',(5.711986642891,0.));
#69 = CARTESIAN_POINT('',(5.426387310746,0.));
#70 = CARTESIAN_POINT('',(5.140787978601,0.));
#71 = CARTESIAN_POINT('',(4.855188646457,0.));
#72 = CARTESIAN_POINT('',(4.569589314312,0.));
#73 = CARTESIAN_POINT('',(4.283989982168,0.));
#74 = CARTESIAN_POINT('',(3.998390650023,0.));
#75 = CARTESIAN_POINT('',(3.712791317879,0.));
#76 = CARTESIAN_POINT('',(3.427191985734,0.));
#77 = CARTESIAN_POINT('',(3.236792430971,0.));
#78 = CARTESIAN_POINT('',(3.14159265359,0.));
#79 = ( GEOMETRIC_REPRESENTATION_CONTEXT(2) 
PARAMETRIC_REPRESENTATION_CONTEXT() REPRESENTATION_CONTEXT('2D SPACE',''
  ) );
#80 = FACE_BOUND('',#81,.T.);
#81 = EDGE_LOOP('',(#82));
#82 = ORIENTED_EDGE('',*,*,#83,.T.);
#83 = EDGE_CURVE('',#84,#84,#86,.T.);
#84 = VERTEX_POINT('',#85);
#85 = CARTESIAN_POINT('',(-42.56824818991,338.23573178047,
    85.926971062285));
#86 = SURFACE_CURVE('',#87,(#92,#99),.PCURVE_S1.);
#87 = CIRCLE('',#88,4.);
#88 = AXIS2_PLACEMENT_3D('',#89,#90,#91);
#89 = CARTESIAN_POINT('',(-45.47692062894,338.23573178047,
    88.672808756406));
#90 = DIRECTION('',(3.946202449622E-16,1.,-6.717316159747E-17));
#91 = DIRECTION('',(-0.727168109756,3.330669073875E-16,0.68645942353));
#92 = PCURVE('',#31,#93);
#93 = DEFINITIONAL_REPRESENTATION('',(#94),#98);
#94 = CIRCLE('',#95,4.);
#95 = AXIS2_PLACEMENT_2D('',#96,#97);
#96 = CARTESIAN_POINT('',(3.696276245755E-16,1.54197642309E-16));
#97 = DIRECTION('',(-1.,0.));
#98 = ( GEOMETRIC_REPRESENTATION_CONTEXT(2) 
PARAMETRIC_REPRESENTATION_CONTEXT() REPRESENTATION_CONTEXT('2D SPACE',''
  ) );
#99 = PCURVE('',#100,#105);
#100 = CYLINDRICAL_SURFACE('',#101,4.);
#101 = AXIS2_PLACEMENT_3D('',#102,#103,#104);
#102 = CARTESIAN_POINT('',(-45.47692062894,318.23573178047,
    88.672808756406));
#103 = DIRECTION('',(3.946202449622E-16,1.,-6.717316159747E-17));
#104 = DIRECTION('',(-0.727168109756,3.330669073875E-16,0.68645942353));
#105 = DEFINITIONAL_REPRESENTATION('',(#106),#132);
#106 = B_SPLINE_CURVE_WITH_KNOTS('',3,(#107,#108,#109,#110,#111,#112,
    #113,#114,#115,#116,#117,#118,#119,#120,#121,#122,#123,#124,#125,
    #126,#127,#128,#129,#130,#131),.UNSPECIFIED.,.F.,.F.,(4,1,1,1,1,1,1,
    1,1,1,1,1,1,1,1,1,1,1,1,1,1,1,4),(3.14159265359,3.427191985734,
    3.712791317879,3.998390650023,4.283989982168,4.569589314312,
    4.855188646457,5.140787978601,5.426387310746,5.711986642891,
    5.997585975035,6.28318530718,6.568784639324,6.854383971469,
    7.139983303613,7.425582635758,7.711181967902,7.996781300047,
    8.282380632191,8.567979964336,8.85357929648,9.139178628625,
    9.424777960769),.QUASI_UNIFORM_KNOTS.);
#107 = CARTESIAN_POINT('',(3.14159265359,20.));
#108 = CARTESIAN_POINT('',(3.236792430971,20.));
#109 = CARTESIAN_POINT('',(3.427191985734,20.));
#110 = CARTESIAN_POINT('',(3.712791317879,20.));
#111 = CARTESIAN_POINT('',(3.998390650023,20.));
#112 = CARTESIAN_POINT('',(4.283989982168,20.));
#113 = CARTESIAN_POINT('',(4.569589314312,20.));
#114 = CARTESIAN_POINT('',(4.855188646457,20.));
#115 = CARTESIAN_POINT('',(5.140787978601,20.));
#116 = CARTESIAN_POINT('',(5.426387310746,20.));
#117 = CARTESIAN_POINT('',(5.711986642891,20.));
#118 = CARTESIAN_POINT('',(5.997585975035,20.));
#119 = CARTESIAN_POINT('',(6.28318530718,20.));
#120 = CARTESIAN_POINT('',(6.568784639324,20.));
#121 = CARTESIAN_POINT('',(6.854383971469,20.));
#122 = CARTESIAN_POINT('',(7.139983303613,20.));
#123 = CARTESIAN_POINT('',(7.425582635758,20.));
#124 = CARTESIAN_POINT('',(7.711181967902,20.));
#125 = CARTESIAN_POINT('',(7.996781300047,20.));
#126 = CARTESIAN_POINT('',(8.282380632191,20.));
#127 = CARTESIAN_POINT('',(8.567979964336,20.));
#128 = CARTESIAN_POINT('',(8.85357929648,20.));
#129 = CARTESIAN_POINT('',(9.139178628625,20.));
#130 = CARTESIAN_POINT('',(9.329578183388,20.));
#131 = CARTESIAN_POINT('',(9.424777960769,20.));
#132 = ( GEOMETRIC_REPRESENTATION_CONTEXT(2) 
PARAMETRIC_REPRESENTATION_CONTEXT() REPRESENTATION_CONTEXT('2D SPACE',''
  ) );
#133 = ADVANCED_FACE('',(#134),#47,.T.);
#134 = FACE_BOUND('',#135,.T.);
#135 = EDGE_LOOP('',(#136,#187,#207,#208));
#136 = ORIENTED_EDGE('',*,*,#137,.F.);
#137 = EDGE_CURVE('',#138,#138,#140,.T.);
#138 = VERTEX_POINT('',#139);
#139 = CARTESIAN_POINT('',(-41.1139119704,341.23573178047,
    84.554052215224));
#140 = SURFACE_CURVE('',#141,(#146,#175),.PCURVE_S1.);
#141 = CIRCLE('',#142,6.);
#142 = AXIS2_PLACEMENT_3D('',#143,#144,#145);
#143 = CARTESIAN_POINT('',(-45.47692062894,341.23573178047,
    88.672808756406));
#144 = DIRECTION('',(3.946202449622E-16,1.,-6.717316159747E-17));
#145 = DIRECTION('',(-0.727168109756,3.330669073875E-16,0.68645942353));
#146 = PCURVE('',#47,#147);
#147 = DEFINITIONAL_REPRESENTATION('',(#148),#174);
#148 = B_SPLINE_CURVE_WITH_KNOTS('',3,(#149,#150,#151,#152,#153,#154,
    #155,#156,#157,#158,#159,#160,#161,#162,#163,#164,#165,#166,#167,
    #168,#169,#170,#171,#172,#173),.UNSPECIFIED.,.F.,.F.,(4,1,1,1,1,1,1,
    1,1,1,1,1,1,1,1,1,1,1,1,1,1,1,4),(3.14159265359,3.427191985734,
    3.712791317879,3.998390650023,4.283989982168,4.569589314312,
    4.855188646457,5.140787978601,5.426387310746,5.711986642891,
    5.997585975035,6.28318530718,6.568784639324,6.854383971469,
    7.139983303613,7.425582635758,7.711181967902,7.996781300047,
    8.282380632191,8.567979964336,8.85357929648,9.139178628625,
    9.424777960769),.QUASI_UNIFORM_KNOTS.);
#149 = CARTESIAN_POINT('',(3.14159265359,3.));
#150 = CARTESIAN_POINT('',(3.236792430971,3.));
#151 = CARTESIAN_POINT('',(3.427191985734,3.));
#152 = CARTESIAN_POINT('',(3.712791317879,3.));
#153 = CARTESIAN_POINT('',(3.998390650023,3.));
#154 = CARTESIAN_POINT('',(4.283989982168,3.));
#155 = CARTESIAN_POINT('',(4.569589314312,3.));
#156 = CARTESIAN_POINT('',(4.855188646457,3.));
#157 = CARTESIAN_POINT('',(5.140787978601,3.));
#158 = CARTESIAN_POINT('',(5.426387310746,3.));
#159 = CARTESIAN_POINT('',(5.711986642891,3.));
#160 = CARTESIAN_POINT('',(5.997585975035,3.));
#161 = CARTESIAN_POINT('',(6.28318530718,3.));
#162 = CARTESIAN_POINT('',(6.568784639324,3.));
#163 = CARTESIAN_POINT('',(6.854383971469,3.));
#164 = CARTESIAN_POINT('',(7.139983303613,3.));
#165 = CARTESIAN_POINT('',(7.425582635758,3.));
#166 = CARTESIAN_POINT('',(7.711181967902,3.));
#167 = CARTESIAN_POINT('',(7.996781300047,3.));
#168 = CARTESIAN_POINT('',(8.282380632191,3.));
#169 = CARTESIAN_POINT('',(8.567979964336,3.));
#170 = CARTESIAN_POINT('',(8.85357929648,3.));
#171 = CARTESIAN_POINT('',(9.139178628625,3.));
#172 = CARTESIAN_POINT('',(9.329578183388,3.));
#173 = CARTESIAN_POINT('',(9.424777960769,3.));
#174 = ( GEOMETRIC_REPRESENTATION_CONTEXT(2) 
PARAMETRIC_REPRESENTATION_CONTEXT() REPRESENTATION_CONTEXT('2D SPACE',''
  ) );
#175 = PCURVE('',#176,#181);
#176 = PLANE('',#177);
#177 = AXIS2_PLACEMENT_3D('',#178,#179,#180);
#178 = CARTESIAN_POINT('',(-45.47692062894,341.23573178047,
    88.672808756406));
#179 = DIRECTION('',(3.946202449622E-16,1.,-6.717316159747E-17));
#180 = DIRECTION('',(0.727168109756,-3.330669073875E-16,-0.68645942353)
  );
#181 = DEFINITIONAL_REPRESENTATION('',(#182),#186);
#182 = CIRCLE('',#183,6.);
#183 = AXIS2_PLACEMENT_2D('',#184,#185);
#184 = CARTESIAN_POINT('',(3.696276245755E-16,1.54197642309E-16));
#185 = DIRECTION('',(-1.,0.));
#186 = ( GEOMETRIC_REPRESENTATION_CONTEXT(2) 
PARAMETRIC_REPRESENTATION_CONTEXT() REPRESENTATION_CONTEXT('2D SPACE',''
  ) );
#187 = ORIENTED_EDGE('',*,*,#188,.F.);
#188 = EDGE_CURVE('',#22,#138,#189,.T.);
#189 = SEAM_CURVE('',#190,(#193,#200),.PCURVE_S1.);
#190 = B_SPLINE_CURVE_WITH_KNOTS('',1,(#191,#192),.UNSPECIFIED.,.F.,.F.,
  (2,2),(0.,3.),.PIECEWISE_BEZIER_KNOTS.);
#191 = CARTESIAN_POINT('',(-41.1139119704,338.23573178047,
    84.554052215224));
#192 = CARTESIAN_POINT('',(-41.1139119704,341.23573178047,
    84.554052215224));
#193 = PCURVE('',#47,#194);
#194 = DEFINITIONAL_REPRESENTATION('',(#195),#199);
#195 = LINE('',#196,#197);
#196 = CARTESIAN_POINT('',(3.14159265359,0.));
#197 = VECTOR('',#198,1.);
#198 = DIRECTION('',(0.,1.));
#199 = ( GEOMETRIC_REPRESENTATION_CONTEXT(2) 
PARAMETRIC_REPRESENTATION_CONTEXT() REPRESENTATION_CONTEXT('2D SPACE',''
  ) );
#200 = PCURVE('',#47,#201);
#201 = DEFINITIONAL_REPRESENTATION('',(#202),#206);
#202 = LINE('',#203,#204);
#203 = CARTESIAN_POINT('',(9.424777960769,0.));
#204 = VECTOR('',#205,1.);
#205 = DIRECTION('',(0.,1.));
#206 = ( GEOMETRIC_REPRESENTATION_CONTEXT(2) 
PARAMETRIC_REPRESENTATION_CONTEXT() REPRESENTATION_CONTEXT('2D SPACE',''
  ) );
#207 = ORIENTED_EDGE('',*,*,#21,.F.);
#208 = ORIENTED_EDGE('',*,*,#188,.T.);
#209 = ADVANCED_FACE('',(#210,#213),#176,.T.);
#210 = FACE_BOUND('',#211,.T.);
#211 = EDGE_LOOP('',(#212));
#212 = ORIENTED_EDGE('',*,*,#137,.T.);
#213 = FACE_BOUND('',#214,.T.);
#214 = EDGE_LOOP('',(#215));
#215 = ORIENTED_EDGE('',*,*,#216,.T.);
#216 = EDGE_CURVE('',#217,#217,#219,.T.);
#217 = VERTEX_POINT('',#218);
#218 = CARTESIAN_POINT('',(-43.65900035455,341.23573178047,
    86.95666019758));
#219 = SURFACE_CURVE('',#220,(#225,#236),.PCURVE_S1.);
#220 = CIRCLE('',#221,2.5);
#221 = AXIS2_PLACEMENT_3D('',#222,#223,#224);
#222 = CARTESIAN_POINT('',(-45.47692062894,341.23573178047,
    88.672808756406));
#223 = DIRECTION('',(-3.946202449622E-16,-1.,6.717316159747E-17));
#224 = DIRECTION('',(-0.727168109756,3.330669073875E-16,0.68645942353));
#225 = PCURVE('',#176,#226);
#226 = DEFINITIONAL_REPRESENTATION('',(#227),#235);
#227 = ( BOUNDED_CURVE() B_SPLINE_CURVE(2,(#228,#229,#230,#231,#232,#233
,#234),.UNSPECIFIED.,.F.,.F.) B_SPLINE_CURVE_WITH_KNOTS((1,2,2,2,2,1),(
    -2.094395102393,0.,2.094395102393,4.188790204786,6.28318530718,
8.377580409573),.UNSPECIFIED.) CURVE() GEOMETRIC_REPRESENTATION_ITEM() 
RATIONAL_B_SPLINE_CURVE((1.,0.5,1.,0.5,1.,0.5,1.)) REPRESENTATION_ITEM(
  '') );
#228 = CARTESIAN_POINT('',(-2.5,1.54197642309E-16));
#229 = CARTESIAN_POINT('',(-2.5,4.330127018922));
#230 = CARTESIAN_POINT('',(1.25,2.165063509461));
#231 = CARTESIAN_POINT('',(5.,7.665210418827E-16));
#232 = CARTESIAN_POINT('',(1.25,-2.165063509461));
#233 = CARTESIAN_POINT('',(-2.5,-4.330127018922));
#234 = CARTESIAN_POINT('',(-2.5,1.54197642309E-16));
#235 = ( GEOMETRIC_REPRESENTATION_CONTEXT(2) 
PARAMETRIC_REPRESENTATION_CONTEXT() REPRESENTATION_CONTEXT('2D SPACE',''
  ) );
#236 = PCURVE('',#237,#242);
#237 = CYLINDRICAL_SURFACE('',#238,2.5);
#238 = AXIS2_PLACEMENT_3D('',#239,#240,#241);
#239 = CARTESIAN_POINT('',(-45.47692062894,318.23573178047,
    88.672808756406));
#240 = DIRECTION('',(3.946202449622E-16,1.,-6.717316159747E-17));
#241 = DIRECTION('',(-0.727168109756,3.330669073875E-16,0.68645942353));
#242 = DEFINITIONAL_REPRESENTATION('',(#243),#269);
#243 = B_SPLINE_CURVE_WITH_KNOTS('',3,(#244,#245,#246,#247,#248,#249,
    #250,#251,#252,#253,#254,#255,#256,#257,#258,#259,#260,#261,#262,
    #263,#264,#265,#266,#267,#268),.UNSPECIFIED.,.F.,.F.,(4,1,1,1,1,1,1,
    1,1,1,1,1,1,1,1,1,1,1,1,1,1,1,4),(3.14159265359,3.427191985734,
    3.712791317879,3.998390650023,4.283989982168,4.569589314312,
    4.855188646457,5.140787978601,5.426387310746,5.711986642891,
    5.997585975035,6.28318530718,6.568784639324,6.854383971469,
    7.139983303613,7.425582635758,7.711181967902,7.996781300047,
    8.282380632191,8.567979964336,8.85357929648,9.139178628625,
    9.424777960769),.QUASI_UNIFORM_KNOTS.);
#244 = CARTESIAN_POINT('',(9.424777960769,23.));
#245 = CARTESIAN_POINT('',(9.329578183388,23.));
#246 = CARTESIAN_POINT('',(9.139178628625,23.));
#247 = CARTESIAN_POINT('',(8.85357929648,23.));
#248 = CARTESIAN_POINT('',(8.567979964336,23.));
#249 = CARTESIAN_POINT('',(8.282380632191,23.));
#250 = CARTESIAN_POINT('',(7.996781300047,23.));
#251 = CARTESIAN_POINT('',(7.711181967902,23.));
#252 = CARTESIAN_POINT('',(7.425582635758,23.));
#253 = CARTESIAN_POINT('',(7.139983303613,23.));
#254 = CARTESIAN_POINT('',(6.854383971469,23.));
#255 = CARTESIAN_POINT('',(6.568784639324,23.));
#256 = CARTESIAN_POINT('',(6.28318530718,23.));
#257 = CARTESIAN_POINT('',(5.997585975035,23.));
#258 = CARTESIAN_POINT('',(5.711986642891,23.));
#259 = CARTESIAN_POINT('',(5.426387310746,23.));
#260 = CARTESIAN_POINT('',(5.140787978601,23.));
#261 = CARTESIAN_POINT('',(4.855188646457,23.));
#262 = CARTESIAN_POINT('',(4.569589314312,23.));
#263 = CARTESIAN_POINT('',(4.283989982168,23.));
#264 = CARTESIAN_POINT('',(3.998390650023,23.));
#265 = CARTESIAN_POINT('',(3.712791317879,23.));
#266 = CARTESIAN_POINT('',(3.427191985734,23.));
#267 = CARTESIAN_POINT('',(3.236792430971,23.));
#268 = CARTESIAN_POINT('',(3.14159265359,23.));
#269 = ( GEOMETRIC_REPRESENTATION_CONTEXT(2) 
PARAMETRIC_REPRESENTATION_CONTEXT() REPRESENTATION_CONTEXT('2D SPACE',''
  ) );
#270 = ADVANCED_FACE('',(#271),#237,.F.);
#271 = FACE_BOUND('',#272,.F.);
#272 = EDGE_LOOP('',(#273,#274,#296,#345));
#273 = ORIENTED_EDGE('',*,*,#216,.T.);
#274 = ORIENTED_EDGE('',*,*,#275,.F.);
#275 = EDGE_CURVE('',#276,#217,#278,.T.);
#276 = VERTEX_POINT('',#277);
#277 = CARTESIAN_POINT('',(-43.65900035455,318.23573178047,
    86.95666019758));
#278 = SEAM_CURVE('',#279,(#282,#289),.PCURVE_S1.);
#279 = B_SPLINE_CURVE_WITH_KNOTS('',1,(#280,#281),.UNSPECIFIED.,.F.,.F.,
  (2,2),(0.,23.),.PIECEWISE_BEZIER_KNOTS.);
#280 = CARTESIAN_POINT('',(-43.65900035455,318.23573178047,
    86.95666019758));
#281 = CARTESIAN_POINT('',(-43.65900035455,341.23573178047,
    86.95666019758));
#282 = PCURVE('',#237,#283);
#283 = DEFINITIONAL_REPRESENTATION('',(#284),#288);
#284 = LINE('',#285,#286);
#285 = CARTESIAN_POINT('',(3.14159265359,0.));
#286 = VECTOR('',#287,1.);
#287 = DIRECTION('',(0.,1.));
#288 = ( GEOMETRIC_REPRESENTATION_CONTEXT(2) 
PARAMETRIC_REPRESENTATION_CONTEXT() REPRESENTATION_CONTEXT('2D SPACE',''
  ) );
#289 = PCURVE('',#237,#290);
#290 = DEFINITIONAL_REPRESENTATION('',(#291),#295);
#291 = LINE('',#292,#293);
#292 = CARTESIAN_POINT('',(9.424777960769,0.));
#293 = VECTOR('',#294,1.);
#294 = DIRECTION('',(0.,1.));
#295 = ( GEOMETRIC_REPRESENTATION_CONTEXT(2) 
PARAMETRIC_REPRESENTATION_CONTEXT() REPRESENTATION_CONTEXT('2D SPACE',''
  ) );
#296 = ORIENTED_EDGE('',*,*,#297,.T.);
#297 = EDGE_CURVE('',#276,#276,#298,.T.);
#298 = SURFACE_CURVE('',#299,(#304,#333),.PCURVE_S1.);
#299 = CIRCLE('',#300,2.5);
#300 = AXIS2_PLACEMENT_3D('',#301,#302,#303);
#301 = CARTESIAN_POINT('',(-45.47692062894,318.23573178047,
    88.672808756406));
#302 = DIRECTION('',(3.946202449622E-16,1.,-6.717316159747E-17));
#303 = DIRECTION('',(-0.727168109756,3.330669073875E-16,0.68645942353));
#304 = PCURVE('',#237,#305);
#305 = DEFINITIONAL_REPRESENTATION('',(#306),#332);
#306 = B_SPLINE_CURVE_WITH_KNOTS('',3,(#307,#308,#309,#310,#311,#312,
    #313,#314,#315,#316,#317,#318,#319,#320,#321,#322,#323,#324,#325,
    #326,#327,#328,#329,#330,#331),.UNSPECIFIED.,.F.,.F.,(4,1,1,1,1,1,1,
    1,1,1,1,1,1,1,1,1,1,1,1,1,1,1,4),(3.14159265359,3.427191985734,
    3.712791317879,3.998390650023,4.283989982168,4.569589314312,
    4.855188646457,5.140787978601,5.426387310746,5.711986642891,
    5.997585975035,6.28318530718,6.568784639324,6.854383971469,
    7.139983303613,7.425582635758,7.711181967902,7.996781300047,
    8.282380632191,8.567979964336,8.85357929648,9.139178628625,
    9.424777960769),.QUASI_UNIFORM_KNOTS.);
#307 = CARTESIAN_POINT('',(3.14159265359,0.));
#308 = CARTESIAN_POINT('',(3.236792430971,0.));
#309 = CARTESIAN_POINT('',(3.427191985734,0.));
#310 = CARTESIAN_POINT('',(3.712791317879,0.));
#311 = CARTESIAN_POINT('',(3.998390650023,0.));
#312 = CARTESIAN_POINT('',(4.283989982168,0.));
#313 = CARTESIAN_POINT('',(4.569589314312,0.));
#314 = CARTESIAN_POINT('',(4.855188646457,0.));
#315 = CARTESIAN_POINT('',(5.140787978601,0.));
#316 = CARTESIAN_POINT('',(5.426387310746,0.));
#317 = CARTESIAN_POINT('',(5.711986642891,0.));
#318 = CARTESIAN_POINT('',(5.997585975035,0.));
#319 = CARTESIAN_POINT('',(6.28318530718,0.));
#320 = CARTESIAN_POINT('',(6.568784639324,0.));
#321 = CARTESIAN_POINT('',(6.854383971469,0.));
#322 = CARTESIAN_POINT('',(7.139983303613,0.));
#323 = CARTESIAN_POINT('',(7.425582635758,0.));
#324 = CARTESIAN_POINT('',(7.711181967902,0.));
#325 = CARTESIAN_POINT('',(7.996781300047,0.));
#326 = CARTESIAN_POINT('',(8.282380632191,0.));
#327 = CARTESIAN_POINT('',(8.567979964336,0.));
#328 = CARTESIAN_POINT('',(8.85357929648,0.));
#329 = CARTESIAN_POINT('',(9.139178628625,0.));
#330 = CARTESIAN_POINT('',(9.329578183388,0.));
#331 = CARTESIAN_POINT('',(9.424777960769,0.));
#332 = ( GEOMETRIC_REPRESENTATION_CONTEXT(2) 
PARAMETRIC_REPRESENTATION_CONTEXT() REPRESENTATION_CONTEXT('2D SPACE',''
  ) );
#333 = PCURVE('',#334,#339);
#334 = PLANE('',#335);
#335 = AXIS2_PLACEMENT_3D('',#336,#337,#338);
#336 = CARTESIAN_POINT('',(-45.47692062894,318.23573178047,
    88.672808756406));
#337 = DIRECTION('',(3.946202449622E-16,1.,-6.717316159747E-17));
#338 = DIRECTION('',(0.727168109756,-3.330669073875E-16,-0.68645942353)
  );
#339 = DEFINITIONAL_REPRESENTATION('',(#340),#344);
#340 = CIRCLE('',#341,2.5);
#341 = AXIS2_PLACEMENT_2D('',#342,#343);
#342 = CARTESIAN_POINT('',(2.721180234352E-16,0.));
#343 = DIRECTION('',(-1.,0.));
#344 = ( GEOMETRIC_REPRESENTATION_CONTEXT(2) 
PARAMETRIC_REPRESENTATION_CONTEXT() REPRESENTATION_CONTEXT('2D SPACE',''
  ) );
#345 = ORIENTED_EDGE('',*,*,#275,.T.);
#346 = ADVANCED_FACE('',(#347),#100,.T.);
#347 = FACE_BOUND('',#348,.T.);
#348 = EDGE_LOOP('',(#349,#350,#372,#420));
#349 = ORIENTED_EDGE('',*,*,#83,.F.);
#350 = ORIENTED_EDGE('',*,*,#351,.F.);
#351 = EDGE_CURVE('',#352,#84,#354,.T.);
#352 = VERTEX_POINT('',#353);
#353 = CARTESIAN_POINT('',(-42.56824818991,318.23573178047,
    85.926971062285));
#354 = SEAM_CURVE('',#355,(#358,#365),.PCURVE_S1.);
#355 = B_SPLINE_CURVE_WITH_KNOTS('',1,(#356,#357),.UNSPECIFIED.,.F.,.F.,
  (2,2),(0.,20.),.PIECEWISE_BEZIER_KNOTS.);
#356 = CARTESIAN_POINT('',(-42.56824818991,318.23573178047,
    85.926971062285));
#357 = CARTESIAN_POINT('',(-42.56824818991,338.23573178047,
    85.926971062285));
#358 = PCURVE('',#100,#359);
#359 = DEFINITIONAL_REPRESENTATION('',(#360),#364);
#360 = LINE('',#361,#362);
#361 = CARTESIAN_POINT('',(3.14159265359,0.));
#362 = VECTOR('',#363,1.);
#363 = DIRECTION('',(0.,1.));
#364 = ( GEOMETRIC_REPRESENTATION_CONTEXT(2) 
PARAMETRIC_REPRESENTATION_CONTEXT() REPRESENTATION_CONTEXT('2D SPACE',''
  ) );
#365 = PCURVE('',#100,#366);
#366 = DEFINITIONAL_REPRESENTATION('',(#367),#371);
#367 = LINE('',#368,#369);
#368 = CARTESIAN_POINT('',(9.424777960769,0.));
#369 = VECTOR('',#370,1.);
#370 = DIRECTION('',(0.,1.));
#371 = ( GEOMETRIC_REPRESENTATION_CONTEXT(2) 
PARAMETRIC_REPRESENTATION_CONTEXT() REPRESENTATION_CONTEXT('2D SPACE',''
  ) );
#372 = ORIENTED_EDGE('',*,*,#373,.F.);
#373 = EDGE_CURVE('',#352,#352,#374,.T.);
#374 = SURFACE_CURVE('',#375,(#380,#409),.PCURVE_S1.);
#375 = CIRCLE('',#376,4.);
#376 = AXIS2_PLACEMENT_3D('',#377,#378,#379);
#377 = CARTESIAN_POINT('',(-45.47692062894,318.23573178047,
    88.672808756406));
#378 = DIRECTION('',(-3.946202449622E-16,-1.,6.717316159747E-17));
#379 = DIRECTION('',(-0.727168109756,3.330669073875E-16,0.68645942353));
#380 = PCURVE('',#100,#381);
#381 = DEFINITIONAL_REPRESENTATION('',(#382),#408);
#382 = B_SPLINE_CURVE_WITH_KNOTS('',3,(#383,#384,#385,#386,#387,#388,
    #389,#390,#391,#392,#393,#394,#395,#396,#397,#398,#399,#400,#401,
    #402,#403,#404,#405,#406,#407),.UNSPECIFIED.,.F.,.F.,(4,1,1,1,1,1,1,
    1,1,1,1,1,1,1,1,1,1,1,1,1,1,1,4),(3.14159265359,3.427191985734,
    3.712791317879,3.998390650023,4.283989982168,4.569589314312,
    4.855188646457,5.140787978601,5.426387310746,5.711986642891,
    5.997585975035,6.28318530718,6.568784639324,6.854383971469,
    7.139983303613,7.425582635758,7.711181967902,7.996781300047,
    8.282380632191,8.567979964336,8.85357929648,9.139178628625,
    9.424777960769),.QUASI_UNIFORM_KNOTS.);
#383 = CARTESIAN_POINT('',(9.424777960769,0.));
#384 = CARTESIAN_POINT('',(9.329578183388,0.));
#385 = CARTESIAN_POINT('',(9.139178628625,0.));
#386 = CARTESIAN_POINT('',(8.85357929648,0.));
#387 = CARTESIAN_POINT('',(8.567979964336,0.));
#388 = CARTESIAN_POINT('',(8.282380632191,0.));
#389 = CARTESIAN_POINT('',(7.996781300047,0.));
#390 = CARTESIAN_POINT('',(7.711181967902,0.));
#391 = CARTESIAN_POINT('',(7.425582635758,0.));
#392 = CARTESIAN_POINT('',(7.139983303613,0.));
#393 = CARTESIAN_POINT('',(6.854383971469,0.));
#394 = CARTESIAN_POINT('',(6.568784639324,0.));
#395 = CARTESIAN_POINT('',(6.28318530718,0.));
#396 = CARTESIAN_POINT('',(5.997585975035,0.));
#397 = CARTESIAN_POINT('',(5.711986642891,0.));
#398 = CARTESIAN_POINT('',(5.426387310746,0.));
#399 = CARTESIAN_POINT('',(5.140787978601,0.));
#400 = CARTESIAN_POINT('',(4.855188646457,0.));
#401 = CARTESIAN_POINT('',(4.569589314312,0.));
#402 = CARTESIAN_POINT('',(4.283989982168,0.));
#403 = CARTESIAN_POINT('',(3.998390650023,0.));
#404 = CARTESIAN_POINT('',(3.712791317879,0.));
#405 = CARTESIAN_POINT('',(3.427191985734,0.));
#406 = CARTESIAN_POINT('',(3.236792430971,0.));
#407 = CARTESIAN_POINT('',(3.14159265359,0.));
#408 = ( GEOMETRIC_REPRESENTATION_CONTEXT(2) 
PARAMETRIC_REPRESENTATION_CONTEXT() REPRESENTATION_CONTEXT('2D SPACE',''
  ) );
#409 = PCURVE('',#334,#410);
#410 = DEFINITIONAL_REPRESENTATION('',(#411),#419);
#411 = ( BOUNDED_CURVE() B_SPLINE_CURVE(2,(#412,#413,#414,#415,#416,#417
,#418),.UNSPECIFIED.,.T.,.F.) B_SPLINE_CURVE_WITH_KNOTS((1,2,2,2,2,1),(
    -2.094395102393,0.,2.094395102393,4.188790204786,6.28318530718,
8.377580409573),.UNSPECIFIED.) CURVE() GEOMETRIC_REPRESENTATION_ITEM() 
RATIONAL_B_SPLINE_CURVE((1.,0.5,1.,0.5,1.,0.5,1.)) REPRESENTATION_ITEM(
  '') );
#412 = CARTESIAN_POINT('',(-4.,0.));
#413 = CARTESIAN_POINT('',(-4.,6.928203230276));
#414 = CARTESIAN_POINT('',(2.,3.464101615138));
#415 = CARTESIAN_POINT('',(8.,9.797174393179E-16));
#416 = CARTESIAN_POINT('',(2.,-3.464101615138));
#417 = CARTESIAN_POINT('',(-4.,-6.928203230276));
#418 = CARTESIAN_POINT('',(-4.,0.));
#419 = ( GEOMETRIC_REPRESENTATION_CONTEXT(2) 
PARAMETRIC_REPRESENTATION_CONTEXT() REPRESENTATION_CONTEXT('2D SPACE',''
  ) );
#420 = ORIENTED_EDGE('',*,*,#351,.T.);
#421 = ADVANCED_FACE('',(#422,#425),#334,.F.);
#422 = FACE_BOUND('',#423,.T.);
#423 = EDGE_LOOP('',(#424));
#424 = ORIENTED_EDGE('',*,*,#373,.T.);
#425 = FACE_BOUND('',#426,.T.);
#426 = EDGE_LOOP('',(#427));
#427 = ORIENTED_EDGE('',*,*,#297,.T.);
#428 = ( GEOMETRIC_REPRESENTATION_CONTEXT(3) 
GLOBAL_UNCERTAINTY_ASSIGNED_CONTEXT((#432)) GLOBAL_UNIT_ASSIGNED_CONTEXT
((#429,#430,#431)) REPRESENTATION_CONTEXT('Context #1',
  '3D Context with UNIT and UNCERTAINTY') );
#429 = ( LENGTH_UNIT() NAMED_UNIT(*) SI_UNIT(.MILLI.,.METRE.) );
#430 = ( NAMED_UNIT(*) PLANE_ANGLE_UNIT() SI_UNIT($,.RADIAN.) );
#431 = ( NAMED_UNIT(*) SI_UNIT($,.STERADIAN.) SOLID_ANGLE_UNIT() );
#432 = UNCERTAINTY_MEASURE_WITH_UNIT(LENGTH_MEASURE(1.E-05),#429,
  'distance_accuracy_value','confusion accuracy');
#433 = PRODUCT_TYPE('part',$,(#7));
#434 = MECHANICAL_DESIGN_GEOMETRIC_PRESENTATION_REPRESENTATION('',(#435)
  ,#428);
#435 = STYLED_ITEM('color',(#436),#15);
#436 = PRESENTATION_STYLE_ASSIGNMENT((#437,#443));
#437 = SURFACE_STYLE_USAGE(.BOTH.,#438);
#438 = SURFACE_SIDE_STYLE('',(#439));
#439 = SURFACE_STYLE_FILL_AREA(#440);
#440 = FILL_AREA_STYLE('',(#441));
#441 = FILL_AREA_STYLE_COLOUR('',#442);
#442 = COLOUR_RGB('',0.796078443527,0.603921592236,0.23137255013);
#443 = CURVE_STYLE('',#444,POSITIVE_LENGTH_MEASURE(0.1),#442);
#444 = DRAUGHTING_PRE_DEFINED_CURVE_FONT('continuous');
ENDSEC;
END-ISO-10303-21;
