ISO-10303-21;
HEADER;
FILE_DESCRIPTION(('CATIA V5 STEP Exchange'),'2;1');

FILE_NAME('C:\\User\\U482888\\98_ITII\\Projet_promotion\\EE_Technique\\II_CAO\\Liaisons au sol\\9150148_Tendeur_de_chaine.stp','2018-02-08T17:44:26+00:00',('none'),('none'),'Version 5-6 Release 2012','CATIA V5 STEP AP203','none');

FILE_SCHEMA(('CONFIG_CONTROL_DESIGN'));

ENDSEC;
DATA;
#5=PRODUCT('9150148_Tendeur de chaine ','','',(#2)) ;
#1=APPLICATION_CONTEXT('configuration controlled 3D design of mechanical parts and assemblies') ;
#14=PRODUCT_DEFINITION('',' ',#6,#3) ;
#16=SECURITY_CLASSIFICATION(' ',' ',#15) ;
#15=SECURITY_CLASSIFICATION_LEVEL('unclassified') ;
#47=CARTESIAN_POINT(' ',(0.,0.,0.)) ;
#52=CARTESIAN_POINT('Axis2P3D Location',(24.,20.,4.9)) ;
#57=CARTESIAN_POINT('Line Origine',(13.0302179764,25.9928192326,2.5)) ;
#61=CARTESIAN_POINT('Vertex',(13.0302179764,25.9928192326,0.)) ;
#63=CARTESIAN_POINT('Vertex',(13.0302179764,25.9928192326,5.)) ;
#66=CARTESIAN_POINT('Axis2P3D Location',(24.,20.,0.)) ;
#70=CARTESIAN_POINT('Vertex',(34.9697820236,14.0071807674,0.)) ;
#73=CARTESIAN_POINT('Line Origine',(34.9697820236,14.0071807674,2.5)) ;
#77=CARTESIAN_POINT('Vertex',(34.9697820236,14.0071807674,5.)) ;
#80=CARTESIAN_POINT('Axis2P3D Location',(24.,20.,5.)) ;
#92=CARTESIAN_POINT('Axis2P3D Location',(0.,0.,5.)) ;
#97=CARTESIAN_POINT('Line Origine',(7.5,20.,5.)) ;
#101=CARTESIAN_POINT('Vertex',(7.5,40.,5.)) ;
#103=CARTESIAN_POINT('Vertex',(7.5,0.,5.)) ;
#106=CARTESIAN_POINT('Line Origine',(24.75,0.,5.)) ;
#110=CARTESIAN_POINT('Vertex',(42.,0.,5.)) ;
#113=CARTESIAN_POINT('Line Origine',(42.,20.,5.)) ;
#117=CARTESIAN_POINT('Vertex',(42.,40.,5.)) ;
#120=CARTESIAN_POINT('Line Origine',(24.75,40.,5.)) ;
#131=CARTESIAN_POINT('Axis2P3D Location',(24.,20.,5.)) ;
#141=CARTESIAN_POINT('Axis2P3D Location',(24.,20.,0.)) ;
#153=CARTESIAN_POINT('Axis2P3D Location',(7.5,40.,15.)) ;
#158=CARTESIAN_POINT('Line Origine',(7.5,40.,10.)) ;
#162=CARTESIAN_POINT('Vertex',(7.5,40.,15.)) ;
#165=CARTESIAN_POINT('Line Origine',(7.5,20.,15.)) ;
#169=CARTESIAN_POINT('Vertex',(7.5,0.,15.)) ;
#172=CARTESIAN_POINT('Line Origine',(7.5,0.,10.)) ;
#184=CARTESIAN_POINT('Axis2P3D Location',(0.,0.,0.)) ;
#189=CARTESIAN_POINT('Line Origine',(3.75,0.,15.)) ;
#193=CARTESIAN_POINT('Vertex',(0.,0.,15.)) ;
#196=CARTESIAN_POINT('Line Origine',(0.,0.,7.5)) ;
#200=CARTESIAN_POINT('Vertex',(0.,0.,0.)) ;
#203=CARTESIAN_POINT('Line Origine',(21.,0.,0.)) ;
#207=CARTESIAN_POINT('Vertex',(42.,0.,0.)) ;
#210=CARTESIAN_POINT('Line Origine',(42.,0.,2.5)) ;
#224=CARTESIAN_POINT('Axis2P3D Location',(42.,0.,0.)) ;
#229=CARTESIAN_POINT('Line Origine',(42.,20.,0.)) ;
#233=CARTESIAN_POINT('Vertex',(42.,40.,0.)) ;
#236=CARTESIAN_POINT('Line Origine',(42.,40.,2.5)) ;
#248=CARTESIAN_POINT('Axis2P3D Location',(42.,40.,0.)) ;
#253=CARTESIAN_POINT('Line Origine',(21.,40.,0.)) ;
#257=CARTESIAN_POINT('Vertex',(0.,40.,0.)) ;
#260=CARTESIAN_POINT('Line Origine',(0.,40.,7.5)) ;
#264=CARTESIAN_POINT('Vertex',(0.,40.,15.)) ;
#267=CARTESIAN_POINT('Line Origine',(3.75,40.,15.)) ;
#281=CARTESIAN_POINT('Axis2P3D Location',(0.,0.,15.)) ;
#286=CARTESIAN_POINT('Line Origine',(0.,20.,15.)) ;
#298=CARTESIAN_POINT('Axis2P3D Location',(0.,40.,0.)) ;
#303=CARTESIAN_POINT('Line Origine',(0.,20.,0.)) ;
#315=CARTESIAN_POINT('Axis2P3D Location',(0.,0.,0.)) ;
#53=DIRECTION('Axis2P3D Direction',(0.,-0.,-1.)) ;
#54=DIRECTION('Axis2P3D XDirection',(0.87758256189,-0.479425538604,0.)) ;
#58=DIRECTION('Vector Direction',(0.,0.,-1.)) ;
#67=DIRECTION('Axis2P3D Direction',(0.,-0.,-1.)) ;
#74=DIRECTION('Vector Direction',(0.,0.,-1.)) ;
#81=DIRECTION('Axis2P3D Direction',(0.,-0.,-1.)) ;
#93=DIRECTION('Axis2P3D Direction',(0.,0.,1.)) ;
#94=DIRECTION('Axis2P3D XDirection',(1.,0.,0.)) ;
#98=DIRECTION('Vector Direction',(0.,-1.,0.)) ;
#107=DIRECTION('Vector Direction',(-1.,0.,0.)) ;
#114=DIRECTION('Vector Direction',(0.,1.,0.)) ;
#121=DIRECTION('Vector Direction',(1.,0.,0.)) ;
#132=DIRECTION('Axis2P3D Direction',(0.,0.,1.)) ;
#142=DIRECTION('Axis2P3D Direction',(0.,-0.,-1.)) ;
#154=DIRECTION('Axis2P3D Direction',(1.,0.,0.)) ;
#155=DIRECTION('Axis2P3D XDirection',(0.,-1.,0.)) ;
#159=DIRECTION('Vector Direction',(0.,0.,-1.)) ;
#166=DIRECTION('Vector Direction',(0.,-1.,0.)) ;
#173=DIRECTION('Vector Direction',(0.,0.,-1.)) ;
#185=DIRECTION('Axis2P3D Direction',(0.,-1.,0.)) ;
#186=DIRECTION('Axis2P3D XDirection',(1.,0.,0.)) ;
#190=DIRECTION('Vector Direction',(1.,0.,0.)) ;
#197=DIRECTION('Vector Direction',(0.,0.,1.)) ;
#204=DIRECTION('Vector Direction',(1.,0.,0.)) ;
#211=DIRECTION('Vector Direction',(0.,0.,1.)) ;
#225=DIRECTION('Axis2P3D Direction',(1.,0.,0.)) ;
#226=DIRECTION('Axis2P3D XDirection',(0.,1.,0.)) ;
#230=DIRECTION('Vector Direction',(0.,1.,0.)) ;
#237=DIRECTION('Vector Direction',(0.,0.,1.)) ;
#249=DIRECTION('Axis2P3D Direction',(0.,1.,-0.)) ;
#250=DIRECTION('Axis2P3D XDirection',(-1.,0.,0.)) ;
#254=DIRECTION('Vector Direction',(-1.,0.,0.)) ;
#261=DIRECTION('Vector Direction',(0.,0.,1.)) ;
#268=DIRECTION('Vector Direction',(-1.,0.,0.)) ;
#282=DIRECTION('Axis2P3D Direction',(0.,0.,1.)) ;
#283=DIRECTION('Axis2P3D XDirection',(1.,0.,0.)) ;
#287=DIRECTION('Vector Direction',(0.,-1.,0.)) ;
#299=DIRECTION('Axis2P3D Direction',(-1.,0.,0.)) ;
#300=DIRECTION('Axis2P3D XDirection',(0.,-1.,0.)) ;
#304=DIRECTION('Vector Direction',(0.,-1.,0.)) ;
#316=DIRECTION('Axis2P3D Direction',(0.,0.,1.)) ;
#317=DIRECTION('Axis2P3D XDirection',(1.,0.,0.)) ;
#48=AXIS2_PLACEMENT_3D(' ',#47,$,$) ;
#55=AXIS2_PLACEMENT_3D('Cylinder Axis2P3D',#52,#53,#54) ;
#68=AXIS2_PLACEMENT_3D('Circle Axis2P3D',#66,#67,$) ;
#82=AXIS2_PLACEMENT_3D('Circle Axis2P3D',#80,#81,$) ;
#95=AXIS2_PLACEMENT_3D('Plane Axis2P3D',#92,#93,#94) ;
#133=AXIS2_PLACEMENT_3D('Circle Axis2P3D',#131,#132,$) ;
#143=AXIS2_PLACEMENT_3D('Circle Axis2P3D',#141,#142,$) ;
#156=AXIS2_PLACEMENT_3D('Plane Axis2P3D',#153,#154,#155) ;
#187=AXIS2_PLACEMENT_3D('Plane Axis2P3D',#184,#185,#186) ;
#227=AXIS2_PLACEMENT_3D('Plane Axis2P3D',#224,#225,#226) ;
#251=AXIS2_PLACEMENT_3D('Plane Axis2P3D',#248,#249,#250) ;
#284=AXIS2_PLACEMENT_3D('Plane Axis2P3D',#281,#282,#283) ;
#301=AXIS2_PLACEMENT_3D('Plane Axis2P3D',#298,#299,#300) ;
#318=AXIS2_PLACEMENT_3D('Plane Axis2P3D',#315,#316,#317) ;
#40=PRODUCT_DEFINITION_SHAPE(' ',' ',#14) ;
#31=APPROVAL_PERSON_ORGANIZATION(#25,#21,#19) ;
#25=PERSON_AND_ORGANIZATION(#22,#23) ;
#22=PERSON(' ',' ',' ',$,$,$) ;
#23=ORGANIZATION(' ',' ',' ') ;
#21=APPROVAL(#20,' ') ;
#20=APPROVAL_STATUS('not_yet_approved') ;
#19=APPROVAL_ROLE('APPROVER') ;
#13=DATE_AND_TIME(#11,#12) ;
#12=LOCAL_TIME(18,44,26.,#10) ;
#10=COORDINATED_UNIVERSAL_TIME_OFFSET(0,0,.AHEAD.) ;
#86=ORIENTED_EDGE('',*,*,#65,.F.) ;
#87=ORIENTED_EDGE('',*,*,#72,.F.) ;
#88=ORIENTED_EDGE('',*,*,#79,.T.) ;
#89=ORIENTED_EDGE('',*,*,#84,.T.) ;
#126=ORIENTED_EDGE('',*,*,#105,.T.) ;
#127=ORIENTED_EDGE('',*,*,#112,.T.) ;
#128=ORIENTED_EDGE('',*,*,#119,.T.) ;
#129=ORIENTED_EDGE('',*,*,#124,.T.) ;
#137=ORIENTED_EDGE('',*,*,#135,.F.) ;
#138=ORIENTED_EDGE('',*,*,#84,.F.) ;
#147=ORIENTED_EDGE('',*,*,#79,.F.) ;
#148=ORIENTED_EDGE('',*,*,#145,.F.) ;
#149=ORIENTED_EDGE('',*,*,#65,.T.) ;
#150=ORIENTED_EDGE('',*,*,#135,.T.) ;
#178=ORIENTED_EDGE('',*,*,#164,.F.) ;
#179=ORIENTED_EDGE('',*,*,#171,.T.) ;
#180=ORIENTED_EDGE('',*,*,#176,.T.) ;
#181=ORIENTED_EDGE('',*,*,#105,.F.) ;
#216=ORIENTED_EDGE('',*,*,#195,.F.) ;
#217=ORIENTED_EDGE('',*,*,#202,.F.) ;
#218=ORIENTED_EDGE('',*,*,#209,.T.) ;
#219=ORIENTED_EDGE('',*,*,#214,.T.) ;
#220=ORIENTED_EDGE('',*,*,#112,.F.) ;
#221=ORIENTED_EDGE('',*,*,#176,.F.) ;
#242=ORIENTED_EDGE('',*,*,#214,.F.) ;
#243=ORIENTED_EDGE('',*,*,#235,.T.) ;
#244=ORIENTED_EDGE('',*,*,#240,.T.) ;
#245=ORIENTED_EDGE('',*,*,#119,.F.) ;
#273=ORIENTED_EDGE('',*,*,#240,.F.) ;
#274=ORIENTED_EDGE('',*,*,#259,.T.) ;
#275=ORIENTED_EDGE('',*,*,#266,.T.) ;
#276=ORIENTED_EDGE('',*,*,#271,.F.) ;
#277=ORIENTED_EDGE('',*,*,#164,.T.) ;
#278=ORIENTED_EDGE('',*,*,#124,.F.) ;
#292=ORIENTED_EDGE('',*,*,#271,.T.) ;
#293=ORIENTED_EDGE('',*,*,#290,.T.) ;
#294=ORIENTED_EDGE('',*,*,#195,.T.) ;
#295=ORIENTED_EDGE('',*,*,#171,.F.) ;
#309=ORIENTED_EDGE('',*,*,#266,.F.) ;
#310=ORIENTED_EDGE('',*,*,#307,.T.) ;
#311=ORIENTED_EDGE('',*,*,#202,.T.) ;
#312=ORIENTED_EDGE('',*,*,#290,.F.) ;
#321=ORIENTED_EDGE('',*,*,#307,.F.) ;
#322=ORIENTED_EDGE('',*,*,#259,.F.) ;
#323=ORIENTED_EDGE('',*,*,#235,.F.) ;
#324=ORIENTED_EDGE('',*,*,#209,.F.) ;
#327=ORIENTED_EDGE('',*,*,#72,.T.) ;
#328=ORIENTED_EDGE('',*,*,#145,.T.) ;
#139=FACE_BOUND('',#136,.T.) ;
#329=FACE_BOUND('',#326,.T.) ;
#51=CLOSED_SHELL('Closed Shell',(#91,#140,#152,#183,#223,#247,#280,#297,#314,#330)) ;
#59=VECTOR('Line Direction',#58,1.) ;
#75=VECTOR('Line Direction',#74,1.) ;
#99=VECTOR('Line Direction',#98,1.) ;
#108=VECTOR('Line Direction',#107,1.) ;
#115=VECTOR('Line Direction',#114,1.) ;
#122=VECTOR('Line Direction',#121,1.) ;
#160=VECTOR('Line Direction',#159,1.) ;
#167=VECTOR('Line Direction',#166,1.) ;
#174=VECTOR('Line Direction',#173,1.) ;
#191=VECTOR('Line Direction',#190,1.) ;
#198=VECTOR('Line Direction',#197,1.) ;
#205=VECTOR('Line Direction',#204,1.) ;
#212=VECTOR('Line Direction',#211,1.) ;
#231=VECTOR('Line Direction',#230,1.) ;
#238=VECTOR('Line Direction',#237,1.) ;
#255=VECTOR('Line Direction',#254,1.) ;
#262=VECTOR('Line Direction',#261,1.) ;
#269=VECTOR('Line Direction',#268,1.) ;
#288=VECTOR('Line Direction',#287,1.) ;
#305=VECTOR('Line Direction',#304,1.) ;
#332=ADVANCED_BREP_SHAPE_REPRESENTATION('NONE',(#331),#46) ;
#49=SHAPE_REPRESENTATION(' ',(#48),#46) ;
#91=ADVANCED_FACE('Corps principal',(#90),#56,.F.) ;
#140=ADVANCED_FACE('Corps principal',(#130,#139),#96,.T.) ;
#152=ADVANCED_FACE('Corps principal',(#151),#56,.F.) ;
#183=ADVANCED_FACE('Corps principal',(#182),#157,.T.) ;
#223=ADVANCED_FACE('Corps principal',(#222),#188,.T.) ;
#247=ADVANCED_FACE('Corps principal',(#246),#228,.T.) ;
#280=ADVANCED_FACE('Corps principal',(#279),#252,.T.) ;
#297=ADVANCED_FACE('Corps principal',(#296),#285,.T.) ;
#314=ADVANCED_FACE('Corps principal',(#313),#302,.T.) ;
#330=ADVANCED_FACE('Corps principal',(#325,#329),#319,.F.) ;
#4=APPLICATION_PROTOCOL_DEFINITION('international standard','config_control_design',1994,#1) ;
#32=APPROVAL_DATE_TIME(#13,#21) ;
#331=MANIFOLD_SOLID_BREP('Corps principal',#51) ;
#11=CALENDAR_DATE(2018,8,2) ;
#30=CC_DESIGN_APPROVAL(#21,(#16,#6,#14)) ;
#18=CC_DESIGN_DATE_AND_TIME_ASSIGNMENT(#13,#17,(#16)) ;
#29=CC_DESIGN_DATE_AND_TIME_ASSIGNMENT(#13,#28,(#14)) ;
#17=DATE_TIME_ROLE('classification_date') ;
#28=DATE_TIME_ROLE('creation_date') ;
#27=CC_DESIGN_PERSON_AND_ORGANIZATION_ASSIGNMENT(#25,#26,(#16)) ;
#33=CC_DESIGN_PERSON_AND_ORGANIZATION_ASSIGNMENT(#25,#34,(#6)) ;
#35=CC_DESIGN_PERSON_AND_ORGANIZATION_ASSIGNMENT(#25,#36,(#6,#14)) ;
#37=CC_DESIGN_PERSON_AND_ORGANIZATION_ASSIGNMENT(#25,#38,(#5)) ;
#26=PERSON_AND_ORGANIZATION_ROLE('classification_officer') ;
#34=PERSON_AND_ORGANIZATION_ROLE('design_supplier') ;
#36=PERSON_AND_ORGANIZATION_ROLE('creator') ;
#38=PERSON_AND_ORGANIZATION_ROLE('design_owner') ;
#39=CC_DESIGN_SECURITY_CLASSIFICATION(#16,(#6)) ;
#69=CIRCLE('generated circle',#68,12.5) ;
#83=CIRCLE('generated circle',#82,12.5) ;
#134=CIRCLE('generated circle',#133,12.5) ;
#144=CIRCLE('generated circle',#143,12.5) ;
#333=SHAPE_REPRESENTATION_RELATIONSHIP(' ',' ',#49,#332) ;
#56=CYLINDRICAL_SURFACE('generated cylinder',#55,12.5) ;
#3=DESIGN_CONTEXT(' ',#1,'design') ;
#65=EDGE_CURVE('',#62,#64,#60,.F.) ;
#72=EDGE_CURVE('',#71,#62,#69,.F.) ;
#79=EDGE_CURVE('',#71,#78,#76,.F.) ;
#84=EDGE_CURVE('',#78,#64,#83,.F.) ;
#105=EDGE_CURVE('',#102,#104,#100,.T.) ;
#112=EDGE_CURVE('',#104,#111,#109,.F.) ;
#119=EDGE_CURVE('',#111,#118,#116,.T.) ;
#124=EDGE_CURVE('',#118,#102,#123,.F.) ;
#135=EDGE_CURVE('',#64,#78,#134,.T.) ;
#145=EDGE_CURVE('',#62,#71,#144,.F.) ;
#164=EDGE_CURVE('',#163,#102,#161,.T.) ;
#171=EDGE_CURVE('',#163,#170,#168,.T.) ;
#176=EDGE_CURVE('',#170,#104,#175,.T.) ;
#195=EDGE_CURVE('',#194,#170,#192,.T.) ;
#202=EDGE_CURVE('',#201,#194,#199,.T.) ;
#209=EDGE_CURVE('',#201,#208,#206,.T.) ;
#214=EDGE_CURVE('',#208,#111,#213,.T.) ;
#235=EDGE_CURVE('',#208,#234,#232,.T.) ;
#240=EDGE_CURVE('',#234,#118,#239,.T.) ;
#259=EDGE_CURVE('',#234,#258,#256,.T.) ;
#266=EDGE_CURVE('',#258,#265,#263,.T.) ;
#271=EDGE_CURVE('',#163,#265,#270,.T.) ;
#290=EDGE_CURVE('',#265,#194,#289,.T.) ;
#307=EDGE_CURVE('',#258,#201,#306,.T.) ;
#85=EDGE_LOOP('',(#86,#87,#88,#89)) ;
#125=EDGE_LOOP('',(#126,#127,#128,#129)) ;
#136=EDGE_LOOP('',(#137,#138)) ;
#146=EDGE_LOOP('',(#147,#148,#149,#150)) ;
#177=EDGE_LOOP('',(#178,#179,#180,#181)) ;
#215=EDGE_LOOP('',(#216,#217,#218,#219,#220,#221)) ;
#241=EDGE_LOOP('',(#242,#243,#244,#245)) ;
#272=EDGE_LOOP('',(#273,#274,#275,#276,#277,#278)) ;
#291=EDGE_LOOP('',(#292,#293,#294,#295)) ;
#308=EDGE_LOOP('',(#309,#310,#311,#312)) ;
#320=EDGE_LOOP('',(#321,#322,#323,#324)) ;
#326=EDGE_LOOP('',(#327,#328)) ;
#90=FACE_OUTER_BOUND('',#85,.T.) ;
#130=FACE_OUTER_BOUND('',#125,.T.) ;
#151=FACE_OUTER_BOUND('',#146,.T.) ;
#182=FACE_OUTER_BOUND('',#177,.T.) ;
#222=FACE_OUTER_BOUND('',#215,.T.) ;
#246=FACE_OUTER_BOUND('',#241,.T.) ;
#279=FACE_OUTER_BOUND('',#272,.T.) ;
#296=FACE_OUTER_BOUND('',#291,.T.) ;
#313=FACE_OUTER_BOUND('',#308,.T.) ;
#325=FACE_OUTER_BOUND('',#320,.T.) ;
#45=UNCERTAINTY_MEASURE_WITH_UNIT(LENGTH_MEASURE(0.005),#41,'distance_accuracy_value','CONFUSED CURVE UNCERTAINTY') ;
#60=LINE('Line',#57,#59) ;
#76=LINE('Line',#73,#75) ;
#100=LINE('Line',#97,#99) ;
#109=LINE('Line',#106,#108) ;
#116=LINE('Line',#113,#115) ;
#123=LINE('Line',#120,#122) ;
#161=LINE('Line',#158,#160) ;
#168=LINE('Line',#165,#167) ;
#175=LINE('Line',#172,#174) ;
#192=LINE('Line',#189,#191) ;
#199=LINE('Line',#196,#198) ;
#206=LINE('Line',#203,#205) ;
#213=LINE('Line',#210,#212) ;
#232=LINE('Line',#229,#231) ;
#239=LINE('Line',#236,#238) ;
#256=LINE('Line',#253,#255) ;
#263=LINE('Line',#260,#262) ;
#270=LINE('Line',#267,#269) ;
#289=LINE('Line',#286,#288) ;
#306=LINE('Line',#303,#305) ;
#2=MECHANICAL_CONTEXT(' ',#1,'mechanical') ;
#24=PERSONAL_ADDRESS(' ',' ',' ',' ',' ',' ',' ',' ',' ',' ',' ',' ',(#22),' ') ;
#96=PLANE('',#95) ;
#157=PLANE('',#156) ;
#188=PLANE('',#187) ;
#228=PLANE('',#227) ;
#252=PLANE('',#251) ;
#285=PLANE('',#284) ;
#302=PLANE('',#301) ;
#319=PLANE('',#318) ;
#43=PLANE_ANGLE_MEASURE_WITH_UNIT(PLANE_ANGLE_MEASURE(0.0174532925199),#42) ;
#7=PRODUCT_CATEGORY('part',$) ;
#9=PRODUCT_CATEGORY_RELATIONSHIP(' ',' ',#7,#8) ;
#6=PRODUCT_DEFINITION_FORMATION_WITH_SPECIFIED_SOURCE('',' ',#5,.NOT_KNOWN.) ;
#8=PRODUCT_RELATED_PRODUCT_CATEGORY('detail',$,(#5)) ;
#50=SHAPE_DEFINITION_REPRESENTATION(#40,#49) ;
#62=VERTEX_POINT('',#61) ;
#64=VERTEX_POINT('',#63) ;
#71=VERTEX_POINT('',#70) ;
#78=VERTEX_POINT('',#77) ;
#102=VERTEX_POINT('',#101) ;
#104=VERTEX_POINT('',#103) ;
#111=VERTEX_POINT('',#110) ;
#118=VERTEX_POINT('',#117) ;
#163=VERTEX_POINT('',#162) ;
#170=VERTEX_POINT('',#169) ;
#194=VERTEX_POINT('',#193) ;
#201=VERTEX_POINT('',#200) ;
#208=VERTEX_POINT('',#207) ;
#234=VERTEX_POINT('',#233) ;
#258=VERTEX_POINT('',#257) ;
#265=VERTEX_POINT('',#264) ;
#41=(LENGTH_UNIT()NAMED_UNIT(*)SI_UNIT(.MILLI.,.METRE.)) ;
#42=(NAMED_UNIT(*)PLANE_ANGLE_UNIT()SI_UNIT($,.RADIAN.)) ;
#44=(NAMED_UNIT(*)SI_UNIT($,.STERADIAN.)SOLID_ANGLE_UNIT()) ;
#46=(GEOMETRIC_REPRESENTATION_CONTEXT(3)GLOBAL_UNCERTAINTY_ASSIGNED_CONTEXT((#45))GLOBAL_UNIT_ASSIGNED_CONTEXT((#41,#42,#44))REPRESENTATION_CONTEXT(' ',' ')) ;
ENDSEC;
END-ISO-10303-21;
