  0
SECTION
  2
HEADER
  9
$ACADVER
  1
AC1014
  9
$ACADMAINTVER
 70
     9
  9
$DWGCODEPAGE
  3
ANSI_1252
  9
$INSBASE
 10
0.0
 20
0.0
 30
0.0
  9
$EXTMIN
 10
1.000000000000000E+20
 20
1.000000000000000E+20
 30
1.000000000000000E+20
  9
$EXTMAX
 10
-1.000000000000000E+20
 20
-1.000000000000000E+20
 30
-1.000000000000000E+20
  9
$LIMMIN
 10
0.0
 20
0.0
  9
$LIMMAX
 10
12.0
 20
9.0
  9
$ORTHOMODE
 70
     0
  9
$REGENMODE
 70
     1
  9
$FILLMODE
 70
     1
  9
$QTEXTMODE
 70
     0
  9
$MIRRTEXT
 70
     1
  9
$DRAGMODE
 70
     2
  9
$LTSCALE
 40
1.0
  9
$OSMODE
 70
    37
  9
$ATTMODE
 70
     1
  9
$TEXTSIZE
 40
0.2
  9
$TRACEWID
 40
0.05
  9
$TEXTSTYLE
  7
STANDARD
  9
$CLAYER
  8
0
  9
$CELTYPE
  6
BYLAYER
  9
$CECOLOR
 62
   256
  9
$CELTSCALE
 40
1.0
  9
$DELOBJ
 70
     1
  9
$DISPSILH
 70
     0
  9
$DIMSCALE
 40
1.0
  9
$DIMASZ
 40
0.18
  9
$DIMEXO
 40
0.0625
  9
$DIMDLI
 40
0.38
  9
$DIMRND
 40
0.0
  9
$DIMDLE
 40
0.0
  9
$DIMEXE
 40
0.18
  9
$DIMTP
 40
0.0
  9
$DIMTM
 40
0.0
  9
$DIMTXT
 40
0.18
  9
$DIMCEN
 40
0.09
  9
$DIMTSZ
 40
0.0
  9
$DIMTOL
 70
     0
  9
$DIMLIM
 70
     0
  9
$DIMTIH
 70
     1
  9
$DIMTOH
 70
     1
  9
$DIMSE1
 70
     0
  9
$DIMSE2
 70
     0
  9
$DIMTAD
 70
     0
  9
$DIMZIN
 70
     0
  9
$DIMBLK
  1

  9
$DIMASO
 70
     1
  9
$DIMSHO
 70
     1
  9
$DIMPOST
  1

  9
$DIMAPOST
  1

  9
$DIMALT
 70
     0
  9
$DIMALTD
 70
     2
  9
$DIMALTF
 40
25.4
  9
$DIMLFAC
 40
1.0
  9
$DIMTOFL
 70
     0
  9
$DIMTVP
 40
0.0
  9
$DIMTIX
 70
     0
  9
$DIMSOXD
 70
     0
  9
$DIMSAH
 70
     0
  9
$DIMBLK1
  1

  9
$DIMBLK2
  1

  9
$DIMSTYLE
  2
STANDARD
  9
$DIMCLRD
 70
     0
  9
$DIMCLRE
 70
     0
  9
$DIMCLRT
 70
     0
  9
$DIMTFAC
 40
1.0
  9
$DIMGAP
 40
0.09
  9
$DIMJUST
 70
     0
  9
$DIMSD1
 70
     0
  9
$DIMSD2
 70
     0
  9
$DIMTOLJ
 70
     1
  9
$DIMTZIN
 70
     0
  9
$DIMALTZ
 70
     0
  9
$DIMALTTZ
 70
     0
  9
$DIMFIT
 70
     3
  9
$DIMUPT
 70
     0
  9
$DIMUNIT
 70
     2
  9
$DIMDEC
 70
     4
  9
$DIMTDEC
 70
     4
  9
$DIMALTU
 70
     2
  9
$DIMALTTD
 70
     2
  9
$DIMTXSTY
  7
STANDARD
  9
$DIMAUNIT
 70
     0
  9
$LUNITS
 70
     2
  9
$LUPREC
 70
     4
  9
$SKETCHINC
 40
0.1
  9
$FILLETRAD
 40
0.5
  9
$AUNITS
 70
     0
  9
$AUPREC
 70
     0
  9
$MENU
  1
.
  9
$ELEVATION
 40
0.0
  9
$PELEVATION
 40
0.0
  9
$THICKNESS
 40
0.0
  9
$LIMCHECK
 70
     0
  9
$CHAMFERA
 40
0.0
  9
$CHAMFERB
 40
0.0
  9
$CHAMFERC
 40
0.0
  9
$CHAMFERD
 40
0.0
  9
$SKPOLY
 70
     0
  9
$TDCREATE
 40
2458095.044406968
  9
$TDUPDATE
 40
2458095.044407303
  9
$TDINDWG
 40
0.0000000116
  9
$TDUSRTIMER
 40
0.0000000116
  9
$USRTIMER
 70
     1
  9
$ANGBASE
 50
0.0
  9
$ANGDIR
 70
     0
  9
$PDMODE
 70
     0
  9
$PDSIZE
 40
0.0
  9
$PLINEWID
 40
0.0
  9
$COORDS
 70
     1
  9
$SPLFRAME
 70
     0
  9
$SPLINETYPE
 70
     6
  9
$SPLINESEGS
 70
     8
  9
$ATTDIA
 70
     0
  9
$ATTREQ
 70
     1
  9
$HANDLING
 70
     1
  9
$HANDSEED
  5
35B
  9
$SURFTAB1
 70
     6
  9
$SURFTAB2
 70
     6
  9
$SURFTYPE
 70
     6
  9
$SURFU
 70
     6
  9
$SURFV
 70
     6
  9
$UCSNAME
  2

  9
$UCSORG
 10
0.0
 20
0.0
 30
0.0
  9
$UCSXDIR
 10
1.0
 20
0.0
 30
0.0
  9
$UCSYDIR
 10
0.0
 20
1.0
 30
0.0
  9
$PUCSNAME
  2

  9
$PUCSORG
 10
0.0
 20
0.0
 30
0.0
  9
$PUCSXDIR
 10
1.0
 20
0.0
 30
0.0
  9
$PUCSYDIR
 10
0.0
 20
1.0
 30
0.0
  9
$USERI1
 70
     0
  9
$USERI2
 70
     0
  9
$USERI3
 70
     0
  9
$USERI4
 70
     0
  9
$USERI5
 70
     0
  9
$USERR1
 40
0.0
  9
$USERR2
 40
0.0
  9
$USERR3
 40
0.0
  9
$USERR4
 40
0.0
  9
$USERR5
 40
0.0
  9
$WORLDVIEW
 70
     1
  9
$SHADEDGE
 70
     3
  9
$SHADEDIF
 70
    70
  9
$TILEMODE
 70
     1
  9
$MAXACTVP
 70
    64
  9
$PINSBASE
 10
0.0
 20
0.0
 30
0.0
  9
$PLIMCHECK
 70
     0
  9
$PEXTMIN
 10
1.000000000000000E+20
 20
1.000000000000000E+20
 30
1.000000000000000E+20
  9
$PEXTMAX
 10
-1.000000000000000E+20
 20
-1.000000000000000E+20
 30
-1.000000000000000E+20
  9
$PLIMMIN
 10
0.0
 20
0.0
  9
$PLIMMAX
 10
12.0
 20
9.0
  9
$UNITMODE
 70
     0
  9
$VISRETAIN
 70
     1
  9
$PLINEGEN
 70
     0
  9
$PSLTSCALE
 70
     1
  9
$TREEDEPTH
 70
  3020
  9
$PICKSTYLE
 70
     1
  9
$CMLSTYLE
  2
STANDARD
  9
$CMLJUST
 70
     0
  9
$CMLSCALE
 40
1.0
  9
$PROXYGRAPHICS
 70
     1
  9
$MEASUREMENT
 70
     1
  0
ENDSEC
  0
SECTION
  2
CLASSES
  0
CLASS
  1
ACDBDICTIONARYWDFLT
  2
AcDbDictionaryWithDefault
  3
ObjectDBX Classes
 90
        0
280
     0
281
     0
  0
CLASS
  1
VISUALSTYLE
  2
AcDbVisualStyle
  3
ObjectDBX Classes
 90
     4095
280
     0
281
     0
  0
CLASS
  1
MATERIAL
  2
AcDbMaterial
  3
ObjectDBX Classes
 90
     1153
280
     0
281
     0
  0
CLASS
  1
SCALE
  2
AcDbScale
  3
ObjectDBX Classes
 90
     1153
280
     0
281
     0
  0
CLASS
  1
TABLESTYLE
  2
AcDbTableStyle
  3
ObjectDBX Classes
 90
     4095
280
     0
281
     0
  0
CLASS
  1
MLEADERSTYLE
  2
AcDbMLeaderStyle
  3
ACDB_MLEADERSTYLE_CLASS
 90
     4095
280
     0
281
     0
  0
CLASS
  1
SUN
  2
AcDbSun
  3
SCENEOE
 90
     1153
280
     0
281
     0
  0
CLASS
  1
DICTIONARYVAR
  2
AcDbDictionaryVar
  3
ObjectDBX Classes
 90
        0
280
     0
281
     0
  0
CLASS
  1
XRECORD
  2
AcDbXrecord
  3
ObjectDBX Classes
 90
        0
280
     0
281
     0
  0
CLASS
  1
LWPOLYLINE
  2
AcDbPolyline
  3
ObjectDBX Classes
 90
        0
280
     0
281
     1
  0
CLASS
  1
HATCH
  2
AcDbHatch
  3
ObjectDBX Classes
 90
        0
280
     0
281
     1
  0
CLASS
  1
ACDBPLACEHOLDER
  2
AcDbPlaceHolder
  3
ObjectDBX Classes
 90
        0
280
     0
281
     0
  0
CLASS
  1
LAYOUT
  2
AcDbLayout
  3
ObjectDBX Classes
 90
        0
280
     0
281
     0
  0
ENDSEC
  0
SECTION
  2
TABLES
  0
TABLE
  2
VPORT
  5
8
102
{ACAD_XDICTIONARY
360
350
102
}
330
0
100
AcDbSymbolTable
 70
     1
  0
VPORT
  5
29
330
8
100
AcDbSymbolTableRecord
100
AcDbViewportTableRecord
  2
*ACTIVE
 70
     0
 10
0.0
 20
0.0
 11
1.0
 21
1.0
 12
0.0
 22
0.0
 13
0.0
 23
0.0
 14
0.5
 24
0.5
 15
0.5
 25
0.5
 16
0.0
 26
0.0
 36
1.0
 17
0.0
 27
0.0
 37
-1000.0
 40
104.0784145830314
 41
2.093366093366094
 42
50.0
 43
296.872612049372
 44
407.434914552076
 50
0.0
 51
0.0
 71
     0
 72
   100
 73
     1
 74
     3
 75
     0
 76
     0
 77
     0
 78
     0
  0
ENDTAB
  0
TABLE
  2
LTYPE
  5
5
330
0
100
AcDbSymbolTable
 70
     1
  0
LTYPE
  5
14
330
5
100
AcDbSymbolTableRecord
100
AcDbLinetypeTableRecord
  2
BYBLOCK
 70
     0
  3

 72
    65
 73
     0
 40
0.0
  0
LTYPE
  5
15
330
5
100
AcDbSymbolTableRecord
100
AcDbLinetypeTableRecord
  2
BYLAYER
 70
     0
  3

 72
    65
 73
     0
 40
0.0
  0
LTYPE
  5
16
330
5
100
AcDbSymbolTableRecord
100
AcDbLinetypeTableRecord
  2
CONTINUOUS
 70
     0
  3
Solid line
 72
    65
 73
     0
 40
0.0
  0
ENDTAB
  0
TABLE
  2
LAYER
  5
2
330
0
100
AcDbSymbolTable
 70
     3
  0
LAYER
  5
10
330
2
100
AcDbSymbolTableRecord
100
AcDbLayerTableRecord
  2
0
 70
     0
 62
     7
  6
CONTINUOUS
  0
LAYER
  5
6E
330
2
100
AcDbSymbolTableRecord
100
AcDbLayerTableRecord
  2
PROFILEEDGES
 70
     0
 62
     7
  6
CONTINUOUS
  0
LAYER
  5
6F
330
2
100
AcDbSymbolTableRecord
100
AcDbLayerTableRecord
  2
SECTIONCUTEDGES
 70
     0
 62
     7
  6
CONTINUOUS
  0
ENDTAB
  0
TABLE
  2
STYLE
  5
3
330
0
100
AcDbSymbolTable
 70
     2
  0
STYLE
  5
11
330
3
100
AcDbSymbolTableRecord
100
AcDbTextStyleTableRecord
  2
STANDARD
 70
     0
 40
0.0
 41
1.0
 50
0.0
 71
     0
 42
0.2
  3
txt
  4

  0
STYLE
  5
30C
330
3
100
AcDbSymbolTableRecord
100
AcDbTextStyleTableRecord
  2
TAHOMA
 70
     0
 40
0.0
 41
1.0
 50
0.0
 71
     0
 42
0.2
  3
Tahoma
  4

1001
ACAD
1000
Tahoma
1071
       34
  0
ENDTAB
  0
TABLE
  2
VIEW
  5
6
330
0
100
AcDbSymbolTable
 70
     0
  0
ENDTAB
  0
TABLE
  2
UCS
  5
7
330
0
100
AcDbSymbolTable
 70
     0
  0
ENDTAB
  0
TABLE
  2
APPID
  5
9
330
0
100
AcDbSymbolTable
 70
     2
  0
APPID
  5
12
330
9
100
AcDbSymbolTableRecord
100
AcDbRegAppTableRecord
  2
ACAD
 70
     0
  0
APPID
  5
35A
330
9
100
AcDbSymbolTableRecord
100
AcDbRegAppTableRecord
  2
ACAD_MLEADERVER
 70
     0
  0
ENDTAB
  0
TABLE
  2
DIMSTYLE
  5
A
330
0
100
AcDbSymbolTable
 70
     1
  0
DIMSTYLE
105
27
330
A
100
AcDbSymbolTableRecord
100
AcDbDimStyleTableRecord
  2
STANDARD
 70
     0
  3

  4

  5

  6

  7

 40
1.0
 41
0.18
 42
0.0625
 43
0.38
 44
0.18
 45
0.0
 46
0.0
 47
0.0
 48
0.0
140
0.18
141
0.09
142
0.0
143
25.4
144
1.0
145
0.0
146
1.0
147
0.09
 71
     0
 72
     0
 73
     1
 74
     1
 75
     0
 76
     0
 77
     0
 78
     0
170
     0
171
     2
172
     0
173
     0
174
     0
175
     0
176
     0
177
     0
178
     0
270
     2
271
     4
272
     4
273
     2
274
     2
340
11
275
     0
280
     0
281
     0
282
     0
283
     1
284
     0
285
     0
286
     0
287
     3
288
     0
  0
ENDTAB
  0
TABLE
  2
BLOCK_RECORD
  5
1
330
0
100
AcDbSymbolTable
 70
     1
  0
BLOCK_RECORD
  5
1F
330
1
100
AcDbSymbolTableRecord
100
AcDbBlockTableRecord
  2
*MODEL_SPACE
  0
BLOCK_RECORD
  5
1B
330
1
100
AcDbSymbolTableRecord
100
AcDbBlockTableRecord
  2
*PAPER_SPACE
  0
ENDTAB
  0
ENDSEC
  0
SECTION
  2
BLOCKS
  0
BLOCK
  5
20
330
1F
100
AcDbEntity
  8
0
100
AcDbBlockBegin
  2
*MODEL_SPACE
 70
     0
 10
0.0
 20
0.0
 30
0.0
  3
*MODEL_SPACE
  1

  0
ENDBLK
  5
21
330
1F
100
AcDbEntity
  8
0
100
AcDbBlockEnd
  0
BLOCK
  5
1C
330
1B
100
AcDbEntity
 67
     1
  8
0
100
AcDbBlockBegin
  2
*PAPER_SPACE
 70
     0
 10
0.0
 20
0.0
 30
0.0
  3
*PAPER_SPACE
  1

  0
ENDBLK
  5
1D
330
1B
100
AcDbEntity
 67
     1
  8
0
100
AcDbBlockEnd
  0
ENDSEC
  0
SECTION
  2
ENTITIES
  0
LINE
  5
70
330
1F
100
AcDbEntity
  8
0
100
AcDbLine
 10
32.20777368210335
 20
11.74249039764666
 30
0.0
 11
32.9113173722135
 21
11.20136175043409
 31
0.0
  0
LINE
  5
71
330
1F
100
AcDbEntity
  8
0
100
AcDbLine
 10
-14.31370962586735
 20
-0.3356545882705656
 30
0.0
 11
-17.00846241266211
 21
-2.398507997756385
 31
0.0
  0
LINE
  5
72
330
1F
100
AcDbEntity
  8
0
100
AcDbLine
 10
-36.04873601609052
 20
12.24626480372678
 30
0.0
 11
-34.74644004035986
 21
15.38012244658878
 31
0.0
  0
LINE
  5
73
330
1F
100
AcDbEntity
  8
0
100
AcDbLine
 10
-12.24468493797728
 20
2.354360996214193
 30
0.0
 11
-14.31370962586735
 21
-0.3356545882705656
 31
0.0
  0
LINE
  5
74
330
1F
100
AcDbEntity
  8
0
100
AcDbLine
 10
-34.74644004035986
 20
15.38012244658878
 30
0.0
 11
-32.67741535246979
 21
18.07013803107352
 31
0.0
  0
LINE
  5
75
330
1F
100
AcDbEntity
  8
0
100
AcDbLine
 10
-20.1165338709136
 20
21.4203946822101
 30
0.0
 11
-16.98267109378205
 21
20.11810084005677
 31
0.0
  0
LINE
  5
76
330
1F
100
AcDbEntity
  8
0
100
AcDbLine
 10
-10.93468100761239
 20
12.21749837253804
 30
0.0
 11
-10.4955710172756
 21
8.85235112089893
 31
0.0
  0
LINE
  5
77
330
1F
100
AcDbEntity
  8
0
100
AcDbLine
 10
-36.49555396106155
 20
8.88213232190405
 30
0.0
 11
-36.04873601609052
 21
12.24626480372678
 31
0.0
  0
LINE
  5
78
330
1F
100
AcDbEntity
  8
0
100
AcDbLine
 10
-26.84582462910611
 20
21.42810262421624
 30
0.0
 11
-23.48067186427041
 21
21.86721189515042
 31
0.0
  0
LINE
  5
79
330
1F
100
AcDbEntity
  8
0
100
AcDbLine
 10
-12.22979431307912
 20
15.35433116996314
 30
0.0
 11
-10.93468100761239
 21
12.21749837253804
 31
0.0
  0
LINE
  5
7A
330
1F
100
AcDbEntity
  8
0
100
AcDbLine
 10
-29.98266256567502
 20
20.13299144055933
 30
0.0
 11
-26.84582462910611
 21
21.42810262421624
 31
0.0
  0
LINE
  5
7B
330
1F
100
AcDbEntity
  8
0
100
AcDbLine
 10
-10.4955710172756
 20
8.85235112089893
 30
0.0
 11
-10.94238896224663
 21
5.488218639076162
 31
0.0
  0
LINE
  5
7C
330
1F
100
AcDbEntity
  8
0
100
AcDbLine
 10
-32.69847387615298
 20
-0.3145960990879786
 30
0.0
 11
-34.76133066525802
 21
2.380152272839835
 31
0.0
  0
LINE
  5
7D
330
1F
100
AcDbEntity
  8
0
100
AcDbLine
 10
-20.14530034923103
 20
-3.693619181413281
 30
0.0
 11
-23.51045311406673
 21
-4.132728452347494
 31
0.0
  0
LINE
  5
7E
330
1F
100
AcDbEntity
  8
0
100
AcDbLine
 10
-23.51045311406673
 20
-4.132728452347494
 30
0.0
 11
-26.87459110742354
 21
-3.685911239407128
 31
0.0
  0
LINE
  5
7F
330
1F
100
AcDbEntity
  8
0
100
AcDbLine
 10
-26.87459110742354
 20
-3.685911239407128
 30
0.0
 11
-30.00845388455508
 21
-2.38361739725384
 31
0.0
  0
LINE
  5
80
330
1F
100
AcDbEntity
  8
0
100
AcDbLine
 10
-34.76133066525802
 20
2.380152272839835
 30
0.0
 11
-36.05644397072476
 21
5.516985070264885
 31
0.0
  0
LINE
  5
81
330
1F
100
AcDbEntity
  8
0
100
AcDbLine
 10
-10.94238896224663
 20
5.488218639076162
 30
0.0
 11
-12.24468493797728
 21
2.354360996214193
 31
0.0
  0
LINE
  5
82
330
1F
100
AcDbEntity
  8
0
100
AcDbLine
 10
-32.67741535246979
 20
18.07013803107352
 30
0.0
 11
-29.98266256567502
 21
20.13299144055933
 31
0.0
  0
LINE
  5
83
330
1F
100
AcDbEntity
  8
0
100
AcDbLine
 10
-16.98267109378205
 20
20.11810084005677
 30
0.0
 11
-14.29265110218416
 21
18.04907954189093
 31
0.0
  0
LINE
  5
84
330
1F
100
AcDbEntity
  8
0
100
AcDbLine
 10
-36.05644397072476
 20
5.516985070264885
 30
0.0
 11
-36.49555396106155
 21
8.88213232190405
 31
0.0
  0
LINE
  5
85
330
1F
100
AcDbEntity
  8
0
100
AcDbLine
 10
-23.48067186427041
 20
21.86721189515042
 30
0.0
 11
-20.1165338709136
 21
21.4203946822101
 31
0.0
  0
LINE
  5
86
330
1F
100
AcDbEntity
  8
0
100
AcDbLine
 10
-17.00846241266211
 20
-2.398507997756385
 30
0.0
 11
-20.14530034923103
 21
-3.693619181413281
 31
0.0
  0
LINE
  5
87
330
1F
100
AcDbEntity
  8
0
100
AcDbLine
 10
-23.42061895085322
 20
8.770404643568659
 30
0.0
 11
-23.49556248916857
 21
8.845519941370144
 31
0.0
  0
LINE
  5
88
330
1F
100
AcDbEntity
  8
0
100
AcDbLine
 10
-23.42061895085322
 20
8.770404643568659
 30
0.0
 11
-23.49573389540188
 21
8.695877066346013
 31
0.0
  0
LINE
  5
89
330
1F
100
AcDbEntity
  8
0
100
AcDbLine
 10
-23.34508537342976
 20
8.84534758013283
 30
0.0
 11
-23.42061895085322
 21
8.770404643568659
 31
0.0
  0
LINE
  5
8A
330
1F
100
AcDbEntity
  8
0
100
AcDbLine
 10
-23.49556248916857
 20
8.845519941370144
 30
0.0
 11
-23.34508537342976
 21
8.84534758013283
 31
0.0
  0
LINE
  5
8B
330
1F
100
AcDbEntity
  8
0
100
AcDbLine
 10
-3.145576496406259
 20
8.846671051323105
 30
0.0
 11
-3.837661734594305
 21
14.15051015414616
 31
0.0
  0
LINE
  5
8C
330
1F
100
AcDbEntity
  8
0
100
AcDbLine
 10
-3.837661734594305
 20
14.15051015414616
 30
0.0
 11
-5.879955793214915
 21
19.09705418085495
 31
0.0
  0
LINE
  5
8D
330
1F
100
AcDbEntity
  8
0
100
AcDbLine
 10
-5.879955793214915
 20
19.09705418085495
 30
0.0
 11
-9.13292226834211
 21
23.3464650750488
 31
0.0
  0
LINE
  5
8E
330
1F
100
AcDbEntity
  8
0
100
AcDbLine
 10
-9.13292226834211
 20
23.3464650750488
 30
0.0
 11
-13.37487687047723
 21
26.60915250677193
 31
0.0
  0
LINE
  5
8F
330
1F
100
AcDbEntity
  8
0
100
AcDbLine
 10
-13.37487687047723
 20
26.60915250677193
 30
0.0
 11
-18.3167374036462
 21
28.66276971939829
 31
0.0
  0
LINE
  5
90
330
1F
100
AcDbEntity
  8
0
100
AcDbLine
 10
-18.3167374036462
 20
28.66276971939829
 30
0.0
 11
-23.62172423932427
 21
29.36736609365038
 31
0.0
  0
LINE
  5
91
330
1F
100
AcDbEntity
  8
0
100
AcDbLine
 10
-23.62172423932427
 20
29.36736609365038
 30
0.0
 11
-28.92831129156517
 21
28.6749245510234
 31
0.0
  0
LINE
  5
92
330
1F
100
AcDbEntity
  8
0
100
AcDbLine
 10
-28.92831129156517
 20
28.6749245510234
 30
0.0
 11
-33.87486342230847
 21
26.63263383833366
 31
0.0
  0
LINE
  5
93
330
1F
100
AcDbEntity
  8
0
100
AcDbLine
 10
-33.87486342230847
 20
26.63263383833366
 30
0.0
 11
-38.1242812784079
 21
23.37967269260599
 31
0.0
  0
LINE
  5
94
330
1F
100
AcDbEntity
  8
0
100
AcDbLine
 10
-38.1242812784079
 20
23.37967269260599
 30
0.0
 11
-41.38697405546533
 21
19.13772504014926
 31
0.0
  0
LINE
  5
95
330
1F
100
AcDbEntity
  8
0
100
AcDbLine
 10
-41.38697405546533
 20
19.13772504014926
 30
0.0
 11
-43.44059463257905
 21
14.19587260332843
 31
0.0
  0
LINE
  5
96
330
1F
100
AcDbEntity
  8
0
100
AcDbLine
 10
-43.44059463257905
 20
14.19587260332843
 30
0.0
 11
-44.14483472230571
 21
8.893585648392374
 31
0.0
  0
LINE
  5
97
330
1F
100
AcDbEntity
  8
0
100
AcDbLine
 10
-50.46461809446549
 20
35.90353685139314
 30
0.0
 11
-50.5264714594271
 21
-18.09633925494884
 31
0.0
  0
LINE
  5
98
330
1F
100
AcDbEntity
  8
0
100
AcDbLine
 10
-50.5264714594271
 20
-18.09633925494884
 30
0.0
 11
3.473493116128352
 21
-18.15819251857484
 31
0.0
  0
LINE
  5
99
330
1F
100
AcDbEntity
  8
0
100
AcDbLine
 10
3.535346481089948
 20
35.84168358776714
 30
0.0
 11
-50.46461809446549
 21
35.90353685139314
 31
0.0
  0
LINE
  5
9A
330
1F
100
AcDbEntity
  8
0
100
AcDbLine
 10
3.473493116128352
 20
-18.15819251857484
 30
0.0
 11
3.714087394189667
 21
-16.34673656682413
 31
0.0
  0
LINE
  5
9B
330
1F
100
AcDbEntity
  8
0
100
AcDbLine
 10
3.714087394189667
 20
-16.34673656682413
 30
0.0
 11
4.415323688813862
 21
-14.65927475912921
 31
0.0
  0
LINE
  5
9C
330
1F
100
AcDbEntity
  8
0
100
AcDbLine
 10
4.415323688813862
 20
-14.65927475912921
 30
0.0
 11
5.529413905370055
 21
-13.21080482902204
 31
0.0
  0
LINE
  5
9D
330
1F
100
AcDbEntity
  8
0
100
AcDbLine
 10
5.529413905370055
 20
-13.21080482902204
 30
0.0
 11
6.980434636721081
 21
-12.10003760852968
 31
0.0
  0
LINE
  5
9E
330
1F
100
AcDbEntity
  8
0
100
AcDbLine
 10
6.980434636721081
 20
-12.10003760852968
 30
0.0
 11
8.669501217950494
 21
-11.40267004809902
 31
0.0
  0
LINE
  5
9F
330
1F
100
AcDbEntity
  8
0
100
AcDbLine
 10
8.669501217950494
 20
-11.40267004809902
 30
0.0
 11
10.48150655286204
 21
-11.16622659451907
 31
0.0
  0
LINE
  5
A0
330
1F
100
AcDbEntity
  8
0
100
AcDbLine
 10
52.48147900051626
 20
-11.21433468845041
 30
0.0
 11
10.48150655286204
 21
-11.16622659451907
 31
0.0
  0
LINE
  5
A1
330
1F
100
AcDbEntity
  8
0
100
AcDbLine
 10
52.52729630789524
 20
28.78557353846958
 30
0.0
 11
52.48147900051626
 21
-11.21433468845041
 31
0.0
  0
LINE
  5
A2
330
1F
100
AcDbEntity
  8
0
100
AcDbLine
 10
52.52729630789524
 20
28.78557353846958
 30
0.0
 11
10.527323860241
 21
28.83368163240091
 31
0.0
  0
LINE
  5
A3
330
1F
100
AcDbEntity
  8
0
100
AcDbLine
 10
10.527323860241
 20
28.83368163240091
 30
0.0
 11
8.715864940741184
 21
29.07427551629183
 31
0.0
  0
LINE
  5
A4
330
1F
100
AcDbEntity
  8
0
100
AcDbLine
 10
8.715864940741184
 20
29.07427551629183
 30
0.0
 11
7.028400368439585
 21
29.77551066206668
 31
0.0
  0
LINE
  5
A5
330
1F
100
AcDbEntity
  8
0
100
AcDbLine
 10
7.028400368439585
 20
29.77551066206668
 30
0.0
 11
5.579928065271488
 21
30.88959905338684
 31
0.0
  0
LINE
  5
A6
330
1F
100
AcDbEntity
  8
0
100
AcDbLine
 10
5.579928065271488
 20
30.88959905338684
 30
0.0
 11
4.469159024984157
 21
32.34061740750172
 31
0.0
  0
LINE
  5
A7
330
1F
100
AcDbEntity
  8
0
100
AcDbLine
 10
4.469159024984157
 20
32.34061740750172
 30
0.0
 11
3.771790322040534
 21
34.02968122149988
 31
0.0
  0
LINE
  5
A8
330
1F
100
AcDbEntity
  8
0
100
AcDbLine
 10
3.771790322040534
 20
34.02968122149988
 30
0.0
 11
3.535346481089948
 21
35.84168358776714
 31
0.0
  0
LINE
  5
A9
330
1F
100
AcDbEntity
  8
0
100
AcDbLine
 10
48.9986627868122
 20
3.789639904472359
 30
0.0
 11
42.9986667228616
 21
3.796512489319696
 31
0.0
  0
LINE
  5
AA
330
1F
100
AcDbEntity
  8
0
100
AcDbLine
 10
49.01011711365695
 20
13.78961696120237
 30
0.0
 11
43.01012104970635
 21
13.7964895460497
 31
0.0
  0
LINE
  5
AB
330
1F
100
AcDbEntity
  8
0
100
AcDbLine
 10
-28.97367381506575
 20
-10.92251301968283
 30
0.0
 11
-23.6686869793877
 21
-11.62710939393489
 31
0.0
  0
LINE
  5
AC
330
1F
100
AcDbEntity
  8
0
100
AcDbLine
 10
-23.6686869793877
 20
-11.62710939393489
 30
0.0
 11
-18.3620999271468
 21
-10.93466785130791
 31
0.0
  0
LINE
  5
AD
330
1F
100
AcDbEntity
  8
0
100
AcDbLine
 10
-18.3620999271468
 20
-10.93466785130791
 30
0.0
 11
-13.41554779640351
 21
-8.892377138618176
 31
0.0
  0
LINE
  5
AE
330
1F
100
AcDbEntity
  8
0
100
AcDbLine
 10
-13.41554779640351
 20
-8.892377138618176
 30
0.0
 11
-9.16612994030408
 21
-5.639415992890501
 31
0.0
  0
LINE
  5
AF
330
1F
100
AcDbEntity
  8
0
100
AcDbLine
 10
-9.16612994030408
 20
-5.639415992890501
 30
0.0
 11
-5.903437163246644
 21
-1.39746834043377
 31
0.0
  0
LINE
  5
B0
330
1F
100
AcDbEntity
  8
0
100
AcDbLine
 10
-5.903437163246644
 20
-1.39746834043377
 30
0.0
 11
-3.849816586132929
 21
3.544384096387039
 31
0.0
  0
LINE
  5
B1
330
1F
100
AcDbEntity
  8
0
100
AcDbLine
 10
-3.849816586132929
 20
3.544384096387039
 30
0.0
 11
-3.145576496406259
 21
8.846671051323105
 31
0.0
  0
LINE
  5
B2
330
1F
100
AcDbEntity
  8
0
100
AcDbLine
 10
-44.14483472230571
 20
8.893585648392374
 30
0.0
 11
-43.45274948411767
 21
3.589746545569315
 31
0.0
  0
LINE
  5
B3
330
1F
100
AcDbEntity
  8
0
100
AcDbLine
 10
-43.45274948411767
 20
3.589746545569315
 30
0.0
 11
-41.41045542549704
 21
-1.356797481139478
 31
0.0
  0
LINE
  5
B4
330
1F
100
AcDbEntity
  8
0
100
AcDbLine
 10
-41.41045542549704
 20
-1.356797481139478
 30
0.0
 11
-38.15748895036986
 21
-5.606208375333329
 31
0.0
  0
LINE
  5
B5
330
1F
100
AcDbEntity
  8
0
100
AcDbLine
 10
-38.15748895036986
 20
-5.606208375333329
 30
0.0
 11
-33.91553434823474
 21
-8.868895807056447
 31
0.0
  0
LINE
  5
B6
330
1F
100
AcDbEntity
  8
0
100
AcDbLine
 10
-33.91553434823474
 20
-8.868895807056447
 30
0.0
 11
-28.97367381506575
 21
-10.92251301968283
 31
0.0
  0
LINE
  5
B7
330
1F
100
AcDbEntity
  8
0
100
AcDbLine
 10
-23.49573389540188
 20
8.695877066346013
 30
0.0
 11
-23.49556248916857
 21
8.845519941370144
 31
0.0
  0
LINE
  5
B8
330
1F
100
AcDbEntity
  8
0
100
AcDbLine
 10
51.00095234016469
 20
5.787344454202588
 30
0.0
 11
50.93221111786145
 21
5.269785610845234
 31
0.0
  0
LINE
  5
B9
330
1F
100
AcDbEntity
  8
0
100
AcDbLine
 10
50.93221111786145
 20
5.269785610845234
 30
0.0
 11
50.73185789082596
 21
4.787653665789544
 31
0.0
  0
LINE
  5
BA
330
1F
100
AcDbEntity
  8
0
100
AcDbLine
 10
50.73185789082596
 20
4.787653665789544
 30
0.0
 11
50.41354640038134
 21
4.373805114330349
 31
0.0
  0
LINE
  5
BB
330
1F
100
AcDbEntity
  8
0
100
AcDbLine
 10
50.41354640038134
 20
4.373805114330349
 30
0.0
 11
49.99896904856676
 21
4.056443051332528
 31
0.0
  0
LINE
  5
BC
330
1F
100
AcDbEntity
  8
0
100
AcDbLine
 10
49.99896904856676
 20
4.056443051332528
 30
0.0
 11
49.51637859678693
 21
3.85719517692377
 31
0.0
  0
LINE
  5
BD
330
1F
100
AcDbEntity
  8
0
100
AcDbLine
 10
49.51637859678693
 20
3.85719517692377
 30
0.0
 11
48.9986627868122
 21
3.789639904472359
 31
0.0
  0
LINE
  5
BE
330
1F
100
AcDbEntity
  8
0
100
AcDbLine
 10
49.01011711365695
 20
13.78961696120237
 30
0.0
 11
49.52767680494261
 21
13.72087585151924
 31
0.0
  0
LINE
  5
BF
330
1F
100
AcDbEntity
  8
0
100
AcDbLine
 10
49.52767680494261
 20
13.72087585151924
 30
0.0
 11
50.00980953988593
 21
13.52052295272642
 31
0.0
  0
LINE
  5
C0
330
1F
100
AcDbEntity
  8
0
100
AcDbLine
 10
50.00980953988593
 20
13.52052295272642
 30
0.0
 11
50.42365876936253
 21
13.20221198377782
 31
0.0
  0
LINE
  5
C1
330
1F
100
AcDbEntity
  8
0
100
AcDbLine
 10
50.42365876936253
 20
13.20221198377782
 30
0.0
 11
50.74102135230176
 21
12.78763531117354
 31
0.0
  0
LINE
  5
C2
330
1F
100
AcDbEntity
  8
0
100
AcDbLine
 10
50.74102135230176
 20
12.78763531117354
 30
0.0
 11
50.9402695531428
 21
12.30504565003122
 31
0.0
  0
LINE
  5
C3
330
1F
100
AcDbEntity
  8
0
100
AcDbLine
 10
50.9402695531428
 20
12.30504565003122
 30
0.0
 11
51.00782493627153
 21
11.78733068824058
 31
0.0
  0
LINE
  5
C4
330
1F
100
AcDbEntity
  8
0
100
AcDbLine
 10
41.00783149635387
 20
11.79878499631947
 30
0.0
 11
41.07657271865708
 21
12.31634383967682
 31
0.0
  0
LINE
  5
C5
330
1F
100
AcDbEntity
  8
0
100
AcDbLine
 10
41.07657271865708
 20
12.31634383967682
 30
0.0
 11
41.27692594569258
 21
12.79847578473251
 31
0.0
  0
LINE
  5
C6
330
1F
100
AcDbEntity
  8
0
100
AcDbLine
 10
41.27692594569258
 20
12.79847578473251
 30
0.0
 11
41.5952374361372
 21
13.21232433619171
 31
0.0
  0
LINE
  5
C7
330
1F
100
AcDbEntity
  8
0
100
AcDbLine
 10
41.5952374361372
 20
13.21232433619171
 30
0.0
 11
42.00981478795178
 21
13.52968639918953
 31
0.0
  0
LINE
  5
C8
330
1F
100
AcDbEntity
  8
0
100
AcDbLine
 10
42.00981478795178
 20
13.52968639918953
 30
0.0
 11
42.49240523973161
 21
13.72893427359829
 31
0.0
  0
LINE
  5
C9
330
1F
100
AcDbEntity
  8
0
100
AcDbLine
 10
42.49240523973161
 20
13.72893427359829
 30
0.0
 11
43.01012104970635
 21
13.7964895460497
 31
0.0
  0
LINE
  5
CA
330
1F
100
AcDbEntity
  8
0
100
AcDbLine
 10
42.9986667228616
 20
3.796512489319696
 30
0.0
 11
42.48110703157593
 21
3.86525359900282
 31
0.0
  0
LINE
  5
CB
330
1F
100
AcDbEntity
  8
0
100
AcDbLine
 10
42.48110703157593
 20
3.86525359900282
 30
0.0
 11
41.99897429663262
 21
4.065606497795638
 31
0.0
  0
LINE
  5
CC
330
1F
100
AcDbEntity
  8
0
100
AcDbLine
 10
41.99897429663262
 20
4.065606497795638
 30
0.0
 11
41.58512506715601
 21
4.383917466744234
 31
0.0
  0
LINE
  5
CD
330
1F
100
AcDbEntity
  8
0
100
AcDbLine
 10
41.58512506715601
 20
4.383917466744234
 30
0.0
 11
41.26776248421678
 21
4.798494139348512
 31
0.0
  0
LINE
  5
CE
330
1F
100
AcDbEntity
  8
0
100
AcDbLine
 10
41.26776248421678
 20
4.798494139348512
 30
0.0
 11
41.06851428337573
 21
5.281083800490838
 31
0.0
  0
LINE
  5
CF
330
1F
100
AcDbEntity
  8
0
100
AcDbLine
 10
41.06851428337573
 20
5.281083800490838
 30
0.0
 11
41.00095890024702
 21
5.798798762281476
 31
0.0
  0
LINE
  5
D0
330
1F
100
AcDbEntity
  8
0
100
AcDbLine
 10
41.00095890024702
 20
5.798798762281476
 30
0.0
 11
41.00783149635387
 21
11.79878499631947
 31
0.0
  0
LINE
  5
D1
330
1F
100
AcDbEntity
  8
0
100
AcDbLine
 10
51.00095234016469
 20
5.787344454202588
 30
0.0
 11
51.00782493627153
 21
11.78733068824058
 31
0.0
  0
LINE
  5
D2
330
1F
100
AcDbEntity
  8
0
100
AcDbLine
 10
18.01013744991215
 20
13.82512531624693
 30
0.0
 11
18.52769714119782
 21
13.7563842065638
 31
0.0
  0
LINE
  5
D3
330
1F
100
AcDbEntity
  8
0
100
AcDbLine
 10
19.74104168855697
 20
12.8231436662181
 30
0.0
 11
19.940289889398
 21
12.34055400507578
 31
0.0
  0
LINE
  5
D4
330
1F
100
AcDbEntity
  8
0
100
AcDbLine
 10
19.940289889398
 20
12.34055400507578
 30
0.0
 11
20.00784527252675
 21
11.82283904328514
 31
0.0
  0
LINE
  5
D5
330
1F
100
AcDbEntity
  8
0
100
AcDbLine
 10
19.42367910561774
 20
13.23772033882238
 30
0.0
 11
19.74104168855697
 21
12.8231436662181
 31
0.0
  0
LINE
  5
D6
330
1F
100
AcDbEntity
  8
0
100
AcDbLine
 10
11.99868705911681
 20
3.83202084436425
 30
0.0
 11
11.48112736783114
 21
3.900761954047381
 31
0.0
  0
LINE
  5
D7
330
1F
100
AcDbEntity
  8
0
100
AcDbLine
 10
17.99868312306741
 20
3.82514825951692
 30
0.0
 11
11.99868705911681
 21
3.83202084436425
 31
0.0
  0
LINE
  5
D8
330
1F
100
AcDbEntity
  8
0
100
AcDbLine
 10
18.51639893304213
 20
3.892703531968331
 30
0.0
 11
17.99868312306741
 21
3.82514825951692
 31
0.0
  0
LINE
  5
D9
330
1F
100
AcDbEntity
  8
0
100
AcDbLine
 10
18.99898938482196
 20
4.091951406377088
 30
0.0
 11
18.51639893304213
 21
3.892703531968331
 31
0.0
  0
LINE
  5
DA
330
1F
100
AcDbEntity
  8
0
100
AcDbLine
 10
19.41356673663655
 20
4.409313469374909
 30
0.0
 11
18.99898938482196
 21
4.091951406377088
 31
0.0
  0
LINE
  5
DB
330
1F
100
AcDbEntity
  8
0
100
AcDbLine
 10
19.73187822708118
 20
4.823162020834104
 30
0.0
 11
19.41356673663655
 21
4.409313469374909
 31
0.0
  0
LINE
  5
DC
330
1F
100
AcDbEntity
  8
0
100
AcDbLine
 10
19.93223145411667
 20
5.305293965889794
 30
0.0
 11
19.73187822708118
 21
4.823162020834104
 31
0.0
  0
LINE
  5
DD
330
1F
100
AcDbEntity
  8
0
100
AcDbLine
 10
20.0009726764199
 20
5.822852809247148
 30
0.0
 11
19.93223145411667
 21
5.305293965889794
 31
0.0
  0
LINE
  5
DE
330
1F
100
AcDbEntity
  8
0
100
AcDbLine
 10
20.0009726764199
 20
5.822852809247148
 30
0.0
 11
20.00784527252675
 21
11.82283904328514
 31
0.0
  0
LINE
  5
DF
330
1F
100
AcDbEntity
  8
0
100
AcDbLine
 10
19.00982987614113
 20
13.55603130777098
 30
0.0
 11
19.42367910561774
 21
13.23772033882238
 31
0.0
  0
LINE
  5
E0
330
1F
100
AcDbEntity
  8
0
100
AcDbLine
 10
18.52769714119782
 20
13.7563842065638
 30
0.0
 11
19.00982987614113
 21
13.55603130777098
 31
0.0
  0
LINE
  5
E1
330
1F
100
AcDbEntity
  8
0
100
AcDbLine
 10
18.01013744991215
 20
13.82512531624693
 30
0.0
 11
12.01014138596155
 21
13.83199790109426
 31
0.0
  0
LINE
  5
E2
330
1F
100
AcDbEntity
  8
0
100
AcDbLine
 10
11.49242557598682
 20
13.76444262864285
 30
0.0
 11
12.01014138596155
 21
13.83199790109426
 31
0.0
  0
LINE
  5
E3
330
1F
100
AcDbEntity
  8
0
100
AcDbLine
 10
11.00983512420699
 20
13.56519475423409
 30
0.0
 11
11.49242557598682
 21
13.76444262864285
 31
0.0
  0
LINE
  5
E4
330
1F
100
AcDbEntity
  8
0
100
AcDbLine
 10
10.59525777239241
 20
13.24783269123627
 30
0.0
 11
11.00983512420699
 21
13.56519475423409
 31
0.0
  0
LINE
  5
E5
330
1F
100
AcDbEntity
  8
0
100
AcDbLine
 10
10.27694628194778
 20
12.83398413977707
 30
0.0
 11
10.59525777239241
 21
13.24783269123627
 31
0.0
  0
LINE
  5
E6
330
1F
100
AcDbEntity
  8
0
100
AcDbLine
 10
10.07659305491229
 20
12.35185219472138
 30
0.0
 11
10.27694628194778
 21
12.83398413977707
 31
0.0
  0
LINE
  5
E7
330
1F
100
AcDbEntity
  8
0
100
AcDbLine
 10
10.00785183260907
 20
11.83429335136403
 30
0.0
 11
10.07659305491229
 21
12.35185219472138
 31
0.0
  0
LINE
  5
E8
330
1F
100
AcDbEntity
  8
0
100
AcDbLine
 10
10.00097923650222
 20
5.834307117326036
 30
0.0
 11
10.00785183260907
 21
11.83429335136403
 31
0.0
  0
LINE
  5
E9
330
1F
100
AcDbEntity
  8
0
100
AcDbLine
 10
10.06853461963095
 20
5.316592155535399
 30
0.0
 11
10.00097923650222
 21
5.834307117326036
 31
0.0
  0
LINE
  5
EA
330
1F
100
AcDbEntity
  8
0
100
AcDbLine
 10
10.26778282047199
 20
4.834002494393072
 30
0.0
 11
10.06853461963095
 21
5.316592155535399
 31
0.0
  0
LINE
  5
EB
330
1F
100
AcDbEntity
  8
0
100
AcDbLine
 10
10.58514540341123
 20
4.419425821788794
 30
0.0
 11
10.26778282047199
 21
4.834002494393072
 31
0.0
  0
LINE
  5
EC
330
1F
100
AcDbEntity
  8
0
100
AcDbLine
 10
10.99899463288783
 20
4.101114852840198
 30
0.0
 11
10.58514540341123
 21
4.419425821788794
 31
0.0
  0
LINE
  5
ED
330
1F
100
AcDbEntity
  8
0
100
AcDbLine
 10
11.48112736783114
 20
3.900761954047381
 30
0.0
 11
10.99899463288783
 21
4.101114852840198
 31
0.0
  0
LINE
  5
EE
330
1F
100
AcDbEntity
  8
0
100
AcDbLine
 10
27.10440431681486
 20
8.814713367529961
 30
0.0
 11
27.22126439473036
 21
9.694563401237458
 31
0.0
  0
LINE
  5
EF
330
1F
100
AcDbEntity
  8
0
100
AcDbLine
 10
27.22126439473036
 20
9.694563401237458
 30
0.0
 11
27.56186488069069
 21
10.51418770783213
 31
0.0
  0
LINE
  5
F0
330
1F
100
AcDbEntity
  8
0
100
AcDbLine
 10
27.56186488069069
 20
10.51418770783213
 30
0.0
 11
28.10299441444655
 21
11.21773024531277
 31
0.0
  0
LINE
  5
F1
330
1F
100
AcDbEntity
  8
0
100
AcDbLine
 10
28.10299441444655
 20
11.21773024531277
 30
0.0
 11
28.80777591253134
 21
11.75724575240906
 31
0.0
  0
LINE
  5
F2
330
1F
100
AcDbEntity
  8
0
100
AcDbLine
 10
28.80777591253134
 20
11.75724575240906
 30
0.0
 11
29.62817968055705
 21
12.09596713890395
 31
0.0
  0
LINE
  5
F3
330
1F
100
AcDbEntity
  8
0
100
AcDbLine
 10
29.62817968055705
 20
12.09596713890395
 30
0.0
 11
30.50829655751409
 21
12.21081110207135
 31
0.0
  0
LINE
  5
F4
330
1F
100
AcDbEntity
  8
0
100
AcDbLine
 10
30.50829655751409
 20
12.21081110207135
 30
0.0
 11
31.38814803269971
 21
12.09395121561003
 31
0.0
  0
LINE
  5
F5
330
1F
100
AcDbEntity
  8
0
100
AcDbLine
 10
31.38814803269971
 20
12.09395121561003
 30
0.0
 11
32.20777368210335
 21
11.74249039764666
 31
0.0
  0
LINE
  5
F6
330
1F
100
AcDbEntity
  8
0
100
AcDbLine
 10
32.9113173722135
 20
11.20136175043409
 30
0.0
 11
33.45083376321028
 21
10.50744229702235
 31
0.0
  0
LINE
  5
F7
330
1F
100
AcDbEntity
  8
0
100
AcDbLine
 10
33.45083376321028
 20
10.50744229702235
 30
0.0
 11
33.78955570464003
 21
9.687039873080401
 31
0.0
  0
LINE
  5
F8
330
1F
100
AcDbEntity
  8
0
100
AcDbLine
 10
33.78955570464003
 20
9.687039873080401
 30
0.0
 11
33.90439985595889
 21
8.806924438036317
 31
0.0
  0
LINE
  5
F9
330
1F
100
AcDbEntity
  8
0
100
AcDbLine
 10
33.90439985595889
 20
8.806924438036317
 30
0.0
 11
33.78753977804337
 21
7.927074404328819
 31
0.0
  0
LINE
  5
FA
330
1F
100
AcDbEntity
  8
0
100
AcDbLine
 10
33.78753977804337
 20
7.927074404328819
 30
0.0
 11
33.44693929208306
 21
7.107450097734144
 31
0.0
  0
LINE
  5
FB
330
1F
100
AcDbEntity
  8
0
100
AcDbLine
 10
33.44693929208306
 20
7.107450097734144
 30
0.0
 11
32.90580975832719
 21
6.403907560253512
 31
0.0
  0
LINE
  5
FC
330
1F
100
AcDbEntity
  8
0
100
AcDbLine
 10
32.90580975832719
 20
6.403907560253512
 30
0.0
 11
32.20102826024242
 21
5.86439205315722
 31
0.0
  0
LINE
  5
FD
330
1F
100
AcDbEntity
  8
0
100
AcDbLine
 10
32.20102826024242
 20
5.86439205315722
 30
0.0
 11
31.38062449221669
 21
5.525670666662331
 31
0.0
  0
LINE
  5
FE
330
1F
100
AcDbEntity
  8
0
100
AcDbLine
 10
31.38062449221669
 20
5.525670666662331
 30
0.0
 11
30.50050761525966
 21
5.410826703494932
 31
0.0
  0
LINE
  5
FF
330
1F
100
AcDbEntity
  8
0
100
AcDbLine
 10
30.50050761525966
 20
5.410826703494932
 30
0.0
 11
29.62065614007403
 21
5.527686589956251
 31
0.0
  0
LINE
  5
100
330
1F
100
AcDbEntity
  8
0
100
AcDbLine
 10
29.62065614007403
 20
5.527686589956251
 30
0.0
 11
28.80103049067041
 21
5.868286517904036
 31
0.0
  0
LINE
  5
101
330
1F
100
AcDbEntity
  8
0
100
AcDbLine
 10
28.80103049067041
 20
5.868286517904036
 30
0.0
 11
28.09748680056017
 21
6.40941516511665
 31
0.0
  0
LINE
  5
102
330
1F
100
AcDbEntity
  8
0
100
AcDbLine
 10
28.09748680056017
 20
6.40941516511665
 30
0.0
 11
27.55797040956347
 21
7.114195508543927
 31
0.0
  0
LINE
  5
103
330
1F
100
AcDbEntity
  8
0
100
AcDbLine
 10
27.55797040956347
 20
7.114195508543927
 30
0.0
 11
27.21924846813371
 21
7.934597932485872
 31
0.0
  0
LINE
  5
104
330
1F
100
AcDbEntity
  8
0
100
AcDbLine
 10
27.21924846813371
 20
7.934597932485872
 30
0.0
 11
27.10440431681486
 21
8.814713367529961
 31
0.0
  0
LINE
  5
105
330
1F
100
AcDbEntity
  8
0
100
AcDbLine
 10
-1.517340142354696
 20
-10.15248371915138
 30
0.0
 11
-0.7410006054262025
 21
-10.25559538367607
 31
0.0
  0
LINE
  5
106
330
1F
100
AcDbEntity
  8
0
100
AcDbLine
 10
-0.7410006054262025
 20
-10.25559538367607
 30
0.0
 11
-0.0178015030112328
 21
-10.5561247318653
 31
0.0
  0
LINE
  5
107
330
1F
100
AcDbEntity
  8
0
100
AcDbLine
 10
-0.0178015030112328
 20
-10.5561247318653
 30
0.0
 11
0.6029723412036666
 21
-11.03359118528819
 31
0.0
  0
LINE
  5
108
330
1F
100
AcDbEntity
  8
0
100
AcDbLine
 10
0.6029723412036666
 20
-11.03359118528819
 30
0.0
 11
1.079016215612526
 21
-11.65545619419461
 31
0.0
  0
LINE
  5
109
330
1F
100
AcDbEntity
  8
0
100
AcDbLine
 10
1.079016215612526
 20
-11.65545619419461
 30
0.0
 11
1.377888516874077
 21
-12.37934068590809
 31
0.0
  0
LINE
  5
10A
330
1F
100
AcDbEntity
  8
0
100
AcDbLine
 10
1.377888516874077
 20
-12.37934068590809
 30
0.0
 11
1.479221591567183
 21
-13.15591312859405
 31
0.0
  0
LINE
  5
10B
330
1F
100
AcDbEntity
  8
0
100
AcDbLine
 10
1.479221591567183
 20
-13.15591312859405
 30
0.0
 11
1.376109758112327
 21
-13.93225139363008
 31
0.0
  0
LINE
  5
10C
330
1F
100
AcDbEntity
  8
0
100
AcDbLine
 10
1.376109758112327
 20
-13.93225139363008
 30
0.0
 11
1.075579917559105
 21
-14.65544931121361
 31
0.0
  0
LINE
  5
10D
330
1F
100
AcDbEntity
  8
0
100
AcDbLine
 10
1.075579917559105
 20
-14.65544931121361
 30
0.0
 11
0.5981126818921616
 21
-15.2762221384024
 31
0.0
  0
LINE
  5
10E
330
1F
100
AcDbEntity
  8
0
100
AcDbLine
 10
0.5981126818921616
 20
-15.2762221384024
 30
0.0
 11
-0.0237533458297019
 21
-15.75226523289914
 31
0.0
  0
LINE
  5
10F
330
1F
100
AcDbEntity
  8
0
100
AcDbLine
 10
-0.0237533458297019
 20
-15.75226523289914
 30
0.0
 11
-0.7476390234994569
 21
-16.05113704451227
 31
0.0
  0
LINE
  5
110
330
1F
100
AcDbEntity
  8
0
100
AcDbLine
 10
-0.7476390234994569
 20
-16.05113704451227
 30
0.0
 11
-1.524212738461544
 21
-16.15246995318939
 31
0.0
  0
LINE
  5
111
330
1F
100
AcDbEntity
  8
0
100
AcDbLine
 10
-1.524212738461544
 20
-16.15246995318939
 30
0.0
 11
-2.300552275390033
 21
-16.0493582886647
 31
0.0
  0
LINE
  5
112
330
1F
100
AcDbEntity
  8
0
100
AcDbLine
 10
-2.300552275390033
 20
-16.0493582886647
 30
0.0
 11
-3.023751377805002
 21
-15.74882894047547
 31
0.0
  0
LINE
  5
113
330
1F
100
AcDbEntity
  8
0
100
AcDbLine
 10
-3.023751377805002
 20
-15.74882894047547
 30
0.0
 11
-3.644525222019902
 21
-15.27136248705257
 31
0.0
  0
LINE
  5
114
330
1F
100
AcDbEntity
  8
0
100
AcDbLine
 10
-3.644525222019902
 20
-15.27136248705257
 30
0.0
 11
-4.120569096428767
 21
-14.64949747814616
 31
0.0
  0
LINE
  5
115
330
1F
100
AcDbEntity
  8
0
100
AcDbLine
 10
-4.120569096428767
 20
-14.64949747814616
 30
0.0
 11
-4.419441397690314
 21
-13.92561298643268
 31
0.0
  0
LINE
  5
116
330
1F
100
AcDbEntity
  8
0
100
AcDbLine
 10
-4.419441397690314
 20
-13.92561298643268
 30
0.0
 11
-4.520774472383421
 21
-13.14904054374672
 31
0.0
  0
LINE
  5
117
330
1F
100
AcDbEntity
  8
0
100
AcDbLine
 10
-4.520774472383421
 20
-13.14904054374672
 30
0.0
 11
-4.417662638928565
 21
-12.37270227871069
 31
0.0
  0
LINE
  5
118
330
1F
100
AcDbEntity
  8
0
100
AcDbLine
 10
-4.417662638928565
 20
-12.37270227871069
 30
0.0
 11
-4.117132798375346
 21
-11.64950436112716
 31
0.0
  0
LINE
  5
119
330
1F
100
AcDbEntity
  8
0
100
AcDbLine
 10
-4.117132798375346
 20
-11.64950436112716
 30
0.0
 11
-3.639665562708397
 21
-11.02873153393836
 31
0.0
  0
LINE
  5
11A
330
1F
100
AcDbEntity
  8
0
100
AcDbLine
 10
-3.639665562708397
 20
-11.02873153393836
 30
0.0
 11
-3.017799534986533
 21
-10.55268843944163
 31
0.0
  0
LINE
  5
11B
330
1F
100
AcDbEntity
  8
0
100
AcDbLine
 10
-3.017799534986533
 20
-10.55268843944163
 30
0.0
 11
-2.293913857316778
 21
-10.2538166278285
 31
0.0
  0
LINE
  5
11C
330
1F
100
AcDbEntity
  8
0
100
AcDbLine
 10
-2.293913857316778
 20
-10.2538166278285
 30
0.0
 11
-1.517340142354696
 21
-10.15248371915138
 31
0.0
  0
LINE
  5
11D
330
1F
100
AcDbEntity
  8
0
100
AcDbLine
 10
-45.51731127799246
 20
-10.10208476360426
 30
0.0
 11
-44.74097174106397
 21
-10.20519642812895
 31
0.0
  0
LINE
  5
11E
330
1F
100
AcDbEntity
  8
0
100
AcDbLine
 10
-44.74097174106397
 20
-10.20519642812895
 30
0.0
 11
-44.017772638649
 21
-10.50572577631818
 31
0.0
  0
LINE
  5
11F
330
1F
100
AcDbEntity
  8
0
100
AcDbLine
 10
-44.017772638649
 20
-10.50572577631818
 30
0.0
 11
-43.3969987944341
 21
-10.98319222974108
 31
0.0
  0
LINE
  5
120
330
1F
100
AcDbEntity
  8
0
100
AcDbLine
 10
-43.3969987944341
 20
-10.98319222974108
 30
0.0
 11
-42.92095492002525
 21
-11.60505723864749
 31
0.0
  0
LINE
  5
121
330
1F
100
AcDbEntity
  8
0
100
AcDbLine
 10
-42.92095492002525
 20
-11.60505723864749
 30
0.0
 11
-42.62208261876369
 21
-12.32894173036097
 31
0.0
  0
LINE
  5
122
330
1F
100
AcDbEntity
  8
0
100
AcDbLine
 10
-42.62208261876369
 20
-12.32894173036097
 30
0.0
 11
-42.52074954407058
 21
-13.10551417304693
 31
0.0
  0
LINE
  5
123
330
1F
100
AcDbEntity
  8
0
100
AcDbLine
 10
-42.52074954407058
 20
-13.10551417304693
 30
0.0
 11
-42.62386137752544
 21
-13.88185243808296
 31
0.0
  0
LINE
  5
124
330
1F
100
AcDbEntity
  8
0
100
AcDbLine
 10
-42.62386137752544
 20
-13.88185243808296
 30
0.0
 11
-42.92439121807867
 21
-14.6050503556665
 31
0.0
  0
LINE
  5
125
330
1F
100
AcDbEntity
  8
0
100
AcDbLine
 10
-42.92439121807867
 20
-14.6050503556665
 30
0.0
 11
-43.4018584537456
 21
-15.22582318285529
 31
0.0
  0
LINE
  5
126
330
1F
100
AcDbEntity
  8
0
100
AcDbLine
 10
-43.4018584537456
 20
-15.22582318285529
 30
0.0
 11
-44.02372448146748
 21
-15.70186627735202
 31
0.0
  0
LINE
  5
127
330
1F
100
AcDbEntity
  8
0
100
AcDbLine
 10
-44.02372448146748
 20
-15.70186627735202
 30
0.0
 11
-44.74761015913722
 21
-16.00073808896515
 31
0.0
  0
LINE
  5
128
330
1F
100
AcDbEntity
  8
0
100
AcDbLine
 10
-44.74761015913722
 20
-16.00073808896515
 30
0.0
 11
-45.52418387409931
 21
-16.10207099764227
 31
0.0
  0
LINE
  5
129
330
1F
100
AcDbEntity
  8
0
100
AcDbLine
 10
-45.52418387409931
 20
-16.10207099764227
 30
0.0
 11
-46.3005234110278
 21
-15.99895933311758
 31
0.0
  0
LINE
  5
12A
330
1F
100
AcDbEntity
  8
0
100
AcDbLine
 10
-46.3005234110278
 20
-15.99895933311758
 30
0.0
 11
-47.02372251344278
 21
-15.69842998492835
 31
0.0
  0
LINE
  5
12B
330
1F
100
AcDbEntity
  8
0
100
AcDbLine
 10
-47.02372251344278
 20
-15.69842998492835
 30
0.0
 11
-47.64449635765767
 21
-15.22096353150546
 31
0.0
  0
LINE
  5
12C
330
1F
100
AcDbEntity
  8
0
100
AcDbLine
 10
-47.64449635765767
 20
-15.22096353150546
 30
0.0
 11
-48.12054023206652
 21
-14.59909852259904
 31
0.0
  0
LINE
  5
12D
330
1F
100
AcDbEntity
  8
0
100
AcDbLine
 10
-48.12054023206652
 20
-14.59909852259904
 30
0.0
 11
-48.41941253332809
 21
-13.87521403088556
 31
0.0
  0
LINE
  5
12E
330
1F
100
AcDbEntity
  8
0
100
AcDbLine
 10
-48.41941253332809
 20
-13.87521403088556
 30
0.0
 11
-48.52074560802119
 21
-13.0986415881996
 31
0.0
  0
LINE
  5
12F
330
1F
100
AcDbEntity
  8
0
100
AcDbLine
 10
-48.52074560802119
 20
-13.0986415881996
 30
0.0
 11
-48.41763377456633
 21
-12.32230332316358
 31
0.0
  0
LINE
  5
130
330
1F
100
AcDbEntity
  8
0
100
AcDbLine
 10
-48.41763377456633
 20
-12.32230332316358
 30
0.0
 11
-48.11710393401311
 21
-11.59910540558004
 31
0.0
  0
LINE
  5
131
330
1F
100
AcDbEntity
  8
0
100
AcDbLine
 10
-48.11710393401311
 20
-11.59910540558004
 30
0.0
 11
-47.63963669834616
 21
-10.97833257839125
 31
0.0
  0
LINE
  5
132
330
1F
100
AcDbEntity
  8
0
100
AcDbLine
 10
-47.63963669834616
 20
-10.97833257839125
 30
0.0
 11
-47.0177706706243
 21
-10.50228948389451
 31
0.0
  0
LINE
  5
133
330
1F
100
AcDbEntity
  8
0
100
AcDbLine
 10
-47.0177706706243
 20
-10.50228948389451
 30
0.0
 11
-46.29388499295455
 21
-10.20341767228138
 31
0.0
  0
LINE
  5
134
330
1F
100
AcDbEntity
  8
0
100
AcDbLine
 10
-46.29388499295455
 20
-10.20341767228138
 30
0.0
 11
-45.51731127799246
 21
-10.10208476360426
 31
0.0
  0
LINE
  5
135
330
1F
100
AcDbEntity
  8
0
100
AcDbLine
 10
-45.4669122398756
 20
33.89781428600779
 30
0.0
 11
-44.69057270294711
 21
33.7947026214831
 31
0.0
  0
LINE
  5
136
330
1F
100
AcDbEntity
  8
0
100
AcDbLine
 10
-44.69057270294711
 20
33.7947026214831
 30
0.0
 11
-43.96737360053214
 21
33.49417327329387
 31
0.0
  0
LINE
  5
137
330
1F
100
AcDbEntity
  8
0
100
AcDbLine
 10
-43.96737360053214
 20
33.49417327329387
 30
0.0
 11
-43.34659975631724
 21
33.01670681987098
 31
0.0
  0
LINE
  5
138
330
1F
100
AcDbEntity
  8
0
100
AcDbLine
 10
-43.34659975631724
 20
33.01670681987098
 30
0.0
 11
-42.87055588190839
 21
32.39484181096456
 31
0.0
  0
LINE
  5
139
330
1F
100
AcDbEntity
  8
0
100
AcDbLine
 10
-42.87055588190839
 20
32.39484181096456
 30
0.0
 11
-42.57168358064683
 21
31.67095731925108
 31
0.0
  0
LINE
  5
13A
330
1F
100
AcDbEntity
  8
0
100
AcDbLine
 10
-42.57168358064683
 20
31.67095731925108
 30
0.0
 11
-42.47035050595372
 21
30.89438487656513
 31
0.0
  0
LINE
  5
13B
330
1F
100
AcDbEntity
  8
0
100
AcDbLine
 10
-42.47035050595372
 20
30.89438487656513
 30
0.0
 11
-42.57346233940859
 21
30.11804661152911
 31
0.0
  0
LINE
  5
13C
330
1F
100
AcDbEntity
  8
0
100
AcDbLine
 10
-42.57346233940859
 20
30.11804661152911
 30
0.0
 11
-42.87399217996182
 21
29.39484869394557
 31
0.0
  0
LINE
  5
13D
330
1F
100
AcDbEntity
  8
0
100
AcDbLine
 10
-42.87399217996182
 20
29.39484869394557
 30
0.0
 11
-43.35145941562875
 21
28.77407586675679
 31
0.0
  0
LINE
  5
13E
330
1F
100
AcDbEntity
  8
0
100
AcDbLine
 10
-43.35145941562875
 20
28.77407586675679
 30
0.0
 11
-43.97332544335062
 21
28.29803277226005
 31
0.0
  0
LINE
  5
13F
330
1F
100
AcDbEntity
  8
0
100
AcDbLine
 10
-43.97332544335062
 20
28.29803277226005
 30
0.0
 11
-44.69721112102037
 21
27.99916096064691
 31
0.0
  0
LINE
  5
140
330
1F
100
AcDbEntity
  8
0
100
AcDbLine
 10
-44.69721112102037
 20
27.99916096064691
 30
0.0
 11
-45.47378483598245
 21
27.89782805196979
 31
0.0
  0
LINE
  5
141
330
1F
100
AcDbEntity
  8
0
100
AcDbLine
 10
-45.47378483598245
 20
27.89782805196979
 30
0.0
 11
-46.25012437291094
 21
28.00093971649448
 31
0.0
  0
LINE
  5
142
330
1F
100
AcDbEntity
  8
0
100
AcDbLine
 10
-46.25012437291094
 20
28.00093971649448
 30
0.0
 11
-46.97332347532591
 21
28.30146906468371
 31
0.0
  0
LINE
  5
143
330
1F
100
AcDbEntity
  8
0
100
AcDbLine
 10
-46.97332347532591
 20
28.30146906468371
 30
0.0
 11
-47.5940973195408
 21
28.77893551810662
 31
0.0
  0
LINE
  5
144
330
1F
100
AcDbEntity
  8
0
100
AcDbLine
 10
-47.5940973195408
 20
28.77893551810662
 30
0.0
 11
-48.07014119394967
 21
29.40080052701303
 31
0.0
  0
LINE
  5
145
330
1F
100
AcDbEntity
  8
0
100
AcDbLine
 10
-48.07014119394967
 20
29.40080052701303
 30
0.0
 11
-48.36901349521121
 21
30.1246850187265
 31
0.0
  0
LINE
  5
146
330
1F
100
AcDbEntity
  8
0
100
AcDbLine
 10
-48.36901349521121
 20
30.1246850187265
 30
0.0
 11
-48.47034656990433
 21
30.90125746141246
 31
0.0
  0
LINE
  5
147
330
1F
100
AcDbEntity
  8
0
100
AcDbLine
 10
-48.47034656990433
 20
30.90125746141246
 30
0.0
 11
-48.36723473644946
 21
31.67759572644849
 31
0.0
  0
LINE
  5
148
330
1F
100
AcDbEntity
  8
0
100
AcDbLine
 10
-48.36723473644946
 20
31.67759572644849
 30
0.0
 11
-48.06670489589624
 21
32.40079364403202
 31
0.0
  0
LINE
  5
149
330
1F
100
AcDbEntity
  8
0
100
AcDbLine
 10
-48.06670489589624
 20
32.40079364403202
 30
0.0
 11
-47.5892376602293
 21
33.02156647122082
 31
0.0
  0
LINE
  5
14A
330
1F
100
AcDbEntity
  8
0
100
AcDbLine
 10
-47.5892376602293
 20
33.02156647122082
 30
0.0
 11
-46.96737163250744
 21
33.49760956571754
 31
0.0
  0
LINE
  5
14B
330
1F
100
AcDbEntity
  8
0
100
AcDbLine
 10
-46.96737163250744
 20
33.49760956571754
 30
0.0
 11
-46.24348595483769
 21
33.79648137733066
 31
0.0
  0
LINE
  5
14C
330
1F
100
AcDbEntity
  8
0
100
AcDbLine
 10
-46.24348595483769
 20
33.79648137733066
 30
0.0
 11
-45.4669122398756
 21
33.89781428600779
 31
0.0
  0
LINE
  5
14D
330
1F
100
AcDbEntity
  8
0
100
AcDbLine
 10
-4.47037543426656
 20
30.85085850586534
 30
0.0
 11
-4.367263600811705
 21
31.62719677090137
 31
0.0
  0
LINE
  5
14E
330
1F
100
AcDbEntity
  8
0
100
AcDbLine
 10
-4.367263600811705
 20
31.62719677090137
 30
0.0
 11
-4.066733760258482
 21
32.3503946884849
 31
0.0
  0
LINE
  5
14F
330
1F
100
AcDbEntity
  8
0
100
AcDbLine
 10
-4.066733760258482
 20
32.3503946884849
 30
0.0
 11
-3.589266524591539
 21
32.97116751567371
 31
0.0
  0
LINE
  5
150
330
1F
100
AcDbEntity
  8
0
100
AcDbLine
 10
-3.589266524591539
 20
32.97116751567371
 30
0.0
 11
-2.96740049686967
 21
33.44721061017043
 31
0.0
  0
LINE
  5
151
330
1F
100
AcDbEntity
  8
0
100
AcDbLine
 10
-2.96740049686967
 20
33.44721061017043
 30
0.0
 11
-2.243514819199921
 21
33.74608242178356
 31
0.0
  0
LINE
  5
152
330
1F
100
AcDbEntity
  8
0
100
AcDbLine
 10
-2.243514819199921
 20
33.74608242178356
 30
0.0
 11
-1.466941104237839
 21
33.84741533046068
 31
0.0
  0
LINE
  5
153
330
1F
100
AcDbEntity
  8
0
100
AcDbLine
 10
-1.466941104237839
 20
33.84741533046068
 30
0.0
 11
-0.6906015673093449
 21
33.74430366593599
 31
0.0
  0
LINE
  5
154
330
1F
100
AcDbEntity
  8
0
100
AcDbLine
 10
-0.6906015673093449
 20
33.74430366593599
 30
0.0
 11
0.0325975351056305
 21
33.44377431774676
 31
0.0
  0
LINE
  5
155
330
1F
100
AcDbEntity
  8
0
100
AcDbLine
 10
0.0325975351056305
 20
33.44377431774676
 30
0.0
 11
0.6533713793205242
 21
32.96630786432388
 31
0.0
  0
LINE
  5
156
330
1F
100
AcDbEntity
  8
0
100
AcDbLine
 10
0.6533713793205242
 20
32.96630786432388
 30
0.0
 11
1.12941525372939
 21
32.34444285541745
 31
0.0
  0
LINE
  5
157
330
1F
100
AcDbEntity
  8
0
100
AcDbLine
 10
1.12941525372939
 20
32.34444285541745
 30
0.0
 11
1.42828755499094
 21
31.62055836370399
 31
0.0
  0
LINE
  5
158
330
1F
100
AcDbEntity
  8
0
100
AcDbLine
 10
1.42828755499094
 20
31.62055836370399
 30
0.0
 11
1.529620629684046
 21
30.84398592101801
 31
0.0
  0
LINE
  5
159
330
1F
100
AcDbEntity
  8
0
100
AcDbLine
 10
1.529620629684046
 20
30.84398592101801
 30
0.0
 11
1.426508796229191
 21
30.067647655982
 31
0.0
  0
LINE
  5
15A
330
1F
100
AcDbEntity
  8
0
100
AcDbLine
 10
1.426508796229191
 20
30.067647655982
 30
0.0
 11
1.125978955675968
 21
29.34444973839846
 31
0.0
  0
LINE
  5
15B
330
1F
100
AcDbEntity
  8
0
100
AcDbLine
 10
1.125978955675968
 20
29.34444973839846
 30
0.0
 11
0.6485117200090194
 21
28.72367691120967
 31
0.0
  0
LINE
  5
15C
330
1F
100
AcDbEntity
  8
0
100
AcDbLine
 10
0.6485117200090194
 20
28.72367691120967
 30
0.0
 11
0.0266456922871561
 21
28.24763381671293
 31
0.0
  0
LINE
  5
15D
330
1F
100
AcDbEntity
  8
0
100
AcDbLine
 10
0.0266456922871561
 20
28.24763381671293
 30
0.0
 11
-0.697239985382599
 21
27.94876200509979
 31
0.0
  0
LINE
  5
15E
330
1F
100
AcDbEntity
  8
0
100
AcDbLine
 10
-0.697239985382599
 20
27.94876200509979
 30
0.0
 11
-1.473813700344681
 21
27.84742909642268
 31
0.0
  0
LINE
  5
15F
330
1F
100
AcDbEntity
  8
0
100
AcDbLine
 10
-1.473813700344681
 20
27.84742909642268
 30
0.0
 11
-2.250153237273175
 21
27.95054076094737
 31
0.0
  0
LINE
  5
160
330
1F
100
AcDbEntity
  8
0
100
AcDbLine
 10
-2.250153237273175
 20
27.95054076094737
 30
0.0
 11
-2.973352339688144
 21
28.2510701091366
 31
0.0
  0
LINE
  5
161
330
1F
100
AcDbEntity
  8
0
100
AcDbLine
 10
-2.973352339688144
 20
28.2510701091366
 30
0.0
 11
-3.594126183903044
 21
28.72853656255948
 31
0.0
  0
LINE
  5
162
330
1F
100
AcDbEntity
  8
0
100
AcDbLine
 10
-3.594126183903044
 20
28.72853656255948
 30
0.0
 11
-4.070170058311903
 21
29.35040157146591
 31
0.0
  0
LINE
  5
163
330
1F
100
AcDbEntity
  8
0
100
AcDbLine
 10
-4.070170058311903
 20
29.35040157146591
 30
0.0
 11
-4.369042359573454
 21
30.07428606317938
 31
0.0
  0
LINE
  5
164
330
1F
100
AcDbEntity
  8
0
100
AcDbLine
 10
-4.369042359573454
 20
30.07428606317938
 30
0.0
 11
-4.47037543426656
 21
30.85085850586534
 31
0.0
  0
LINE
  5
165
330
1F
100
AcDbEntity
  8
0
100
AcDbLine
 10
-32.69847387615298
 20
-0.3145960990879786
 30
0.0
 11
-30.00845388455508
 21
-2.38361739725384
 31
0.0
  0
LINE
  5
166
330
1F
100
AcDbEntity
  8
0
100
AcDbLine
 10
-12.22979431307912
 20
15.35433116996314
 30
0.0
 11
-14.29265110218416
 21
18.04907954189093
 31
0.0
  0
LINE
  5
167
330
1F
100
AcDbEntity
  8
0
 62
   250
100
AcDbLine
 10
11.48724555392401
 20
3.832606665605035
 30
0.0
 11
4.122843972224713
 21
3.841042083592083
 31
0.0
  0
LINE
  5
168
330
1F
100
AcDbEntity
  8
0
 62
   250
100
AcDbLine
 10
11.49869988076875
 20
13.83258372233504
 30
0.0
 11
4.134298299069454
 21
13.84101914032209
 31
0.0
  0
LINE
  5
169
330
1F
100
AcDbEntity
  8
0
 62
   250
100
AcDbLine
 10
4.634285477417513
 20
3.840456262351299
 30
0.0
 11
4.631942188615318
 21
1.794693593199165
 31
0.0
  0
LINE
  5
16A
330
1F
100
AcDbEntity
  8
0
 62
   250
100
AcDbLine
 10
4.634285477417513
 20
3.840456262351299
 30
0.0
 11
4.645739804262255
 21
13.84043331908131
 31
0.0
  0
LINE
  5
16B
330
1F
100
AcDbEntity
  8
0
 62
   250
100
AcDbLine
 10
52.50497347640629
 20
9.297060092297617
 30
0.0
 11
52.51838998815457
 21
21.01008447885169
 31
0.0
  0
LINE
  5
16C
330
1F
100
AcDbEntity
  8
0
 62
   250
100
AcDbLine
 10
30.50498790858742
 20
9.322259570071173
 30
0.0
 11
30.51840442033569
 21
21.03528395662525
 31
0.0
  0
LINE
  5
16D
330
1F
100
AcDbEntity
  8
0
 62
   250
100
AcDbLine
 10
52.51780416595402
 20
20.49864381156365
 30
0.0
 11
43.73405935842362
 21
20.50870499007503
 31
0.0
  0
LINE
  5
16E
330
1F
100
AcDbEntity
  8
0
 62
   250
100
AcDbLine
 10
39.30156340566553
 20
20.5137821108258
 30
0.0
 11
30.51781859813514
 21
20.52384328933722
 31
0.0
  0
LINE
  5
16F
330
1F
100
AcDbEntity
  8
0
 62
   250
100
AcDbLine
 10
33.548260893685
 20
10.32571693288361
 30
0.0
 11
27.46054327908875
 21
7.29592087268267
 31
0.0
  0
LINE
  5
170
330
1F
100
AcDbEntity
  8
0
 62
   250
100
AcDbLine
 10
44.08248942689535
 20
15.56849692495357
 30
0.0
 11
33.548260893685
 21
10.32571693288361
 31
0.0
  0
LINE
  5
171
330
1F
100
AcDbEntity
  8
0
 62
   250
100
AcDbLine
 10
44.08248942689535
 20
15.56849692495357
 30
0.0
 11
46.12825678970678
 21
15.56849692495357
 31
0.0
  0
LINE
  5
172
330
1F
100
AcDbEntity
  8
0
 62
   250
100
AcDbLine
 10
-50.52705728162765
 20
-18.60777992223686
 30
0.0
 11
-50.54693524773699
 21
-35.96185124588088
 31
0.0
  0
LINE
  5
173
330
1F
100
AcDbEntity
  8
0
 62
   250
100
AcDbLine
 10
52.47287514952439
 20
-18.72575929544945
 30
0.0
 11
52.45299718341505
 21
-36.07983061909341
 31
0.0
  0
LINE
  5
174
330
1F
100
AcDbEntity
  8
0
 62
   250
100
AcDbLine
 10
-50.54634942553644
 20
-35.45041057859284
 30
0.0
 11
-1.816693180434224
 21
-35.50622706472988
 31
0.0
  0
LINE
  5
175
330
1F
100
AcDbEntity
  8
0
 62
   250
100
AcDbLine
 10
3.723926760513384
 20
-35.51257346566835
 30
0.0
 11
52.45358300561561
 21
-35.56838995180537
 31
0.0
  0
LINE
  5
176
330
1F
100
AcDbEntity
  8
0
 62
   250
100
AcDbLine
 10
-50.46403227226494
 20
36.40411662866587
 30
0.0
 11
-50.45929263203463
 21
40.54196725949513
 31
0.0
  0
LINE
  5
177
330
1F
100
AcDbEntity
  8
0
 62
   250
100
AcDbLine
 10
-50.46403227226494
 20
36.41497751868117
 30
0.0
 11
-50.45929263203463
 21
40.55282814951071
 31
0.0
  0
LINE
  5
178
330
1F
100
AcDbEntity
  8
0
 62
   250
100
AcDbLine
 10
-23.15727131702423
 20
-11.62131520275694
 30
0.0
 11
-24.13313990168774
 21
29.36700234748021
 31
0.0
  0
LINE
  5
179
330
1F
100
AcDbEntity
  8
0
 62
   250
100
AcDbLine
 10
-23.05269612945999
 20
-16.01366993486108
 30
0.0
 11
-23.15727131702423
 21
-11.62131520275694
 31
0.0
  0
LINE
  5
17A
330
1F
100
AcDbEntity
  8
0
 62
   250
100
AcDbLine
 10
-23.05269612945999
 20
-16.01366993486108
 30
0.0
 11
-21.00692876664856
 21
-16.01366993486109
 31
0.0
  0
LINE
  5
17B
330
1F
100
AcDbEntity
  8
0
 62
   250
100
AcDbLine
 10
-14.32143442043549
 20
18.07783867294366
 30
0.0
 11
-19.91370462076013
 21
12.46333814783563
 31
0.0
  0
LINE
  5
17C
330
1F
100
AcDbEntity
  8
0
 62
   250
100
AcDbLine
 10
-22.88530269750195
 20
9.4799274104023
 30
0.0
 11
-32.66969055790166
 21
-0.3433552301406845
 31
0.0
  0
LINE
  5
17D
330
1F
100
AcDbEntity
  8
0
 62
   250
100
AcDbLine
 10
48.99807696461166
 20
3.278199237184326
 30
0.0
 11
48.95930272593676
 21
-30.57289497349826
 31
0.0
  0
LINE
  5
17E
330
1F
100
AcDbEntity
  8
0
 62
   250
100
AcDbLine
 10
52.4862149361343
 20
-7.079718297255585
 30
0.0
 11
52.45930042990793
 21
-30.57690398132587
 31
0.0
  0
LINE
  5
17F
330
1F
100
AcDbEntity
  8
0
 62
   250
100
AcDbLine
 10
52.45988625210848
 20
-30.06546331403784
 30
0.0
 11
54.50565227287968
 21
-30.06780659900098
 31
0.0
  0
LINE
  5
180
330
1F
100
AcDbEntity
  8
0
 62
   250
100
AcDbLine
 10
48.95988854813731
 20
-30.06145430621023
 30
0.0
 11
52.45988625210848
 21
-30.06546331403784
 31
0.0
  0
LINE
  5
181
330
1F
100
AcDbEntity
  8
0
 62
   250
100
AcDbLine
 10
48.99807696461166
 20
3.278199237184326
 30
0.0
 11
48.95930272593676
 21
-30.57289497349826
 31
0.0
  0
LINE
  5
182
330
1F
100
AcDbEntity
  8
0
 62
   250
100
AcDbLine
 10
42.99808090066104
 20
3.285071822031657
 30
0.0
 11
42.95930666198615
 21
-30.56602238865094
 31
0.0
  0
LINE
  5
183
330
1F
100
AcDbEntity
  8
0
 62
   250
100
AcDbLine
 10
48.95988854813731
 20
-30.06145430621023
 30
0.0
 11
47.62207649844629
 21
-30.0599219340681
 31
0.0
  0
LINE
  5
184
330
1F
100
AcDbEntity
  8
0
 62
   250
100
AcDbLine
 10
44.29770453387771
 20
-30.05611409350503
 30
0.0
 11
42.9598924841867
 21
-30.0545817213629
 31
0.0
  0
LINE
  5
185
330
1F
100
AcDbEntity
  8
0
 62
   250
100
AcDbLine
 10
42.99808090066105
 20
3.285071822031663
 30
0.0
 11
42.95930666198615
 21
-30.56602238865093
 31
0.0
  0
LINE
  5
186
330
1F
100
AcDbEntity
  8
0
 62
   250
100
AcDbLine
 10
17.99809730086687
 20
3.313707592228889
 30
0.0
 11
17.95932306219197
 21
-30.53738661845371
 31
0.0
  0
LINE
  5
187
330
1F
100
AcDbEntity
  8
0
 62
   250
100
AcDbLine
 10
42.9598924841867
 20
-30.0545817213629
 30
0.0
 11
32.67614866066869
 21
-30.04280239663967
 31
0.0
  0
LINE
  5
188
330
1F
100
AcDbEntity
  8
0
 62
   250
100
AcDbLine
 10
28.24365270791059
 20
-30.0377252758889
 30
0.0
 11
17.95990888439252
 21
-30.02594595116568
 31
0.0
  0
LINE
  5
189
330
1F
100
AcDbEntity
  8
0
 62
   250
100
AcDbLine
 10
17.99809730086686
 20
3.313707592228886
 30
0.0
 11
17.95932306219196
 21
-30.53738661845372
 31
0.0
  0
LINE
  5
18A
330
1F
100
AcDbEntity
  8
0
 62
   250
100
AcDbLine
 10
11.99810123691626
 20
3.320580177076218
 30
0.0
 11
11.95932699824136
 21
-30.53051403360638
 31
0.0
  0
LINE
  5
18B
330
1F
100
AcDbEntity
  8
0
 62
   250
100
AcDbLine
 10
17.95990888439251
 20
-30.02594595116568
 30
0.0
 11
16.62209683470148
 21
-30.02441357902356
 31
0.0
  0
LINE
  5
18C
330
1F
100
AcDbEntity
  8
0
 62
   250
100
AcDbLine
 10
13.2977248701329
 20
-30.02060573846048
 30
0.0
 11
11.95991282044191
 21
-30.01907336631835
 31
0.0
  0
LINE
  5
18D
330
1F
100
AcDbEntity
  8
0
 62
   250
100
AcDbLine
 10
42.4872252176688
 20
3.797098310560481
 30
0.0
 11
36.34575459022444
 21
3.804132944837678
 31
0.0
  0
LINE
  5
18E
330
1F
100
AcDbEntity
  8
0
 62
   250
100
AcDbLine
 10
42.49867954451354
 20
13.79707536729049
 30
0.0
 11
36.35720891706919
 21
13.80411000156769
 31
0.0
  0
LINE
  5
18F
330
1F
100
AcDbEntity
  8
0
 62
   250
100
AcDbLine
 10
36.85719609541724
 20
3.803547123596894
 30
0.0
 11
36.85485280661505
 21
1.75778445444476
 31
0.0
  0
LINE
  5
190
330
1F
100
AcDbEntity
  8
0
 62
   250
100
AcDbLine
 10
36.85719609541724
 20
3.803547123596894
 30
0.0
 11
36.86865042226198
 21
13.8035241803269
 31
0.0
  0
LINE
  5
191
330
1F
100
AcDbEntity
  8
0
 62
   250
100
AcDbLine
 10
-50.52133011820528
 20
-13.60779139387186
 30
0.0
 11
-50.54063200124412
 21
-30.45892460811333
 31
0.0
  0
LINE
  5
192
330
1F
100
AcDbEntity
  8
0
 62
   250
100
AcDbLine
 10
-45.52195618229566
 20
-14.15722803761352
 30
0.0
 11
-45.54063528128527
 21
-30.46465176215278
 31
0.0
  0
LINE
  5
193
330
1F
100
AcDbEntity
  8
0
 62
   250
100
AcDbLine
 10
-50.54004617904357
 20
-29.94748394082531
 30
0.0
 11
-52.58581219981476
 21
-29.94514065586217
 31
0.0
  0
LINE
  5
194
330
1F
100
AcDbEntity
  8
0
 62
   250
100
AcDbLine
 10
-50.54004617904357
 20
-29.94748394082531
 30
0.0
 11
-45.54004945908472
 21
-29.95321109486475
 31
0.0
  0
LINE
  5
195
330
1F
100
AcDbEntity
  8
0
 62
   250
100
AcDbLine
 10
-1.529028168852566
 20
-20.35648770832879
 30
0.0
 11
-1.540664145647521
 21
-30.51505071769989
 31
0.0
  0
LINE
  5
196
330
1F
100
AcDbEntity
  8
0
 62
   250
100
AcDbLine
 10
3.4729072939278
 20
-18.66963318586286
 30
0.0
 11
3.459332574311324
 21
-30.52077787173933
 31
0.0
  0
LINE
  5
197
330
1F
100
AcDbEntity
  8
0
 62
   250
100
AcDbLine
 10
3.459918396511872
 20
-30.0093372044513
 30
0.0
 11
5.505684417283069
 21
-30.01168048941443
 31
0.0
  0
LINE
  5
198
330
1F
100
AcDbEntity
  8
0
 62
   250
100
AcDbLine
 10
-1.540078323446973
 20
-30.00361005041185
 30
0.0
 11
3.459918396511872
 21
-30.0093372044513
 31
0.0
  0
LINE
  5
199
330
1F
100
AcDbEntity
  8
0
 62
   250
100
AcDbLine
 10
-51.03791296461989
 20
-18.09575343370804
 30
0.0
 11
-57.86505663393814
 21
-18.08793340788932
 31
0.0
  0
LINE
  5
19A
330
1F
100
AcDbEntity
  8
0
 62
   250
100
AcDbLine
 10
-51.03218580119752
 20
-13.09576490534304
 30
0.0
 11
-57.85932947051576
 21
-13.08794487952432
 31
0.0
  0
LINE
  5
19B
330
1F
100
AcDbEntity
  8
0
 62
   250
100
AcDbLine
 10
-57.35361512874534
 20
-18.08851922913011
 30
0.0
 11
-57.35595841754753
 21
-20.13428189828224
 31
0.0
  0
LINE
  5
19C
330
1F
100
AcDbEntity
  8
0
 62
   250
100
AcDbLine
 10
-57.35361512874534
 20
-18.08851922913011
 30
0.0
 11
-57.34788796532297
 21
-13.0885307007651
 31
0.0
  0
LINE
  5
19D
330
1F
100
AcDbEntity
  8
0
 62
   250
100
AcDbLine
 10
-45.98179004312183
 20
30.89840699022957
 30
0.0
 11
-57.8089304323989
 21
30.91195417008774
 31
0.0
  0
LINE
  5
19E
330
1F
100
AcDbEntity
  8
0
 62
   250
100
AcDbLine
 10
-45.97606287969946
 20
35.89839551859448
 30
0.0
 11
-57.80320326897653
 21
35.91194269845265
 31
0.0
  0
LINE
  5
19F
330
1F
100
AcDbEntity
  8
0
 62
   250
100
AcDbLine
 10
-57.29176176378373
 20
35.91135687721187
 30
0.0
 11
-57.28941847498154
 21
37.957119546364
 31
0.0
  0
LINE
  5
1A0
330
1F
100
AcDbEntity
  8
0
 62
   250
100
AcDbLine
 10
-57.29748892720611
 20
30.91136834884696
 30
0.0
 11
-57.29176176378373
 21
35.91135687721187
 31
0.0
  0
LINE
  5
1A1
330
1F
100
AcDbEntity
  8
0
 62
   250
100
AcDbLine
 10
-4.429174212525694
 20
31.34292259816595
 30
0.0
 11
1.488419407943181
 21
30.3519218287174
 31
0.0
  0
LINE
  5
1A2
330
1F
100
AcDbEntity
  8
0
 62
   250
100
AcDbLine
 10
-7.00380990848027
 20
31.77408873078365
 30
0.0
 11
-4.429174212525694
 21
31.34292259816595
 31
0.0
  0
LINE
  5
1A3
330
1F
100
AcDbEntity
  8
0
 62
   250
100
AcDbLine
 10
-7.00380990848027
 20
31.77408873078365
 30
0.0
 11
-9.049577271291701
 21
31.77408873078364
 31
0.0
  0
LINE
  5
1A4
330
1F
100
AcDbEntity
  8
0
 62
   250
100
AcDbLine
 10
-51.03218580119752
 20
-13.09576490534304
 30
0.0
 11
-57.85932947051576
 21
-13.08794487952432
 31
0.0
  0
LINE
  5
1A5
330
1F
100
AcDbEntity
  8
0
 62
   250
100
AcDbLine
 10
-51.0069862821391
 20
8.90418461946294
 30
0.0
 11
-57.83412995145734
 21
8.912004645281662
 31
0.0
  0
LINE
  5
1A6
330
1F
100
AcDbEntity
  8
0
 62
   250
100
AcDbLine
 10
-57.34788796532297
 20
-13.0885307007651
 30
0.0
 11
-57.3369968577989
 21
-3.580261307078776
 31
0.0
  0
LINE
  5
1A7
330
1F
100
AcDbEntity
  8
0
 62
   250
100
AcDbLine
 10
-57.33357955378861
 20
-0.5968505696454443
 30
0.0
 11
-57.32268844626454
 21
8.911418824040878
 31
0.0
  0
LINE
  5
1A8
330
1F
100
AcDbEntity
  8
0
 62
   250
100
AcDbLine
 10
-50.98178676308066
 20
30.90413414426892
 30
0.0
 11
-57.8089304323989
 21
30.91195417008765
 31
0.0
  0
LINE
  5
1A9
330
1F
100
AcDbEntity
  8
0
 62
   250
100
AcDbLine
 10
-51.0069862821391
 20
8.904184619462937
 30
0.0
 11
-57.83412995145734
 21
8.91200464528166
 31
0.0
  0
LINE
  5
1AA
330
1F
100
AcDbEntity
  8
0
 62
   250
100
AcDbLine
 10
-57.29748892720611
 20
30.91136834884686
 30
0.0
 11
-57.30838003473017
 21
21.40309895516054
 31
0.0
  0
LINE
  5
1AB
330
1F
100
AcDbEntity
  8
0
 62
   250
100
AcDbLine
 10
-57.31179733874046
 20
18.41968821772722
 30
0.0
 11
-57.32268844626454
 21
8.911418824040876
 31
0.0
  0
LINE
  5
1AC
330
1F
100
AcDbEntity
  8
0
 62
   250
100
AcDbLine
 10
52.99292050570906
 20
-11.2149205096912
 30
0.0
 11
56.81224707811261
 21
-11.21929528688251
 31
0.0
  0
LINE
  5
1AD
330
1F
100
AcDbEntity
  8
0
 62
   250
100
AcDbLine
 10
53.01582915939854
 20
8.78503360376879
 30
0.0
 11
56.83515573180209
 21
8.78065882657748
 31
0.0
  0
LINE
  5
1AE
330
1F
100
AcDbEntity
  8
0
 62
   250
100
AcDbLine
 10
56.30080557291981
 20
-11.21870946564172
 30
0.0
 11
56.31055124775941
 21
-2.710437777628389
 31
0.0
  0
LINE
  5
1AF
330
1F
100
AcDbEntity
  8
0
 62
   250
100
AcDbLine
 10
56.3139685517697
 20
0.2729729598049483
 30
0.0
 11
56.32371422660929
 21
8.781244647818264
 31
0.0
  0
LINE
  5
1B0
330
1F
100
AcDbEntity
  8
0
 62
   250
100
AcDbLine
 10
53.01582915939855
 20
8.785033603768793
 30
0.0
 11
56.83515573180209
 21
8.780658826577483
 31
0.0
  0
LINE
  5
1B1
330
1F
100
AcDbEntity
  8
0
 62
   250
100
AcDbLine
 10
53.03873781308803
 20
28.78498771722879
 30
0.0
 11
56.85806438549158
 21
28.78061294003748
 31
0.0
  0
LINE
  5
1B2
330
1F
100
AcDbEntity
  8
0
 62
   250
100
AcDbLine
 10
56.32371422660929
 20
8.781244647818268
 30
0.0
 11
56.33345990144889
 21
17.28951633583159
 31
0.0
  0
LINE
  5
1B3
330
1F
100
AcDbEntity
  8
0
 62
   250
100
AcDbLine
 10
56.33687720545917
 20
20.27292707326493
 30
0.0
 11
56.34662288029878
 21
28.78119876127827
 31
0.0
  0
LINE
  5
1B4
330
1F
100
AcDbEntity
  8
0
 62
   250
100
AcDbLine
 10
-23.67671811403734
 20
-18.63853514809737
 30
0.0
 11
-23.69029283365381
 21
-30.48967983397384
 31
0.0
  0
LINE
  5
1B5
330
1F
100
AcDbEntity
  8
0
 62
   250
100
AcDbLine
 10
-1.676732546218452
 20
-18.66373462587093
 30
0.0
 11
-1.690307265834927
 21
-30.51487931174739
 31
0.0
  0
LINE
  5
1B6
330
1F
100
AcDbEntity
  8
0
 62
   250
100
AcDbLine
 10
-23.68970701145326
 20
-29.9782391666858
 30
0.0
 11
-14.90596220392286
 21
-29.98830034519721
 31
0.0
  0
LINE
  5
1B7
330
1F
100
AcDbEntity
  8
0
 62
   250
100
AcDbLine
 10
-10.47346625116478
 20
-29.99337746594795
 30
0.0
 11
-1.68972144363438
 21
-30.00343864445936
 31
0.0
  0
LINE
  5
1B8
330
1F
100
AcDbEntity
  8
0
 62
   250
100
AcDbLine
 10
-23.67671811403734
 20
-18.63853514809737
 30
0.0
 11
-23.69029283365381
 21
-30.48967983397384
 31
0.0
  0
LINE
  5
1B9
330
1F
100
AcDbEntity
  8
0
 62
   250
100
AcDbLine
 10
-45.67670368185622
 20
-18.61333567032381
 30
0.0
 11
-45.69027840147269
 21
-30.46448035620029
 31
0.0
  0
LINE
  5
1BA
330
1F
100
AcDbEntity
  8
0
 62
   250
100
AcDbLine
 10
-23.68970701145326
 20
-29.9782391666858
 30
0.0
 11
-32.47345181898366
 21
-29.96817798817442
 31
0.0
  0
LINE
  5
1BB
330
1F
100
AcDbEntity
  8
0
 62
   250
100
AcDbLine
 10
-36.90594777174175
 20
-29.96310086742364
 30
0.0
 11
-45.68969257927214
 21
-29.95303968891226
 31
0.0
  0
LINE
  5
1BC
330
1F
100
AcDbEntity
  8
0
 62
   250
100
AcDbLine
 10
51.00723911407099
 20
11.27589002095255
 30
0.0
 11
50.97852430201712
 21
-13.79301761711155
 31
0.0
  0
LINE
  5
1BD
330
1F
100
AcDbEntity
  8
0
 62
   250
100
AcDbLine
 10
41.0072456741533
 20
11.28734432903143
 30
0.0
 11
40.97853086209945
 21
-13.78156330903267
 31
0.0
  0
LINE
  5
1BE
330
1F
100
AcDbEntity
  8
0
 62
   250
100
AcDbLine
 10
50.97911012421767
 20
-13.28157694982353
 30
0.0
 11
53.02487614498887
 21
-13.28392023478666
 31
0.0
  0
LINE
  5
1BF
330
1F
100
AcDbEntity
  8
0
 62
   250
100
AcDbLine
 10
50.97911012421767
 20
-13.28157694982353
 30
0.0
 11
40.97911668429999
 21
-13.27012264174464
 31
0.0
  0
LINE
  5
1C0
330
1F
100
AcDbEntity
  8
0
 62
   250
100
AcDbLine
 10
42.99925254506215
 20
4.30071256326401
 30
0.0
 11
43.00558804790663
 21
9.831799980834795
 31
0.0
  0
LINE
  5
1C1
330
1F
100
AcDbEntity
  8
0
 62
   250
100
AcDbLine
 10
42.99925254506215
 20
4.307953156607728
 30
0.0
 11
43.00558804790663
 21
9.839040574178513
 31
0.0
  0
LINE
  5
1C2
330
1F
100
AcDbEntity
  8
0
 62
   250
100
AcDbLine
 10
11.99927288131736
 20
4.336220918308564
 30
0.0
 11
12.00798325103018
 21
11.94063962090937
 31
0.0
  0
LINE
  5
1C3
330
1F
100
AcDbEntity
  8
0
 62
   250
100
AcDbLine
 10
11.99927288131736
 20
4.343461511652283
 30
0.0
 11
12.00798325103018
 21
11.94788021425309
 31
0.0
  0
LINE
  5
1C4
330
1F
100
AcDbEntity
  8
0
 62
   250
100
AcDbLine
 10
20.0072594503262
 20
11.31139837599711
 30
0.0
 11
19.97601954848084
 21
-15.96198974559484
 31
0.0
  0
LINE
  5
1C5
330
1F
100
AcDbEntity
  8
0
 62
   250
100
AcDbLine
 10
10.00726601040852
 20
11.32285268407599
 30
0.0
 11
9.976026108563163
 21
-15.95053543751595
 31
0.0
  0
LINE
  5
1C6
330
1F
100
AcDbEntity
  8
0
 62
   250
100
AcDbLine
 10
19.97660537068139
 20
-15.45054907830681
 30
0.0
 11
22.02237139145259
 21
-15.45289236326995
 31
0.0
  0
LINE
  5
1C7
330
1F
100
AcDbEntity
  8
0
 62
   250
100
AcDbLine
 10
19.97660537068139
 20
-15.45054907830681
 30
0.0
 11
9.976611930763712
 21
-15.43909477022792
 31
0.0
  0
POLYLINE
  5
1C8
330
1F
100
AcDbEntity
  8
0
 62
   250
100
AcDbPolyFaceMesh
 66
     1
 10
0.0
 20
0.0
 30
0.0
 70
    64
 71
     3
 72
     1
  0
VERTEX
  5
1C9
330
1C8
100
AcDbEntity
  8
0
100
AcDbVertex
100
AcDbPolyFaceMeshVertex
 10
5.147484449211956
 20
5.374192442974615
 30
0.0
 70
   192
  0
VERTEX
  5
1CA
330
1C8
100
AcDbEntity
  8
0
100
AcDbVertex
100
AcDbPolyFaceMeshVertex
 10
4.634285477417511
 20
3.840456262351299
 30
0.0
 70
   192
  0
VERTEX
  5
1CB
330
1C8
100
AcDbEntity
  8
0
100
AcDbVertex
100
AcDbPolyFaceMeshVertex
 10
4.124601438826359
 20
5.375364085456184
 30
0.0
 70
   192
  0
VERTEX
  5
1CC
330
1C8
100
AcDbEntity
  8
0
 62
   250
100
AcDbFaceRecord
 10
0.0
 20
0.0
 30
0.0
 70
   128
 71
     1
 72
     2
 73
     3
  0
SEQEND
  5
1CD
330
1C8
100
AcDbEntity
  8
0
 62
   250
  0
POLYLINE
  5
1CE
330
1F
100
AcDbEntity
  8
0
 62
   250
100
AcDbPolyFaceMesh
 66
     1
 10
0.0
 20
0.0
 30
0.0
 70
    64
 71
     3
 72
     1
  0
VERTEX
  5
1CF
330
1CE
100
AcDbEntity
  8
0
100
AcDbVertex
100
AcDbPolyFaceMeshVertex
 10
5.155423842853404
 20
12.30552549597642
 30
0.0
 70
   192
  0
VERTEX
  5
1D0
330
1CE
100
AcDbEntity
  8
0
100
AcDbVertex
100
AcDbPolyFaceMeshVertex
 10
4.132540832467805
 20
12.30669713845799
 30
0.0
 70
   192
  0
VERTEX
  5
1D1
330
1CE
100
AcDbEntity
  8
0
100
AcDbVertex
100
AcDbPolyFaceMeshVertex
 10
4.64573980426225
 20
13.84043331908131
 30
0.0
 70
   192
  0
VERTEX
  5
1D2
330
1CE
100
AcDbEntity
  8
0
 62
   250
100
AcDbFaceRecord
 10
0.0
 20
0.0
 30
0.0
 70
   128
 71
     1
 72
     2
 73
     3
  0
SEQEND
  5
1D3
330
1CE
100
AcDbEntity
  8
0
 62
   250
  0
POLYLINE
  5
1D4
330
1F
100
AcDbEntity
  8
0
 62
   250
100
AcDbPolyFaceMesh
 66
     1
 10
0.0
 20
0.0
 30
0.0
 70
    64
 71
     3
 72
     1
  0
VERTEX
  5
1D5
330
1D4
100
AcDbEntity
  8
0
100
AcDbVertex
100
AcDbPolyFaceMeshVertex
 10
52.51780416595402
 20
20.49864381156366
 30
0.0
 70
   192
  0
VERTEX
  5
1D6
330
1D4
100
AcDbEntity
  8
0
100
AcDbVertex
100
AcDbPolyFaceMeshVertex
 10
50.98289382817507
 20
19.98896060799798
 30
0.0
 70
   192
  0
VERTEX
  5
1D7
330
1D4
100
AcDbEntity
  8
0
100
AcDbVertex
100
AcDbPolyFaceMeshVertex
 10
50.98406547257617
 20
21.01184194257405
 30
0.0
 70
   192
  0
VERTEX
  5
1D8
330
1D4
100
AcDbEntity
  8
0
 62
   250
100
AcDbFaceRecord
 10
0.0
 20
0.0
 30
0.0
 70
   128
 71
     1
 72
     2
 73
     3
  0
SEQEND
  5
1D9
330
1D4
100
AcDbEntity
  8
0
 62
   250
  0
POLYLINE
  5
1DA
330
1F
100
AcDbEntity
  8
0
 62
   250
100
AcDbPolyFaceMesh
 66
     1
 10
0.0
 20
0.0
 30
0.0
 70
    64
 71
     3
 72
     1
  0
VERTEX
  5
1DB
330
1DA
100
AcDbEntity
  8
0
100
AcDbVertex
100
AcDbPolyFaceMeshVertex
 10
32.0527289359141
 20
21.03352649290291
 30
0.0
 70
   192
  0
VERTEX
  5
1DC
330
1DA
100
AcDbEntity
  8
0
100
AcDbVertex
100
AcDbPolyFaceMeshVertex
 10
32.051557291513
 20
20.01064515832685
 30
0.0
 70
   192
  0
VERTEX
  5
1DD
330
1DA
100
AcDbEntity
  8
0
100
AcDbVertex
100
AcDbPolyFaceMeshVertex
 10
30.51781859813515
 20
20.52384328933723
 30
0.0
 70
   192
  0
VERTEX
  5
1DE
330
1DA
100
AcDbEntity
  8
0
 62
   250
100
AcDbFaceRecord
 10
0.0
 20
0.0
 30
0.0
 70
   128
 71
     1
 72
     2
 73
     3
  0
SEQEND
  5
1DF
330
1DA
100
AcDbEntity
  8
0
 62
   250
  0
POLYLINE
  5
1E0
330
1F
100
AcDbEntity
  8
0
 62
   250
100
AcDbPolyFaceMesh
 66
     1
 10
0.0
 20
0.0
 30
0.0
 70
    64
 71
     3
 72
     1
  0
VERTEX
  5
1E1
330
1E0
100
AcDbEntity
  8
0
100
AcDbVertex
100
AcDbPolyFaceMeshVertex
 10
33.548260893685
 20
10.32571693288361
 30
0.0
 70
   192
  0
VERTEX
  5
1E2
330
1E0
100
AcDbEntity
  8
0
100
AcDbVertex
100
AcDbPolyFaceMeshVertex
 10
32.4025294973916
 20
9.18421666472072
 30
0.0
 70
   192
  0
VERTEX
  5
1E3
330
1E0
100
AcDbEntity
  8
0
100
AcDbVertex
100
AcDbPolyFaceMeshVertex
 10
31.94677449366519
 20
10.09995442988465
 30
0.0
 70
   192
  0
VERTEX
  5
1E4
330
1E0
100
AcDbEntity
  8
0
 62
   250
100
AcDbFaceRecord
 10
0.0
 20
0.0
 30
0.0
 70
   128
 71
     1
 72
     2
 73
     3
  0
SEQEND
  5
1E5
330
1E0
100
AcDbEntity
  8
0
 62
   250
  0
POLYLINE
  5
1E6
330
1F
100
AcDbEntity
  8
0
 62
   250
100
AcDbPolyFaceMesh
 66
     1
 10
0.0
 20
0.0
 30
0.0
 70
    64
 71
     3
 72
     1
  0
VERTEX
  5
1E7
330
1E6
100
AcDbEntity
  8
0
100
AcDbVertex
100
AcDbPolyFaceMeshVertex
 10
29.06202967910856
 20
7.52168337568163
 30
0.0
 70
   192
  0
VERTEX
  5
1E8
330
1E6
100
AcDbEntity
  8
0
100
AcDbVertex
100
AcDbPolyFaceMeshVertex
 10
27.46054327908875
 20
7.29592087268267
 30
0.0
 70
   192
  0
VERTEX
  5
1E9
330
1E6
100
AcDbEntity
  8
0
100
AcDbVertex
100
AcDbPolyFaceMeshVertex
 10
28.60627467538215
 20
8.437421140845556
 30
0.0
 70
   192
  0
VERTEX
  5
1EA
330
1E6
100
AcDbEntity
  8
0
 62
   250
100
AcDbFaceRecord
 10
0.0
 20
0.0
 30
0.0
 70
   128
 71
     1
 72
     2
 73
     3
  0
SEQEND
  5
1EB
330
1E6
100
AcDbEntity
  8
0
 62
   250
  0
POLYLINE
  5
1EC
330
1F
100
AcDbEntity
  8
0
 62
   250
100
AcDbPolyFaceMesh
 66
     1
 10
0.0
 20
0.0
 30
0.0
 70
    64
 71
     3
 72
     1
  0
VERTEX
  5
1ED
330
1EC
100
AcDbEntity
  8
0
100
AcDbVertex
100
AcDbPolyFaceMeshVertex
 10
-49.01143908775749
 20
-34.94072737502716
 30
0.0
 70
   192
  0
VERTEX
  5
1EE
330
1EC
100
AcDbEntity
  8
0
100
AcDbVertex
100
AcDbPolyFaceMeshVertex
 10
-49.01261073215859
 20
-35.96360870960323
 30
0.0
 70
   192
  0
VERTEX
  5
1EF
330
1EC
100
AcDbEntity
  8
0
100
AcDbVertex
100
AcDbPolyFaceMeshVertex
 10
-50.54634942553644
 20
-35.45041057859284
 30
0.0
 70
   192
  0
VERTEX
  5
1F0
330
1EC
100
AcDbEntity
  8
0
 62
   250
100
AcDbFaceRecord
 10
0.0
 20
0.0
 30
0.0
 70
   128
 71
     1
 72
     2
 73
     3
  0
SEQEND
  5
1F1
330
1EC
100
AcDbEntity
  8
0
 62
   250
  0
POLYLINE
  5
1F2
330
1F
100
AcDbEntity
  8
0
 62
   250
100
AcDbPolyFaceMesh
 66
     1
 10
0.0
 20
0.0
 30
0.0
 70
    64
 71
     3
 72
     1
  0
VERTEX
  5
1F3
330
1F2
100
AcDbEntity
  8
0
100
AcDbVertex
100
AcDbPolyFaceMeshVertex
 10
52.45358300561558
 20
-35.56838995180537
 30
0.0
 70
   192
  0
VERTEX
  5
1F4
330
1F2
100
AcDbEntity
  8
0
100
AcDbVertex
100
AcDbPolyFaceMeshVertex
 10
50.91867266783664
 20
-36.07807315537105
 30
0.0
 70
   192
  0
VERTEX
  5
1F5
330
1F2
100
AcDbEntity
  8
0
100
AcDbVertex
100
AcDbPolyFaceMeshVertex
 10
50.91984431223774
 20
-35.05519182079499
 30
0.0
 70
   192
  0
VERTEX
  5
1F6
330
1F2
100
AcDbEntity
  8
0
 62
   250
100
AcDbFaceRecord
 10
0.0
 20
0.0
 30
0.0
 70
   128
 71
     1
 72
     2
 73
     3
  0
SEQEND
  5
1F7
330
1F2
100
AcDbEntity
  8
0
 62
   250
  0
POLYLINE
  5
1F8
330
1F
100
AcDbEntity
  8
0
 62
   250
100
AcDbPolyFaceMesh
 66
     1
 10
0.0
 20
0.0
 30
0.0
 70
    64
 71
     3
 72
     1
  0
VERTEX
  5
1F9
330
1F8
100
AcDbEntity
  8
0
100
AcDbVertex
100
AcDbPolyFaceMeshVertex
 10
-50.45929263203464
 20
40.54474461628575
 30
0.0
 70
   192
  0
VERTEX
  5
1FA
330
1F8
100
AcDbEntity
  8
0
100
AcDbVertex
100
AcDbPolyFaceMeshVertex
 10
-50.45987845423519
 20
40.0305265922071
 30
0.0
 70
   192
  0
VERTEX
  5
1FB
330
1F8
100
AcDbEntity
  8
0
100
AcDbVertex
100
AcDbPolyFaceMeshVertex
 10
-50.46046427643574
 20
39.52186328170968
 30
0.0
 70
   192
  0
VERTEX
  5
1FC
330
1F8
100
AcDbEntity
  8
0
 62
   250
100
AcDbFaceRecord
 10
0.0
 20
0.0
 30
0.0
 70
   128
 71
     1
 72
     2
 73
     3
  0
SEQEND
  5
1FD
330
1F8
100
AcDbEntity
  8
0
 62
   250
  0
POLYLINE
  5
1FE
330
1F
100
AcDbEntity
  8
0
 62
   250
100
AcDbPolyFaceMesh
 66
     1
 10
0.0
 20
0.0
 30
0.0
 70
    64
 71
     3
 72
     1
  0
VERTEX
  5
1FF
330
1FE
100
AcDbEntity
  8
0
100
AcDbVertex
100
AcDbPolyFaceMeshVertex
 10
-50.45929263203464
 20
40.5500507927201
 30
0.0
 70
   192
  0
VERTEX
  5
200
330
1FE
100
AcDbEntity
  8
0
100
AcDbVertex
100
AcDbPolyFaceMeshVertex
 10
-50.46046427643574
 20
39.52716945814404
 30
0.0
 70
   192
  0
VERTEX
  5
201
330
1FE
100
AcDbEntity
  8
0
100
AcDbVertex
100
AcDbPolyFaceMeshVertex
 10
-50.45987845423519
 20
40.04138748222268
 30
0.0
 70
   192
  0
VERTEX
  5
202
330
1FE
100
AcDbEntity
  8
0
 62
   250
100
AcDbFaceRecord
 10
0.0
 20
0.0
 30
0.0
 70
   128
 71
     1
 72
     2
 73
     3
  0
SEQEND
  5
203
330
1FE
100
AcDbEntity
  8
0
 62
   250
  0
POLYLINE
  5
204
330
1F
100
AcDbEntity
  8
0
 62
   250
100
AcDbPolyFaceMesh
 66
     1
 10
0.0
 20
0.0
 30
0.0
 70
    64
 71
     3
 72
     1
  0
VERTEX
  5
205
330
204
100
AcDbEntity
  8
0
100
AcDbVertex
100
AcDbPolyFaceMeshVertex
 10
-22.6824938818067
 20
-10.07525371658234
 30
0.0
 70
   192
  0
VERTEX
  5
206
330
204
100
AcDbEntity
  8
0
100
AcDbVertex
100
AcDbPolyFaceMeshVertex
 10
-23.15727131702423
 20
-11.62131520275694
 30
0.0
 70
   192
  0
VERTEX
  5
207
330
204
100
AcDbEntity
  8
0
100
AcDbVertex
100
AcDbPolyFaceMeshVertex
 10
-23.70508778032338
 20
-10.09960001938912
 30
0.0
 70
   192
  0
VERTEX
  5
208
330
204
100
AcDbEntity
  8
0
 62
   250
100
AcDbFaceRecord
 10
0.0
 20
0.0
 30
0.0
 70
   128
 71
     1
 72
     2
 73
     3
  0
SEQEND
  5
209
330
204
100
AcDbEntity
  8
0
 62
   250
  0
POLYLINE
  5
20A
330
1F
100
AcDbEntity
  8
0
 62
   250
100
AcDbPolyFaceMesh
 66
     1
 10
0.0
 20
0.0
 30
0.0
 70
    64
 71
     3
 72
     1
  0
VERTEX
  5
20B
330
20A
100
AcDbEntity
  8
0
100
AcDbVertex
100
AcDbPolyFaceMeshVertex
 10
-23.58532343838859
 20
27.8452871641124
 30
0.0
 70
   192
  0
VERTEX
  5
20C
330
20A
100
AcDbEntity
  8
0
100
AcDbVertex
100
AcDbPolyFaceMeshVertex
 10
-24.60791733690527
 20
27.82094086130562
 30
0.0
 70
   192
  0
VERTEX
  5
20D
330
20A
100
AcDbEntity
  8
0
100
AcDbVertex
100
AcDbPolyFaceMeshVertex
 10
-24.13313990168774
 20
29.36700234748021
 30
0.0
 70
   192
  0
VERTEX
  5
20E
330
20A
100
AcDbEntity
  8
0
 62
   250
100
AcDbFaceRecord
 10
0.0
 20
0.0
 30
0.0
 70
   128
 71
     1
 72
     2
 73
     3
  0
SEQEND
  5
20F
330
20A
100
AcDbEntity
  8
0
 62
   250
  0
POLYLINE
  5
210
330
1F
100
AcDbEntity
  8
0
 62
   250
100
AcDbPolyFaceMesh
 66
     1
 10
0.0
 20
0.0
 30
0.0
 70
    64
 71
     3
 72
     1
  0
VERTEX
  5
211
330
210
100
AcDbEntity
  8
0
100
AcDbVertex
100
AcDbPolyFaceMeshVertex
 10
-14.32143442043549
 20
18.07783867294366
 30
0.0
 70
   192
  0
VERTEX
  5
212
330
210
100
AcDbEntity
  8
0
100
AcDbVertex
100
AcDbPolyFaceMeshVertex
 10
-15.04185030216319
 20
16.62983257787655
 30
0.0
 70
   192
  0
VERTEX
  5
213
330
210
100
AcDbEntity
  8
0
100
AcDbVertex
100
AcDbPolyFaceMeshVertex
 10
-15.76657220623852
 20
17.35168261776361
 30
0.0
 70
   192
  0
VERTEX
  5
214
330
210
100
AcDbEntity
  8
0
 62
   250
100
AcDbFaceRecord
 10
0.0
 20
0.0
 30
0.0
 70
   128
 71
     1
 72
     2
 73
     3
  0
SEQEND
  5
215
330
210
100
AcDbEntity
  8
0
 62
   250
  0
POLYLINE
  5
216
330
1F
100
AcDbEntity
  8
0
 62
   250
100
AcDbPolyFaceMesh
 66
     1
 10
0.0
 20
0.0
 30
0.0
 70
    64
 71
     3
 72
     1
  0
VERTEX
  5
217
330
216
100
AcDbEntity
  8
0
100
AcDbVertex
100
AcDbPolyFaceMeshVertex
 10
-31.22455277209863
 20
0.3828008250393641
 30
0.0
 70
   192
  0
VERTEX
  5
218
330
216
100
AcDbEntity
  8
0
100
AcDbVertex
100
AcDbPolyFaceMeshVertex
 10
-32.66969055790166
 20
-0.3433552301406845
 30
0.0
 70
   192
  0
VERTEX
  5
219
330
216
100
AcDbEntity
  8
0
100
AcDbVertex
100
AcDbPolyFaceMeshVertex
 10
-31.94927467617395
 20
1.104650864926429
 30
0.0
 70
   192
  0
VERTEX
  5
21A
330
216
100
AcDbEntity
  8
0
 62
   250
100
AcDbFaceRecord
 10
0.0
 20
0.0
 30
0.0
 70
   128
 71
     1
 72
     2
 73
     3
  0
SEQEND
  5
21B
330
216
100
AcDbEntity
  8
0
 62
   250
  0
POLYLINE
  5
21C
330
1F
100
AcDbEntity
  8
0
 62
   250
100
AcDbPolyFaceMesh
 66
     1
 10
0.0
 20
0.0
 30
0.0
 70
    64
 71
     3
 72
     1
  0
VERTEX
  5
21D
330
21C
100
AcDbEntity
  8
0
100
AcDbVertex
100
AcDbPolyFaceMeshVertex
 10
50.49479888591624
 20
-29.55177110264455
 30
0.0
 70
   192
  0
VERTEX
  5
21E
330
21C
100
AcDbEntity
  8
0
100
AcDbVertex
100
AcDbPolyFaceMeshVertex
 10
50.49362724151515
 20
-30.57465243722061
 30
0.0
 70
   192
  0
VERTEX
  5
21F
330
21C
100
AcDbEntity
  8
0
100
AcDbVertex
100
AcDbPolyFaceMeshVertex
 10
48.9598885481373
 20
-30.06145430621023
 30
0.0
 70
   192
  0
VERTEX
  5
220
330
21C
100
AcDbEntity
  8
0
 62
   250
100
AcDbFaceRecord
 10
0.0
 20
0.0
 30
0.0
 70
   128
 71
     1
 72
     2
 73
     3
  0
SEQEND
  5
221
330
21C
100
AcDbEntity
  8
0
 62
   250
  0
POLYLINE
  5
222
330
1F
100
AcDbEntity
  8
0
 62
   250
100
AcDbPolyFaceMesh
 66
     1
 10
0.0
 20
0.0
 30
0.0
 70
    64
 71
     3
 72
     1
  0
VERTEX
  5
223
330
222
100
AcDbEntity
  8
0
100
AcDbVertex
100
AcDbPolyFaceMeshVertex
 10
52.45988625210848
 20
-30.06546331403784
 30
0.0
 70
   192
  0
VERTEX
  5
224
330
222
100
AcDbEntity
  8
0
100
AcDbVertex
100
AcDbPolyFaceMeshVertex
 10
50.92497591432954
 20
-30.57514651760352
 30
0.0
 70
   192
  0
VERTEX
  5
225
330
222
100
AcDbEntity
  8
0
100
AcDbVertex
100
AcDbPolyFaceMeshVertex
 10
50.92614755873063
 20
-29.55226518302745
 30
0.0
 70
   192
  0
VERTEX
  5
226
330
222
100
AcDbEntity
  8
0
 62
   250
100
AcDbFaceRecord
 10
0.0
 20
0.0
 30
0.0
 70
   128
 71
     1
 72
     2
 73
     3
  0
SEQEND
  5
227
330
222
100
AcDbEntity
  8
0
 62
   250
  0
POLYLINE
  5
228
330
1F
100
AcDbEntity
  8
0
 62
   250
100
AcDbPolyFaceMesh
 66
     1
 10
0.0
 20
0.0
 30
0.0
 70
    64
 71
     3
 72
     1
  0
VERTEX
  5
229
330
228
100
AcDbEntity
  8
0
100
AcDbVertex
100
AcDbPolyFaceMeshVertex
 10
48.9598885481373
 20
-30.06145430621023
 30
0.0
 70
   192
  0
VERTEX
  5
22A
330
228
100
AcDbEntity
  8
0
100
AcDbVertex
100
AcDbPolyFaceMeshVertex
 10
47.42497821035835
 20
-30.57113750977591
 30
0.0
 70
   192
  0
VERTEX
  5
22B
330
228
100
AcDbEntity
  8
0
100
AcDbVertex
100
AcDbPolyFaceMeshVertex
 10
47.42614985475945
 20
-29.54825617519984
 30
0.0
 70
   192
  0
VERTEX
  5
22C
330
228
100
AcDbEntity
  8
0
 62
   250
100
AcDbFaceRecord
 10
0.0
 20
0.0
 30
0.0
 70
   128
 71
     1
 72
     2
 73
     3
  0
SEQEND
  5
22D
330
228
100
AcDbEntity
  8
0
 62
   250
  0
POLYLINE
  5
22E
330
1F
100
AcDbEntity
  8
0
 62
   250
100
AcDbPolyFaceMesh
 66
     1
 10
0.0
 20
0.0
 30
0.0
 70
    64
 71
     3
 72
     1
  0
VERTEX
  5
22F
330
22E
100
AcDbEntity
  8
0
100
AcDbVertex
100
AcDbPolyFaceMeshVertex
 10
44.49480282196564
 20
-29.54489851779721
 30
0.0
 70
   192
  0
VERTEX
  5
230
330
22E
100
AcDbEntity
  8
0
100
AcDbVertex
100
AcDbPolyFaceMeshVertex
 10
44.49363117756454
 20
-30.56777985237327
 30
0.0
 70
   192
  0
VERTEX
  5
231
330
22E
100
AcDbEntity
  8
0
100
AcDbVertex
100
AcDbPolyFaceMeshVertex
 10
42.9598924841867
 20
-30.05458172136289
 30
0.0
 70
   192
  0
VERTEX
  5
232
330
22E
100
AcDbEntity
  8
0
 62
   250
100
AcDbFaceRecord
 10
0.0
 20
0.0
 30
0.0
 70
   128
 71
     1
 72
     2
 73
     3
  0
SEQEND
  5
233
330
22E
100
AcDbEntity
  8
0
 62
   250
  0
POLYLINE
  5
234
330
1F
100
AcDbEntity
  8
0
 62
   250
100
AcDbPolyFaceMesh
 66
     1
 10
0.0
 20
0.0
 30
0.0
 70
    64
 71
     3
 72
     1
  0
VERTEX
  5
235
330
234
100
AcDbEntity
  8
0
100
AcDbVertex
100
AcDbPolyFaceMeshVertex
 10
42.9598924841867
 20
-30.0545817213629
 30
0.0
 70
   192
  0
VERTEX
  5
236
330
234
100
AcDbEntity
  8
0
100
AcDbVertex
100
AcDbPolyFaceMeshVertex
 10
41.42498214640776
 20
-30.56426492492858
 30
0.0
 70
   192
  0
VERTEX
  5
237
330
234
100
AcDbEntity
  8
0
100
AcDbVertex
100
AcDbPolyFaceMeshVertex
 10
41.42615379080885
 20
-29.54138359035251
 30
0.0
 70
   192
  0
VERTEX
  5
238
330
234
100
AcDbEntity
  8
0
 62
   250
100
AcDbFaceRecord
 10
0.0
 20
0.0
 30
0.0
 70
   128
 71
     1
 72
     2
 73
     3
  0
SEQEND
  5
239
330
234
100
AcDbEntity
  8
0
 62
   250
  0
POLYLINE
  5
23A
330
1F
100
AcDbEntity
  8
0
 62
   250
100
AcDbPolyFaceMesh
 66
     1
 10
0.0
 20
0.0
 30
0.0
 70
    64
 71
     3
 72
     1
  0
VERTEX
  5
23B
330
23A
100
AcDbEntity
  8
0
100
AcDbVertex
100
AcDbPolyFaceMeshVertex
 10
19.49481922217146
 20
-29.5162627476
 30
0.0
 70
   192
  0
VERTEX
  5
23C
330
23A
100
AcDbEntity
  8
0
100
AcDbVertex
100
AcDbPolyFaceMeshVertex
 10
19.49364757777036
 20
-30.53914408217607
 30
0.0
 70
   192
  0
VERTEX
  5
23D
330
23A
100
AcDbEntity
  8
0
100
AcDbVertex
100
AcDbPolyFaceMeshVertex
 10
17.95990888439251
 20
-30.02594595116568
 30
0.0
 70
   192
  0
VERTEX
  5
23E
330
23A
100
AcDbEntity
  8
0
 62
   250
100
AcDbFaceRecord
 10
0.0
 20
0.0
 30
0.0
 70
   128
 71
     1
 72
     2
 73
     3
  0
SEQEND
  5
23F
330
23A
100
AcDbEntity
  8
0
 62
   250
  0
POLYLINE
  5
240
330
1F
100
AcDbEntity
  8
0
 62
   250
100
AcDbPolyFaceMesh
 66
     1
 10
0.0
 20
0.0
 30
0.0
 70
    64
 71
     3
 72
     1
  0
VERTEX
  5
241
330
240
100
AcDbEntity
  8
0
100
AcDbVertex
100
AcDbPolyFaceMeshVertex
 10
17.95990888439251
 20
-30.02594595116568
 30
0.0
 70
   192
  0
VERTEX
  5
242
330
240
100
AcDbEntity
  8
0
100
AcDbVertex
100
AcDbPolyFaceMeshVertex
 10
16.42499854661357
 20
-30.53562915473136
 30
0.0
 70
   192
  0
VERTEX
  5
243
330
240
100
AcDbEntity
  8
0
100
AcDbVertex
100
AcDbPolyFaceMeshVertex
 10
16.42617019101466
 20
-29.5127478201553
 30
0.0
 70
   192
  0
VERTEX
  5
244
330
240
100
AcDbEntity
  8
0
 62
   250
100
AcDbFaceRecord
 10
0.0
 20
0.0
 30
0.0
 70
   128
 71
     1
 72
     2
 73
     3
  0
SEQEND
  5
245
330
240
100
AcDbEntity
  8
0
 62
   250
  0
POLYLINE
  5
246
330
1F
100
AcDbEntity
  8
0
 62
   250
100
AcDbPolyFaceMesh
 66
     1
 10
0.0
 20
0.0
 30
0.0
 70
    64
 71
     3
 72
     1
  0
VERTEX
  5
247
330
246
100
AcDbEntity
  8
0
100
AcDbVertex
100
AcDbPolyFaceMeshVertex
 10
13.49482315822086
 20
-29.50939016275267
 30
0.0
 70
   192
  0
VERTEX
  5
248
330
246
100
AcDbEntity
  8
0
100
AcDbVertex
100
AcDbPolyFaceMeshVertex
 10
13.49365151381976
 20
-30.53227149732873
 30
0.0
 70
   192
  0
VERTEX
  5
249
330
246
100
AcDbEntity
  8
0
100
AcDbVertex
100
AcDbPolyFaceMeshVertex
 10
11.95991282044191
 20
-30.01907336631835
 30
0.0
 70
   192
  0
VERTEX
  5
24A
330
246
100
AcDbEntity
  8
0
 62
   250
100
AcDbFaceRecord
 10
0.0
 20
0.0
 30
0.0
 70
   128
 71
     1
 72
     2
 73
     3
  0
SEQEND
  5
24B
330
246
100
AcDbEntity
  8
0
 62
   250
  0
POLYLINE
  5
24C
330
1F
100
AcDbEntity
  8
0
 62
   250
100
AcDbPolyFaceMesh
 66
     1
 10
0.0
 20
0.0
 30
0.0
 70
    64
 71
     3
 72
     1
  0
VERTEX
  5
24D
330
24C
100
AcDbEntity
  8
0
100
AcDbVertex
100
AcDbPolyFaceMeshVertex
 10
37.37039506721167
 20
5.337283304220205
 30
0.0
 70
   192
  0
VERTEX
  5
24E
330
24C
100
AcDbEntity
  8
0
100
AcDbVertex
100
AcDbPolyFaceMeshVertex
 10
36.85719609541723
 20
3.803547123596888
 30
0.0
 70
   192
  0
VERTEX
  5
24F
330
24C
100
AcDbEntity
  8
0
100
AcDbVertex
100
AcDbPolyFaceMeshVertex
 10
36.34751205682608
 20
5.338454946701773
 30
0.0
 70
   192
  0
VERTEX
  5
250
330
24C
100
AcDbEntity
  8
0
 62
   250
100
AcDbFaceRecord
 10
0.0
 20
0.0
 30
0.0
 70
   128
 71
     1
 72
     2
 73
     3
  0
SEQEND
  5
251
330
24C
100
AcDbEntity
  8
0
 62
   250
  0
POLYLINE
  5
252
330
1F
100
AcDbEntity
  8
0
 62
   250
100
AcDbPolyFaceMesh
 66
     1
 10
0.0
 20
0.0
 30
0.0
 70
    64
 71
     3
 72
     1
  0
VERTEX
  5
253
330
252
100
AcDbEntity
  8
0
100
AcDbVertex
100
AcDbPolyFaceMeshVertex
 10
37.37833446085313
 20
12.26861635722201
 30
0.0
 70
   192
  0
VERTEX
  5
254
330
252
100
AcDbEntity
  8
0
100
AcDbVertex
100
AcDbPolyFaceMeshVertex
 10
36.35545145046753
 20
12.26978799970358
 30
0.0
 70
   192
  0
VERTEX
  5
255
330
252
100
AcDbEntity
  8
0
100
AcDbVertex
100
AcDbPolyFaceMeshVertex
 10
36.86865042226198
 20
13.8035241803269
 30
0.0
 70
   192
  0
VERTEX
  5
256
330
252
100
AcDbEntity
  8
0
 62
   250
100
AcDbFaceRecord
 10
0.0
 20
0.0
 30
0.0
 70
   128
 71
     1
 72
     2
 73
     3
  0
SEQEND
  5
257
330
252
100
AcDbEntity
  8
0
 62
   250
  0
POLYLINE
  5
258
330
1F
100
AcDbEntity
  8
0
 62
   250
100
AcDbPolyFaceMesh
 66
     1
 10
0.0
 20
0.0
 30
0.0
 70
    64
 71
     3
 72
     1
  0
VERTEX
  5
259
330
258
100
AcDbEntity
  8
0
100
AcDbVertex
100
AcDbPolyFaceMeshVertex
 10
-49.00513584126463
 20
-29.43780073725963
 30
0.0
 70
   192
  0
VERTEX
  5
25A
330
258
100
AcDbEntity
  8
0
100
AcDbVertex
100
AcDbPolyFaceMeshVertex
 10
-49.00630748566572
 20
-30.46068207183569
 30
0.0
 70
   192
  0
VERTEX
  5
25B
330
258
100
AcDbEntity
  8
0
100
AcDbVertex
100
AcDbPolyFaceMeshVertex
 10
-50.54004617904357
 20
-29.94748394082531
 30
0.0
 70
   192
  0
VERTEX
  5
25C
330
258
100
AcDbEntity
  8
0
 62
   250
100
AcDbFaceRecord
 10
0.0
 20
0.0
 30
0.0
 70
   128
 71
     1
 72
     2
 73
     3
  0
SEQEND
  5
25D
330
258
100
AcDbEntity
  8
0
 62
   250
  0
POLYLINE
  5
25E
330
1F
100
AcDbEntity
  8
0
 62
   250
100
AcDbPolyFaceMesh
 66
     1
 10
0.0
 20
0.0
 30
0.0
 70
    64
 71
     3
 72
     1
  0
VERTEX
  5
25F
330
25E
100
AcDbEntity
  8
0
100
AcDbVertex
100
AcDbPolyFaceMeshVertex
 10
-45.54004945908473
 20
-29.95321109486475
 30
0.0
 70
   192
  0
VERTEX
  5
260
330
25E
100
AcDbEntity
  8
0
100
AcDbVertex
100
AcDbPolyFaceMeshVertex
 10
-47.07495979686367
 20
-30.46289429843043
 30
0.0
 70
   192
  0
VERTEX
  5
261
330
25E
100
AcDbEntity
  8
0
100
AcDbVertex
100
AcDbPolyFaceMeshVertex
 10
-47.07378815246258
 20
-29.44001296385436
 30
0.0
 70
   192
  0
VERTEX
  5
262
330
25E
100
AcDbEntity
  8
0
 62
   250
100
AcDbFaceRecord
 10
0.0
 20
0.0
 30
0.0
 70
   128
 71
     1
 72
     2
 73
     3
  0
SEQEND
  5
263
330
25E
100
AcDbEntity
  8
0
 62
   250
  0
POLYLINE
  5
264
330
1F
100
AcDbEntity
  8
0
 62
   250
100
AcDbPolyFaceMesh
 66
     1
 10
0.0
 20
0.0
 30
0.0
 70
    64
 71
     3
 72
     1
  0
VERTEX
  5
265
330
264
100
AcDbEntity
  8
0
100
AcDbVertex
100
AcDbPolyFaceMeshVertex
 10
-0.0051679856680243
 20
-29.49392684684618
 30
0.0
 70
   192
  0
VERTEX
  5
266
330
264
100
AcDbEntity
  8
0
100
AcDbVertex
100
AcDbPolyFaceMeshVertex
 10
-0.0063396300691212
 20
-30.51680818142224
 30
0.0
 70
   192
  0
VERTEX
  5
267
330
264
100
AcDbEntity
  8
0
100
AcDbVertex
100
AcDbPolyFaceMeshVertex
 10
-1.540078323446969
 20
-30.00361005041185
 30
0.0
 70
   192
  0
VERTEX
  5
268
330
264
100
AcDbEntity
  8
0
 62
   250
100
AcDbFaceRecord
 10
0.0
 20
0.0
 30
0.0
 70
   128
 71
     1
 72
     2
 73
     3
  0
SEQEND
  5
269
330
264
100
AcDbEntity
  8
0
 62
   250
  0
POLYLINE
  5
26A
330
1F
100
AcDbEntity
  8
0
 62
   250
100
AcDbPolyFaceMesh
 66
     1
 10
0.0
 20
0.0
 30
0.0
 70
    64
 71
     3
 72
     1
  0
VERTEX
  5
26B
330
26A
100
AcDbEntity
  8
0
100
AcDbVertex
100
AcDbPolyFaceMeshVertex
 10
3.459918396511878
 20
-30.0093372044513
 30
0.0
 70
   192
  0
VERTEX
  5
26C
330
26A
100
AcDbEntity
  8
0
100
AcDbVertex
100
AcDbPolyFaceMeshVertex
 10
1.925008058732933
 20
-30.51902040801698
 30
0.0
 70
   192
  0
VERTEX
  5
26D
330
26A
100
AcDbEntity
  8
0
100
AcDbVertex
100
AcDbPolyFaceMeshVertex
 10
1.92617970313403
 20
-29.49613907344091
 30
0.0
 70
   192
  0
VERTEX
  5
26E
330
26A
100
AcDbEntity
  8
0
 62
   250
100
AcDbFaceRecord
 10
0.0
 20
0.0
 30
0.0
 70
   128
 71
     1
 72
     2
 73
     3
  0
SEQEND
  5
26F
330
26A
100
AcDbEntity
  8
0
 62
   250
  0
POLYLINE
  5
270
330
1F
100
AcDbEntity
  8
0
 62
   250
100
AcDbPolyFaceMesh
 66
     1
 10
0.0
 20
0.0
 30
0.0
 70
    64
 71
     3
 72
     1
  0
VERTEX
  5
271
330
270
100
AcDbEntity
  8
0
100
AcDbVertex
100
AcDbPolyFaceMeshVertex
 10
-56.8404161569509
 20
-16.55478304850679
 30
0.0
 70
   192
  0
VERTEX
  5
272
330
270
100
AcDbEntity
  8
0
100
AcDbVertex
100
AcDbPolyFaceMeshVertex
 10
-57.35361512874534
 20
-18.08851922913011
 30
0.0
 70
   192
  0
VERTEX
  5
273
330
270
100
AcDbEntity
  8
0
100
AcDbVertex
100
AcDbPolyFaceMeshVertex
 10
-57.86329916733649
 20
-16.55361140602522
 30
0.0
 70
   192
  0
VERTEX
  5
274
330
270
100
AcDbEntity
  8
0
 62
   250
100
AcDbFaceRecord
 10
0.0
 20
0.0
 30
0.0
 70
   128
 71
     1
 72
     2
 73
     3
  0
SEQEND
  5
275
330
270
100
AcDbEntity
  8
0
 62
   250
  0
POLYLINE
  5
276
330
1F
100
AcDbEntity
  8
0
 62
   250
100
AcDbPolyFaceMesh
 66
     1
 10
0.0
 20
0.0
 30
0.0
 70
    64
 71
     3
 72
     1
  0
VERTEX
  5
277
330
276
100
AcDbEntity
  8
0
100
AcDbVertex
100
AcDbPolyFaceMeshVertex
 10
-56.83820392673181
 20
-14.62343852386999
 30
0.0
 70
   192
  0
VERTEX
  5
278
330
276
100
AcDbEntity
  8
0
100
AcDbVertex
100
AcDbPolyFaceMeshVertex
 10
-57.86108693711741
 20
-14.62226688138842
 30
0.0
 70
   192
  0
VERTEX
  5
279
330
276
100
AcDbEntity
  8
0
100
AcDbVertex
100
AcDbPolyFaceMeshVertex
 10
-57.34788796532297
 20
-13.0885307007651
 30
0.0
 70
   192
  0
VERTEX
  5
27A
330
276
100
AcDbEntity
  8
0
 62
   250
100
AcDbFaceRecord
 10
0.0
 20
0.0
 30
0.0
 70
   128
 71
     1
 72
     2
 73
     3
  0
SEQEND
  5
27B
330
276
100
AcDbEntity
  8
0
 62
   250
  0
POLYLINE
  5
27C
330
1F
100
AcDbEntity
  8
0
 62
   250
100
AcDbPolyFaceMesh
 66
     1
 10
0.0
 20
0.0
 30
0.0
 70
    64
 71
     3
 72
     1
  0
VERTEX
  5
27D
330
27C
100
AcDbEntity
  8
0
100
AcDbVertex
100
AcDbPolyFaceMeshVertex
 10
-56.78428995541167
 20
32.44510452947028
 30
0.0
 70
   192
  0
VERTEX
  5
27E
330
27C
100
AcDbEntity
  8
0
100
AcDbVertex
100
AcDbPolyFaceMeshVertex
 10
-57.29748892720611
 20
30.91136834884696
 30
0.0
 70
   192
  0
VERTEX
  5
27F
330
27C
100
AcDbEntity
  8
0
100
AcDbVertex
100
AcDbPolyFaceMeshVertex
 10
-57.80717296579726
 20
32.44627617195185
 30
0.0
 70
   192
  0
VERTEX
  5
280
330
27C
100
AcDbEntity
  8
0
 62
   250
100
AcDbFaceRecord
 10
0.0
 20
0.0
 30
0.0
 70
   128
 71
     1
 72
     2
 73
     3
  0
SEQEND
  5
281
330
27C
100
AcDbEntity
  8
0
 62
   250
  0
POLYLINE
  5
282
330
1F
100
AcDbEntity
  8
0
 62
   250
100
AcDbPolyFaceMesh
 66
     1
 10
0.0
 20
0.0
 30
0.0
 70
    64
 71
     3
 72
     1
  0
VERTEX
  5
283
330
282
100
AcDbEntity
  8
0
100
AcDbVertex
100
AcDbPolyFaceMeshVertex
 10
-56.78207772519258
 20
34.37644905410698
 30
0.0
 70
   192
  0
VERTEX
  5
284
330
282
100
AcDbEntity
  8
0
100
AcDbVertex
100
AcDbPolyFaceMeshVertex
 10
-57.80496073557818
 20
34.37762069658855
 30
0.0
 70
   192
  0
VERTEX
  5
285
330
282
100
AcDbEntity
  8
0
100
AcDbVertex
100
AcDbPolyFaceMeshVertex
 10
-57.29176176378373
 20
35.91135687721187
 30
0.0
 70
   192
  0
VERTEX
  5
286
330
282
100
AcDbEntity
  8
0
 62
   250
100
AcDbFaceRecord
 10
0.0
 20
0.0
 30
0.0
 70
   128
 71
     1
 72
     2
 73
     3
  0
SEQEND
  5
287
330
282
100
AcDbEntity
  8
0
 62
   250
  0
POLYLINE
  5
288
330
1F
100
AcDbEntity
  8
0
 62
   250
100
AcDbPolyFaceMesh
 66
     1
 10
0.0
 20
0.0
 30
0.0
 70
    64
 71
     3
 72
     1
  0
VERTEX
  5
289
330
288
100
AcDbEntity
  8
0
100
AcDbVertex
100
AcDbPolyFaceMeshVertex
 10
-2.831448377628504
 20
31.59391963856708
 30
0.0
 70
   192
  0
VERTEX
  5
28A
330
288
100
AcDbEntity
  8
0
100
AcDbVertex
100
AcDbPolyFaceMeshVertex
 10
-3.000395073638801
 20
30.58508630010011
 30
0.0
 70
   192
  0
VERTEX
  5
28B
330
288
100
AcDbEntity
  8
0
100
AcDbVertex
100
AcDbPolyFaceMeshVertex
 10
-4.429174212525694
 20
31.34292259816595
 30
0.0
 70
   192
  0
VERTEX
  5
28C
330
288
100
AcDbEntity
  8
0
 62
   250
100
AcDbFaceRecord
 10
0.0
 20
0.0
 30
0.0
 70
   128
 71
     1
 72
     2
 73
     3
  0
SEQEND
  5
28D
330
288
100
AcDbEntity
  8
0
 62
   250
  0
POLYLINE
  5
28E
330
1F
100
AcDbEntity
  8
0
 62
   250
100
AcDbPolyFaceMesh
 66
     1
 10
0.0
 20
0.0
 30
0.0
 70
    64
 71
     3
 72
     1
  0
VERTEX
  5
28F
330
28E
100
AcDbEntity
  8
0
100
AcDbVertex
100
AcDbPolyFaceMeshVertex
 10
1.48841940794318
 20
30.3519218287174
 30
0.0
 70
   192
  0
VERTEX
  5
290
330
28E
100
AcDbEntity
  8
0
100
AcDbVertex
100
AcDbPolyFaceMeshVertex
 10
-0.1093064269540098
 20
30.10092478831627
 30
0.0
 70
   192
  0
VERTEX
  5
291
330
28E
100
AcDbEntity
  8
0
100
AcDbVertex
100
AcDbPolyFaceMeshVertex
 10
0.0596402690562864
 20
31.10975812678325
 30
0.0
 70
   192
  0
VERTEX
  5
292
330
28E
100
AcDbEntity
  8
0
 62
   250
100
AcDbFaceRecord
 10
0.0
 20
0.0
 30
0.0
 70
   128
 71
     1
 72
     2
 73
     3
  0
SEQEND
  5
293
330
28E
100
AcDbEntity
  8
0
 62
   250
  0
POLYLINE
  5
294
330
1F
100
AcDbEntity
  8
0
 62
   250
100
AcDbPolyFaceMesh
 66
     1
 10
0.0
 20
0.0
 30
0.0
 70
    64
 71
     3
 72
     1
  0
VERTEX
  5
295
330
294
100
AcDbEntity
  8
0
100
AcDbVertex
100
AcDbPolyFaceMeshVertex
 10
-56.83468899352852
 20
-11.55479452014179
 30
0.0
 70
   192
  0
VERTEX
  5
296
330
294
100
AcDbEntity
  8
0
100
AcDbVertex
100
AcDbPolyFaceMeshVertex
 10
-57.34788796532297
 20
-13.0885307007651
 30
0.0
 70
   192
  0
VERTEX
  5
297
330
294
100
AcDbEntity
  8
0
100
AcDbVertex
100
AcDbPolyFaceMeshVertex
 10
-57.85757200391412
 20
-11.55362287766022
 30
0.0
 70
   192
  0
VERTEX
  5
298
330
294
100
AcDbEntity
  8
0
 62
   250
100
AcDbFaceRecord
 10
0.0
 20
0.0
 30
0.0
 70
   128
 71
     1
 72
     2
 73
     3
  0
SEQEND
  5
299
330
294
100
AcDbEntity
  8
0
 62
   250
  0
POLYLINE
  5
29A
330
1F
100
AcDbEntity
  8
0
 62
   250
100
AcDbPolyFaceMesh
 66
     1
 10
0.0
 20
0.0
 30
0.0
 70
    64
 71
     3
 72
     1
  0
VERTEX
  5
29B
330
29A
100
AcDbEntity
  8
0
100
AcDbVertex
100
AcDbPolyFaceMeshVertex
 10
-56.81300440767338
 20
7.376511000935996
 30
0.0
 70
   192
  0
VERTEX
  5
29C
330
29A
100
AcDbEntity
  8
0
100
AcDbVertex
100
AcDbPolyFaceMeshVertex
 10
-57.83588741805897
 20
7.377682643417566
 30
0.0
 70
   192
  0
VERTEX
  5
29D
330
29A
100
AcDbEntity
  8
0
100
AcDbVertex
100
AcDbPolyFaceMeshVertex
 10
-57.32268844626454
 20
8.911418824040881
 30
0.0
 70
   192
  0
VERTEX
  5
29E
330
29A
100
AcDbEntity
  8
0
 62
   250
100
AcDbFaceRecord
 10
0.0
 20
0.0
 30
0.0
 70
   128
 71
     1
 72
     2
 73
     3
  0
SEQEND
  5
29F
330
29A
100
AcDbEntity
  8
0
 62
   250
  0
POLYLINE
  5
2A0
330
1F
100
AcDbEntity
  8
0
 62
   250
100
AcDbPolyFaceMesh
 66
     1
 10
0.0
 20
0.0
 30
0.0
 70
    64
 71
     3
 72
     1
  0
VERTEX
  5
2A1
330
2A0
100
AcDbEntity
  8
0
100
AcDbVertex
100
AcDbPolyFaceMeshVertex
 10
-56.78780488861495
 20
29.37646052574198
 30
0.0
 70
   192
  0
VERTEX
  5
2A2
330
2A0
100
AcDbEntity
  8
0
100
AcDbVertex
100
AcDbPolyFaceMeshVertex
 10
-57.81068789900055
 20
29.37763216822355
 30
0.0
 70
   192
  0
VERTEX
  5
2A3
330
2A0
100
AcDbEntity
  8
0
100
AcDbVertex
100
AcDbPolyFaceMeshVertex
 10
-57.29748892720611
 20
30.91136834884686
 30
0.0
 70
   192
  0
VERTEX
  5
2A4
330
2A0
100
AcDbEntity
  8
0
 62
   250
100
AcDbFaceRecord
 10
0.0
 20
0.0
 30
0.0
 70
   128
 71
     1
 72
     2
 73
     3
  0
SEQEND
  5
2A5
330
2A0
100
AcDbEntity
  8
0
 62
   250
  0
POLYLINE
  5
2A6
330
1F
100
AcDbEntity
  8
0
 62
   250
100
AcDbPolyFaceMesh
 66
     1
 10
0.0
 20
0.0
 30
0.0
 70
    64
 71
     3
 72
     1
  0
VERTEX
  5
2A7
330
2A6
100
AcDbEntity
  8
0
100
AcDbVertex
100
AcDbPolyFaceMeshVertex
 10
-56.8094894744701
 20
10.44515500466419
 30
0.0
 70
   192
  0
VERTEX
  5
2A8
330
2A6
100
AcDbEntity
  8
0
100
AcDbVertex
100
AcDbPolyFaceMeshVertex
 10
-57.32268844626454
 20
8.911418824040869
 30
0.0
 70
   192
  0
VERTEX
  5
2A9
330
2A6
100
AcDbEntity
  8
0
100
AcDbVertex
100
AcDbPolyFaceMeshVertex
 10
-57.83237248485569
 20
10.44632664714575
 30
0.0
 70
   192
  0
VERTEX
  5
2AA
330
2A6
100
AcDbEntity
  8
0
 62
   250
100
AcDbFaceRecord
 10
0.0
 20
0.0
 30
0.0
 70
   128
 71
     1
 72
     2
 73
     3
  0
SEQEND
  5
2AB
330
2A6
100
AcDbEntity
  8
0
 62
   250
  0
POLYLINE
  5
2AC
330
1F
100
AcDbEntity
  8
0
 62
   250
100
AcDbPolyFaceMesh
 66
     1
 10
0.0
 20
0.0
 30
0.0
 70
    64
 71
     3
 72
     1
  0
VERTEX
  5
2AD
330
2AC
100
AcDbEntity
  8
0
100
AcDbVertex
100
AcDbPolyFaceMeshVertex
 10
56.81400454471426
 20
-9.684973285018405
 30
0.0
 70
   192
  0
VERTEX
  5
2AE
330
2AC
100
AcDbEntity
  8
0
100
AcDbVertex
100
AcDbPolyFaceMeshVertex
 10
56.30080557291981
 20
-11.21870946564172
 30
0.0
 70
   192
  0
VERTEX
  5
2AF
330
2AC
100
AcDbEntity
  8
0
100
AcDbVertex
100
AcDbPolyFaceMeshVertex
 10
55.79112153432866
 20
-9.683801642536833
 30
0.0
 70
   192
  0
VERTEX
  5
2B0
330
2AC
100
AcDbEntity
  8
0
 62
   250
100
AcDbFaceRecord
 10
0.0
 20
0.0
 30
0.0
 70
   128
 71
     1
 72
     2
 73
     3
  0
SEQEND
  5
2B1
330
2AC
100
AcDbEntity
  8
0
 62
   250
  0
POLYLINE
  5
2B2
330
1F
100
AcDbEntity
  8
0
 62
   250
100
AcDbPolyFaceMesh
 66
     1
 10
0.0
 20
0.0
 30
0.0
 70
    64
 71
     3
 72
     1
  0
VERTEX
  5
2B3
330
2B2
100
AcDbEntity
  8
0
100
AcDbVertex
100
AcDbPolyFaceMeshVertex
 10
56.83339826520046
 20
7.246336824713379
 30
0.0
 70
   192
  0
VERTEX
  5
2B4
330
2B2
100
AcDbEntity
  8
0
100
AcDbVertex
100
AcDbPolyFaceMeshVertex
 10
55.81051525481487
 20
7.247508467194948
 30
0.0
 70
   192
  0
VERTEX
  5
2B5
330
2B2
100
AcDbEntity
  8
0
100
AcDbVertex
100
AcDbPolyFaceMeshVertex
 10
56.3237142266093
 20
8.781244647818264
 30
0.0
 70
   192
  0
VERTEX
  5
2B6
330
2B2
100
AcDbEntity
  8
0
 62
   250
100
AcDbFaceRecord
 10
0.0
 20
0.0
 30
0.0
 70
   128
 71
     1
 72
     2
 73
     3
  0
SEQEND
  5
2B7
330
2B2
100
AcDbEntity
  8
0
 62
   250
  0
POLYLINE
  5
2B8
330
1F
100
AcDbEntity
  8
0
 62
   250
100
AcDbPolyFaceMesh
 66
     1
 10
0.0
 20
0.0
 30
0.0
 70
    64
 71
     3
 72
     1
  0
VERTEX
  5
2B9
330
2B8
100
AcDbEntity
  8
0
100
AcDbVertex
100
AcDbPolyFaceMeshVertex
 10
56.83691319840374
 20
10.31498082844158
 30
0.0
 70
   192
  0
VERTEX
  5
2BA
330
2B8
100
AcDbEntity
  8
0
100
AcDbVertex
100
AcDbPolyFaceMeshVertex
 10
56.3237142266093
 20
8.781244647818264
 30
0.0
 70
   192
  0
VERTEX
  5
2BB
330
2B8
100
AcDbEntity
  8
0
100
AcDbVertex
100
AcDbPolyFaceMeshVertex
 10
55.81403018801815
 20
10.31615247092315
 30
0.0
 70
   192
  0
VERTEX
  5
2BC
330
2B8
100
AcDbEntity
  8
0
 62
   250
100
AcDbFaceRecord
 10
0.0
 20
0.0
 30
0.0
 70
   128
 71
     1
 72
     2
 73
     3
  0
SEQEND
  5
2BD
330
2B8
100
AcDbEntity
  8
0
 62
   250
  0
POLYLINE
  5
2BE
330
1F
100
AcDbEntity
  8
0
 62
   250
100
AcDbPolyFaceMesh
 66
     1
 10
0.0
 20
0.0
 30
0.0
 70
    64
 71
     3
 72
     1
  0
VERTEX
  5
2BF
330
2BE
100
AcDbEntity
  8
0
100
AcDbVertex
100
AcDbPolyFaceMeshVertex
 10
56.85630691888993
 20
27.24629093817338
 30
0.0
 70
   192
  0
VERTEX
  5
2C0
330
2BE
100
AcDbEntity
  8
0
100
AcDbVertex
100
AcDbPolyFaceMeshVertex
 10
55.83342390850433
 20
27.24746258065495
 30
0.0
 70
   192
  0
VERTEX
  5
2C1
330
2BE
100
AcDbEntity
  8
0
100
AcDbVertex
100
AcDbPolyFaceMeshVertex
 10
56.34662288029877
 20
28.78119876127827
 30
0.0
 70
   192
  0
VERTEX
  5
2C2
330
2BE
100
AcDbEntity
  8
0
 62
   250
100
AcDbFaceRecord
 10
0.0
 20
0.0
 30
0.0
 70
   128
 71
     1
 72
     2
 73
     3
  0
SEQEND
  5
2C3
330
2BE
100
AcDbEntity
  8
0
 62
   250
  0
POLYLINE
  5
2C4
330
1F
100
AcDbEntity
  8
0
 62
   250
100
AcDbPolyFaceMesh
 66
     1
 10
0.0
 20
0.0
 30
0.0
 70
    64
 71
     3
 72
     1
  0
VERTEX
  5
2C5
330
2C4
100
AcDbEntity
  8
0
100
AcDbVertex
100
AcDbPolyFaceMeshVertex
 10
-22.15479667367432
 20
-29.46855596312012
 30
0.0
 70
   192
  0
VERTEX
  5
2C6
330
2C4
100
AcDbEntity
  8
0
100
AcDbVertex
100
AcDbPolyFaceMeshVertex
 10
-22.15596831807541
 20
-30.49143729769619
 30
0.0
 70
   192
  0
VERTEX
  5
2C7
330
2C4
100
AcDbEntity
  8
0
100
AcDbVertex
100
AcDbPolyFaceMeshVertex
 10
-23.68970701145326
 20
-29.9782391666858
 30
0.0
 70
   192
  0
VERTEX
  5
2C8
330
2C4
100
AcDbEntity
  8
0
 62
   250
100
AcDbFaceRecord
 10
0.0
 20
0.0
 30
0.0
 70
   128
 71
     1
 72
     2
 73
     3
  0
SEQEND
  5
2C9
330
2C4
100
AcDbEntity
  8
0
 62
   250
  0
POLYLINE
  5
2CA
330
1F
100
AcDbEntity
  8
0
 62
   250
100
AcDbPolyFaceMesh
 66
     1
 10
0.0
 20
0.0
 30
0.0
 70
    64
 71
     3
 72
     1
  0
VERTEX
  5
2CB
330
2CA
100
AcDbEntity
  8
0
100
AcDbVertex
100
AcDbPolyFaceMeshVertex
 10
-1.689721443634374
 20
-30.00343864445935
 30
0.0
 70
   192
  0
VERTEX
  5
2CC
330
2CA
100
AcDbEntity
  8
0
100
AcDbVertex
100
AcDbPolyFaceMeshVertex
 10
-3.22463178141332
 20
-30.51312184802503
 30
0.0
 70
   192
  0
VERTEX
  5
2CD
330
2CA
100
AcDbEntity
  8
0
100
AcDbVertex
100
AcDbPolyFaceMeshVertex
 10
-3.223460137012223
 20
-29.49024051344897
 30
0.0
 70
   192
  0
VERTEX
  5
2CE
330
2CA
100
AcDbEntity
  8
0
 62
   250
100
AcDbFaceRecord
 10
0.0
 20
0.0
 30
0.0
 70
   128
 71
     1
 72
     2
 73
     3
  0
SEQEND
  5
2CF
330
2CA
100
AcDbEntity
  8
0
 62
   250
  0
POLYLINE
  5
2D0
330
1F
100
AcDbEntity
  8
0
 62
   250
100
AcDbPolyFaceMesh
 66
     1
 10
0.0
 20
0.0
 30
0.0
 70
    64
 71
     3
 72
     1
  0
VERTEX
  5
2D1
330
2D0
100
AcDbEntity
  8
0
100
AcDbVertex
100
AcDbPolyFaceMeshVertex
 10
-23.68970701145326
 20
-29.9782391666858
 30
0.0
 70
   192
  0
VERTEX
  5
2D2
330
2D0
100
AcDbEntity
  8
0
100
AcDbVertex
100
AcDbPolyFaceMeshVertex
 10
-25.2246173492322
 20
-30.48792237025148
 30
0.0
 70
   192
  0
VERTEX
  5
2D3
330
2D0
100
AcDbEntity
  8
0
100
AcDbVertex
100
AcDbPolyFaceMeshVertex
 10
-25.22344570483111
 20
-29.46504103567542
 30
0.0
 70
   192
  0
VERTEX
  5
2D4
330
2D0
100
AcDbEntity
  8
0
 62
   250
100
AcDbFaceRecord
 10
0.0
 20
0.0
 30
0.0
 70
   128
 71
     1
 72
     2
 73
     3
  0
SEQEND
  5
2D5
330
2D0
100
AcDbEntity
  8
0
 62
   250
  0
POLYLINE
  5
2D6
330
1F
100
AcDbEntity
  8
0
 62
   250
100
AcDbPolyFaceMesh
 66
     1
 10
0.0
 20
0.0
 30
0.0
 70
    64
 71
     3
 72
     1
  0
VERTEX
  5
2D7
330
2D6
100
AcDbEntity
  8
0
100
AcDbVertex
100
AcDbPolyFaceMeshVertex
 10
-44.15478224149319
 20
-29.44335648534657
 30
0.0
 70
   192
  0
VERTEX
  5
2D8
330
2D6
100
AcDbEntity
  8
0
100
AcDbVertex
100
AcDbPolyFaceMeshVertex
 10
-44.15595388589429
 20
-30.46623781992264
 30
0.0
 70
   192
  0
VERTEX
  5
2D9
330
2D6
100
AcDbEntity
  8
0
100
AcDbVertex
100
AcDbPolyFaceMeshVertex
 10
-45.68969257927214
 20
-29.95303968891225
 30
0.0
 70
   192
  0
VERTEX
  5
2DA
330
2D6
100
AcDbEntity
  8
0
 62
   250
100
AcDbFaceRecord
 10
0.0
 20
0.0
 30
0.0
 70
   128
 71
     1
 72
     2
 73
     3
  0
SEQEND
  5
2DB
330
2D6
100
AcDbEntity
  8
0
 62
   250
  0
POLYLINE
  5
2DC
330
1F
100
AcDbEntity
  8
0
 62
   250
100
AcDbPolyFaceMesh
 66
     1
 10
0.0
 20
0.0
 30
0.0
 70
    64
 71
     3
 72
     1
  0
VERTEX
  5
2DD
330
2DC
100
AcDbEntity
  8
0
100
AcDbVertex
100
AcDbPolyFaceMeshVertex
 10
50.97911012421767
 20
-13.28157694982352
 30
0.0
 70
   192
  0
VERTEX
  5
2DE
330
2DC
100
AcDbEntity
  8
0
100
AcDbVertex
100
AcDbPolyFaceMeshVertex
 10
49.44419978643872
 20
-13.7912601533892
 30
0.0
 70
   192
  0
VERTEX
  5
2DF
330
2DC
100
AcDbEntity
  8
0
100
AcDbVertex
100
AcDbPolyFaceMeshVertex
 10
49.44537143083982
 20
-12.76837881881314
 30
0.0
 70
   192
  0
VERTEX
  5
2E0
330
2DC
100
AcDbEntity
  8
0
 62
   250
100
AcDbFaceRecord
 10
0.0
 20
0.0
 30
0.0
 70
   128
 71
     1
 72
     2
 73
     3
  0
SEQEND
  5
2E1
330
2DC
100
AcDbEntity
  8
0
 62
   250
  0
POLYLINE
  5
2E2
330
1F
100
AcDbEntity
  8
0
 62
   250
100
AcDbPolyFaceMesh
 66
     1
 10
0.0
 20
0.0
 30
0.0
 70
    64
 71
     3
 72
     1
  0
VERTEX
  5
2E3
330
2E2
100
AcDbEntity
  8
0
100
AcDbVertex
100
AcDbPolyFaceMeshVertex
 10
42.51402702207895
 20
-12.76043943817895
 30
0.0
 70
   192
  0
VERTEX
  5
2E4
330
2E2
100
AcDbEntity
  8
0
100
AcDbVertex
100
AcDbPolyFaceMeshVertex
 10
42.51285537767786
 20
-13.78332077275502
 30
0.0
 70
   192
  0
VERTEX
  5
2E5
330
2E2
100
AcDbEntity
  8
0
100
AcDbVertex
100
AcDbPolyFaceMeshVertex
 10
40.9791166843
 20
-13.27012264174463
 30
0.0
 70
   192
  0
VERTEX
  5
2E6
330
2E2
100
AcDbEntity
  8
0
 62
   250
100
AcDbFaceRecord
 10
0.0
 20
0.0
 30
0.0
 70
   128
 71
     1
 72
     2
 73
     3
  0
SEQEND
  5
2E7
330
2E2
100
AcDbEntity
  8
0
 62
   250
  0
POLYLINE
  5
2E8
330
1F
100
AcDbEntity
  8
0
 62
   250
100
AcDbPolyFaceMesh
 66
     1
 10
0.0
 20
0.0
 30
0.0
 70
    64
 71
     3
 72
     1
  0
VERTEX
  5
2E9
330
2E8
100
AcDbEntity
  8
0
100
AcDbVertex
100
AcDbPolyFaceMeshVertex
 10
43.00558804790663
 20
9.834577337625417
 30
0.0
 70
   192
  0
VERTEX
  5
2EA
330
2E8
100
AcDbEntity
  8
0
100
AcDbVertex
100
AcDbPolyFaceMeshVertex
 10
43.00500222570608
 20
9.320359313546765
 30
0.0
 70
   192
  0
VERTEX
  5
2EB
330
2E8
100
AcDbEntity
  8
0
100
AcDbVertex
100
AcDbPolyFaceMeshVertex
 10
43.00441640350553
 20
8.81169600304935
 30
0.0
 70
   192
  0
VERTEX
  5
2EC
330
2E8
100
AcDbEntity
  8
0
 62
   250
100
AcDbFaceRecord
 10
0.0
 20
0.0
 30
0.0
 70
   128
 71
     1
 72
     2
 73
     3
  0
SEQEND
  5
2ED
330
2E8
100
AcDbEntity
  8
0
 62
   250
  0
POLYLINE
  5
2EE
330
1F
100
AcDbEntity
  8
0
 62
   250
100
AcDbPolyFaceMesh
 66
     1
 10
0.0
 20
0.0
 30
0.0
 70
    64
 71
     3
 72
     1
  0
VERTEX
  5
2EF
330
2EE
100
AcDbEntity
  8
0
100
AcDbVertex
100
AcDbPolyFaceMeshVertex
 10
43.00558804790663
 20
9.836263217387899
 30
0.0
 70
   192
  0
VERTEX
  5
2F0
330
2EE
100
AcDbEntity
  8
0
100
AcDbVertex
100
AcDbPolyFaceMeshVertex
 10
43.00441640350553
 20
8.813381882811832
 30
0.0
 70
   192
  0
VERTEX
  5
2F1
330
2EE
100
AcDbEntity
  8
0
100
AcDbVertex
100
AcDbPolyFaceMeshVertex
 10
43.00500222570608
 20
9.327599906890484
 30
0.0
 70
   192
  0
VERTEX
  5
2F2
330
2EE
100
AcDbEntity
  8
0
 62
   250
100
AcDbFaceRecord
 10
0.0
 20
0.0
 30
0.0
 70
   128
 71
     1
 72
     2
 73
     3
  0
SEQEND
  5
2F3
330
2EE
100
AcDbEntity
  8
0
 62
   250
  0
POLYLINE
  5
2F4
330
1F
100
AcDbEntity
  8
0
 62
   250
100
AcDbPolyFaceMesh
 66
     1
 10
0.0
 20
0.0
 30
0.0
 70
    64
 71
     3
 72
     1
  0
VERTEX
  5
2F5
330
2F4
100
AcDbEntity
  8
0
100
AcDbVertex
100
AcDbPolyFaceMeshVertex
 10
12.00798325103018
 20
11.9434169777
 30
0.0
 70
   192
  0
VERTEX
  5
2F6
330
2F4
100
AcDbEntity
  8
0
100
AcDbVertex
100
AcDbPolyFaceMeshVertex
 10
12.00739742882963
 20
11.42919895362134
 30
0.0
 70
   192
  0
VERTEX
  5
2F7
330
2F4
100
AcDbEntity
  8
0
100
AcDbVertex
100
AcDbPolyFaceMeshVertex
 10
12.00681160662908
 20
10.92053564312393
 30
0.0
 70
   192
  0
VERTEX
  5
2F8
330
2F4
100
AcDbEntity
  8
0
 62
   250
100
AcDbFaceRecord
 10
0.0
 20
0.0
 30
0.0
 70
   128
 71
     1
 72
     2
 73
     3
  0
SEQEND
  5
2F9
330
2F4
100
AcDbEntity
  8
0
 62
   250
  0
POLYLINE
  5
2FA
330
1F
100
AcDbEntity
  8
0
 62
   250
100
AcDbPolyFaceMesh
 66
     1
 10
0.0
 20
0.0
 30
0.0
 70
    64
 71
     3
 72
     1
  0
VERTEX
  5
2FB
330
2FA
100
AcDbEntity
  8
0
100
AcDbVertex
100
AcDbPolyFaceMeshVertex
 10
12.00798325103018
 20
11.94510285746248
 30
0.0
 70
   192
  0
VERTEX
  5
2FC
330
2FA
100
AcDbEntity
  8
0
100
AcDbVertex
100
AcDbPolyFaceMeshVertex
 10
12.00681160662908
 20
10.92222152288641
 30
0.0
 70
   192
  0
VERTEX
  5
2FD
330
2FA
100
AcDbEntity
  8
0
100
AcDbVertex
100
AcDbPolyFaceMeshVertex
 10
12.00739742882963
 20
11.43643954696507
 30
0.0
 70
   192
  0
VERTEX
  5
2FE
330
2FA
100
AcDbEntity
  8
0
 62
   250
100
AcDbFaceRecord
 10
0.0
 20
0.0
 30
0.0
 70
   128
 71
     1
 72
     2
 73
     3
  0
SEQEND
  5
2FF
330
2FA
100
AcDbEntity
  8
0
 62
   250
  0
POLYLINE
  5
300
330
1F
100
AcDbEntity
  8
0
 62
   250
100
AcDbPolyFaceMesh
 66
     1
 10
0.0
 20
0.0
 30
0.0
 70
    64
 71
     3
 72
     1
  0
VERTEX
  5
301
330
300
100
AcDbEntity
  8
0
100
AcDbVertex
100
AcDbPolyFaceMeshVertex
 10
19.97660537068139
 20
-15.45054907830681
 30
0.0
 70
   192
  0
VERTEX
  5
302
330
300
100
AcDbEntity
  8
0
100
AcDbVertex
100
AcDbPolyFaceMeshVertex
 10
18.44169503290244
 20
-15.96023228187249
 30
0.0
 70
   192
  0
VERTEX
  5
303
330
300
100
AcDbEntity
  8
0
100
AcDbVertex
100
AcDbPolyFaceMeshVertex
 10
18.44286667730354
 20
-14.93735094729642
 30
0.0
 70
   192
  0
VERTEX
  5
304
330
300
100
AcDbEntity
  8
0
 62
   250
100
AcDbFaceRecord
 10
0.0
 20
0.0
 30
0.0
 70
   128
 71
     1
 72
     2
 73
     3
  0
SEQEND
  5
305
330
300
100
AcDbEntity
  8
0
 62
   250
  0
POLYLINE
  5
306
330
1F
100
AcDbEntity
  8
0
 62
   250
100
AcDbPolyFaceMesh
 66
     1
 10
0.0
 20
0.0
 30
0.0
 70
    64
 71
     3
 72
     1
  0
VERTEX
  5
307
330
306
100
AcDbEntity
  8
0
100
AcDbVertex
100
AcDbPolyFaceMeshVertex
 10
11.51152226854265
 20
-14.92941156666225
 30
0.0
 70
   192
  0
VERTEX
  5
308
330
306
100
AcDbEntity
  8
0
100
AcDbVertex
100
AcDbPolyFaceMeshVertex
 10
11.51035062414156
 20
-15.95229290123832
 30
0.0
 70
   192
  0
VERTEX
  5
309
330
306
100
AcDbEntity
  8
0
100
AcDbVertex
100
AcDbPolyFaceMeshVertex
 10
9.976611930763706
 20
-15.43909477022793
 30
0.0
 70
   192
  0
VERTEX
  5
30A
330
306
100
AcDbEntity
  8
0
 62
   250
100
AcDbFaceRecord
 10
0.0
 20
0.0
 30
0.0
 70
   128
 71
     1
 72
     2
 73
     3
  0
SEQEND
  5
30B
330
306
100
AcDbEntity
  8
0
 62
   250
  0
MTEXT
  5
30D
330
1F
100
AcDbEntity
  8
0
 62
   250
100
AcDbMText
 10
0.7108880765600796
 20
0.9838380238857366
 30
0.0
 40
1.621711138626872
 41
0.0
 71
     7
 72
     1
  1
10,0
  7
TAHOMA
  0
MTEXT
  5
30E
330
1F
100
AcDbEntity
  8
0
 62
   250
100
AcDbMText
 10
39.55728432601697
 20
19.700387981137
 30
0.0
 40
1.621711138626873
 41
0.0
 71
     7
 72
     1
  1
22,0
  7
TAHOMA
  0
MTEXT
  5
30F
330
1F
100
AcDbEntity
  8
0
 62
   250
100
AcDbMText
 10
46.12825678970678
 20
14.75764135564015
 30
0.0
 40
1.621711138626873
 41
0.0
 71
     7
 72
     1
  1
DIA 6,8 traversant
  7
TAHOMA
  0
MTEXT
  5
310
330
1F
100
AcDbEntity
  8
0
 62
   250
100
AcDbMText
 10
-1.560972260082796
 20
-36.32025583451254
 30
0.0
 40
1.621711138626871
 41
0.0
 71
     7
 72
     1
  1
103,0
  7
TAHOMA
  0
MTEXT
  5
311
330
1F
100
AcDbEntity
  8
0
 62
   250
100
AcDbMText
 10
-50.45987845423519
 20
39.23423505529674
 30
0.0
 40
1.621711138626871
 41
0.0
 71
     7
 72
     1
  1
épaisseur de plaque entre 6,0 et 10,0
  7
TAHOMA
  0
MTEXT
  5
312
330
1F
100
AcDbEntity
  8
0
 62
   250
100
AcDbMText
 10
-21.00692876664856
 20
-16.82452550417452
 30
0.0
 40
1.621711138626873
 41
0.0
 71
     7
 72
     1
  1
DIA 41,0 prof. 3,0
  7
TAHOMA
  0
MTEXT
  5
313
330
1F
100
AcDbEntity
  8
0
 62
   250
100
AcDbMText
 10
-30.34973587143104
 20
10.16077720980553
 30
0.0
 40
1.621711138626871
 41
0.0
 71
     7
 72
     1
  1
DIA 26,0 traversant
  7
TAHOMA
  0
MTEXT
  5
314
330
1F
100
AcDbEntity
  8
0
 62
   250
100
AcDbMText
 10
54.50565227287968
 20
-30.87866216831441
 30
0.0
 40
1.621711138626871
 41
0.0
 71
     7
 72
     1
  1
3,5
  7
TAHOMA
  0
MTEXT
  5
315
330
1F
100
AcDbEntity
  8
0
 62
   250
100
AcDbMText
 10
44.55342545422916
 20
-30.8688735831
 30
0.0
 40
1.621711138626871
 41
0.0
 71
     7
 72
     1
  1
6,0
  7
TAHOMA
  0
MTEXT
  5
316
330
1F
100
AcDbEntity
  8
0
 62
   250
100
AcDbMText
 10
28.49937362826198
 20
-30.85111940557773
 30
0.0
 40
1.621711138626871
 41
0.0
 71
     7
 72
     1
  1
25,0
  7
TAHOMA
  0
MTEXT
  5
317
330
1F
100
AcDbEntity
  8
0
 62
   250
100
AcDbMText
 10
13.55344579048434
 20
-30.83336522805545
 30
0.0
 40
1.621711138626871
 41
0.0
 71
     7
 72
     1
  1
6,0
  7
TAHOMA
  0
MTEXT
  5
318
330
1F
100
AcDbEntity
  8
0
 62
   250
100
AcDbMText
 10
32.93379869455981
 20
0.9469288851313262
 30
0.0
 40
1.621711138626872
 41
0.0
 71
     7
 72
     1
  1
10,0
  7
TAHOMA
  0
MTEXT
  5
319
330
1F
100
AcDbEntity
  8
0
 62
   250
100
AcDbMText
 10
-55.39874232368049
 20
-30.75599622517561
 30
0.0
 40
1.621711138626871
 41
0.0
 71
     7
 72
     1
  1
5,0
  7
TAHOMA
  0
MTEXT
  5
31A
330
1F
100
AcDbEntity
  8
0
 62
   250
100
AcDbMText
 10
5.505684417283069
 20
-30.82253605872787
 30
0.0
 40
1.621711138626871
 41
0.0
 71
     7
 72
     1
  1
5,0
  7
TAHOMA
  0
MTEXT
  5
31B
330
1F
100
AcDbEntity
  8
0
 62
   250
100
AcDbMText
 10
-60.16888854141325
 20
-20.94513746759567
 30
0.0
 40
1.621711138626873
 41
0.0
 71
     7
 72
     1
  1
5,0
  7
TAHOMA
  0
MTEXT
  5
31C
330
1F
100
AcDbEntity
  8
0
 62
   250
100
AcDbMText
 10
-57.28941847498155
 20
37.14626397705057
 30
0.0
 40
1.621711138626871
 41
0.0
 71
     7
 72
     1
  1
5,0
  7
TAHOMA
  0
MTEXT
  5
31D
330
1F
100
AcDbEntity
  8
0
 62
   250
100
AcDbMText
 10
-29.33677028583836
 20
30.96323316147021
 30
0.0
 40
1.621711138626871
 41
0.0
 71
     7
 72
     1
  1
DIA 6,0 x 4 traversant
  7
TAHOMA
  0
MTEXT
  5
31E
330
1F
100
AcDbEntity
  8
0
 62
   250
100
AcDbMText
 10
-59.29581526182137
 20
-2.899411507675548
 30
0.0
 40
1.621711138626872
 41
0.0
 71
     7
 72
     1
  1
22,0
  7
TAHOMA
  0
MTEXT
  5
31F
330
1F
100
AcDbEntity
  8
0
 62
   250
100
AcDbMText
 10
-59.27061574276294
 20
19.10053801713042
 30
0.0
 40
1.621711138626873
 41
0.0
 71
     7
 72
     1
  1
22,0
  7
TAHOMA
  0
MTEXT
  5
320
330
1F
100
AcDbEntity
  8
0
 62
   250
100
AcDbMText
 10
54.35173284373694
 20
-2.029587978225164
 30
0.0
 40
1.621711138626872
 41
0.0
 71
     7
 72
     1
  1
20,0
  7
TAHOMA
  0
MTEXT
  5
321
330
1F
100
AcDbEntity
  8
0
 62
   250
100
AcDbMText
 10
54.37464149742642
 20
17.97036613523483
 30
0.0
 40
1.621711138626873
 41
0.0
 71
     7
 72
     1
  1
20,0
  7
TAHOMA
  0
MTEXT
  5
322
330
1F
100
AcDbEntity
  8
0
 62
   250
100
AcDbMText
 10
-14.65024128357144
 20
-30.80169447488602
 30
0.0
 40
1.621711138626871
 41
0.0
 71
     7
 72
     1
  1
22,0
  7
TAHOMA
  0
MTEXT
  5
323
330
1F
100
AcDbEntity
  8
0
 62
   250
100
AcDbMText
 10
-36.65022685139032
 20
-30.77649499711247
 30
0.0
 40
1.621711138626871
 41
0.0
 71
     7
 72
     1
  1
22,0
  7
TAHOMA
  0
MTEXT
  5
324
330
1F
100
AcDbEntity
  8
0
 62
   250
100
AcDbMText
 10
53.02487614498889
 20
-14.0947758041001
 30
0.0
 40
1.621711138626871
 41
0.0
 71
     7
 72
     1
  1
min 6,0  en fonction du fraisage
  7
TAHOMA
  0
MTEXT
  5
325
330
1F
100
AcDbEntity
  8
0
 62
   250
100
AcDbMText
 10
43.00500222570608
 20
8.520447479964538
 30
0.0
 40
1.621711138626871
 41
0.0
 71
     7
 72
     1
  1
prof. 4,0
  7
TAHOMA
  0
MTEXT
  5
326
330
1F
100
AcDbEntity
  8
0
 62
   250
100
AcDbMText
 10
12.00739742882963
 20
10.62928712003912
 30
0.0
 40
1.621711138626871
 41
0.0
 71
     7
 72
     1
  1
prof. 4,0
  7
TAHOMA
  0
MTEXT
  5
327
330
1F
100
AcDbEntity
  8
0
 62
   250
100
AcDbMText
 10
22.02237139145259
 20
-16.26374793258339
 30
0.0
 40
1.621711138626873
 41
0.0
 71
     7
 72
     1
  1
min 6,0  en fonction du fraisage
  7
TAHOMA
  0
ENDSEC
  0
SECTION
  2
OBJECTS
  0
DICTIONARY
  5
C
330
0
100
AcDbDictionary
  3
ACAD_GROUP
350
D
  3
ACAD_LAYOUT
350
1A
  3
ACAD_MATERIAL
350
43
  3
ACAD_MLEADERSTYLE
350
6B
  3
ACAD_MLINESTYLE
350
17
  3
ACAD_PLOTSETTINGS
350
19
  3
ACAD_SCALELIST
350
47
  3
ACAD_VISUALSTYLE
350
2A
  3
ACDBHEADERROUNDTRIPXREC
350
328
  3
ACDBVARIABLEDICTIONARY
350
349
  0
DICTIONARY
  5
350
330
8
100
AcDbDictionary
280
     1
  3
ACAD_XREC_ROUNDTRIP
360
351
  0
DICTIONARY
  5
D
102
{ACAD_REACTORS
330
C
102
}
330
C
100
AcDbDictionary
  0
DICTIONARY
  5
1A
102
{ACAD_REACTORS
330
C
102
}
330
C
100
AcDbDictionary
  0
DICTIONARY
  5
43
102
{ACAD_REACTORS
330
C
102
}
330
C
100
AcDbDictionary
  3
BYBLOCK
350
45
  3
BYLAYER
350
44
  3
GLOBAL
350
46
  0
DICTIONARY
  5
6B
102
{ACAD_REACTORS
330
C
102
}
330
C
100
AcDbDictionary
  3
STANDARD
350
6C
  0
DICTIONARY
  5
17
102
{ACAD_REACTORS
330
C
102
}
330
C
100
AcDbDictionary
  3
STANDARD
350
18
  0
DICTIONARY
  5
19
102
{ACAD_REACTORS
330
C
102
}
330
C
100
AcDbDictionary
  0
DICTIONARY
  5
47
102
{ACAD_REACTORS
330
C
102
}
330
C
100
AcDbDictionary
  3
A0
350
48
  3
A1
350
49
  3
A2
350
4A
  3
A3
350
4B
  3
A4
350
4C
  3
A5
350
4D
  3
A6
350
4E
  3
A7
350
4F
  3
A8
350
50
  3
A9
350
51
  3
B0
350
52
  3
B1
350
53
  3
B2
350
54
  3
B3
350
55
  3
B4
350
56
  3
B5
350
57
  3
B6
350
58
  3
B7
350
59
  3
B8
350
5A
  3
B9
350
5B
  3
C0
350
5C
  3
C1
350
5D
  3
C2
350
5E
  3
C3
350
5F
  3
C4
350
60
  3
C5
350
61
  3
C6
350
62
  3
C7
350
63
  3
C8
350
64
  3
C9
350
65
  3
D0
350
66
  3
D1
350
67
  3
D2
350
68
  0
DICTIONARY
  5
2A
102
{ACAD_REACTORS
330
C
102
}
330
C
100
AcDbDictionary
  3
2DWIREFRAME
350
2F
  3
BASIC
350
32
  3
BRIGHTEN
350
36
  3
COLORCHANGE
350
3A
  3
CONCEPTUAL
350
34
  3
DIM
350
35
  3
EDGECOLOROFF
350
3D
  3
FACEPATTERN
350
39
  3
FLAT
350
2B
  3
FLATWITHEDGES
350
2C
  3
GOURAUD
350
2D
  3
GOURAUDWITHEDGES
350
2E
  3
HIDDEN
350
31
  3
JITTEROFF
350
3B
  3
LINEPATTERN
350
38
  3
OVERHANGOFF
350
3C
  3
REALISTIC
350
33
  3
SHADED
350
42
  3
SHADED_WITH_EDGES
350
41
  3
SHADES_OF_GRAY
350
3E
  3
SKETCHY
350
3F
  3
THICKEN
350
37
  3
WIREFRAME
350
30
  3
X-RAY
350
40
  0
DICTIONARY
  5
328
102
{ACAD_REACTORS
330
C
102
}
330
C
100
AcDbDictionary
  3
CEPSNID
350
332
  3
CEPSNTYPE
350
331
  3
DIMSTYLEDATA
350
348
  3
FINGERPRINTGUID
350
333
  3
HYPERLINKBASE
350
32B
  3
INSUNITS
350
330
  3
LAYOUTDICT
350
32D
  3
LWETCUNION
350
32F
  3
PLOTSETDICT
350
32E
  3
PSVPSCALE
350
335
  3
PUCSBASE
350
338
  3
PUCSORGBACK
350
33E
  3
PUCSORGBOTTOM
350
33A
  3
PUCSORGFRONT
350
33D
  3
PUCSORGLEFT
350
33B
  3
PUCSORGRIGHT
350
33C
  3
PUCSORGTOP
350
339
  3
PUCSORTHOREF
350
336
  3
PUCSORTHOVIEW
350
337
  3
STYLESHEET
350
32C
  3
TSTACKALIGN
350
329
  3
TSTACKSIZE
350
32A
  3
UCSBASE
350
341
  3
UCSORGBACK
350
347
  3
UCSORGBOTTOM
350
343
  3
UCSORGFRONT
350
346
  3
UCSORGLEFT
350
344
  3
UCSORGRIGHT
350
345
  3
UCSORGTOP
350
342
  3
UCSORTHOREF
350
33F
  3
UCSORTHOVIEW
350
340
  3
VERSIONGUID
350
334
  0
DICTIONARY
  5
349
102
{ACAD_REACTORS
330
C
102
}
330
C
100
AcDbDictionary
  3
CANNOSCALE
350
352
  3
CMLEADERSTYLE
350
34B
  3
CTABLESTYLE
350
34A
  3
DIMASSOC
350
34E
  3
HIDETEXT
350
34F
  3
MSLTSCALE
350
353
  0
XRECORD
  5
351
102
{ACAD_REACTORS
330
350
102
}
330
350
100
AcDbXrecord
102
VTR_0.000_0.000_1.000_1.000_VISUALSTYLE
340
2F
102
VTR_0.000_0.000_1.000_1.000_GRIDDISPLAY
 70
     3
102
VTR_0.000_0.000_1.000_1.000_GRIDMAJOR
 70
     5
102
VTR_0.000_0.000_1.000_1.000_DEFAULTLIGHTING
280
     1
102
VTR_0.000_0.000_1.000_1.000_DEFAULTLIGHTINGTYPE
 70
     1
102
VTR_0.000_0.000_1.000_1.000_BRIGHTNESS
141
0.0
102
VTR_0.000_0.000_1.000_1.000_CONTRAST
142
0.0
  0
MATERIAL
  5
45
102
{ACAD_REACTORS
330
43
102
}
102
{ACAD_XDICTIONARY
360
356
102
}
330
43
100
AcDbMaterial
  1
BYBLOCK
  0
MATERIAL
  5
44
102
{ACAD_REACTORS
330
43
102
}
102
{ACAD_XDICTIONARY
360
354
102
}
330
43
100
AcDbMaterial
  1
BYLAYER
  0
MATERIAL
  5
46
102
{ACAD_REACTORS
330
43
102
}
102
{ACAD_XDICTIONARY
360
358
102
}
330
43
100
AcDbMaterial
  1
GLOBAL
  0
ACAD_PROXY_OBJECT
  5
6C
102
{ACAD_REACTORS
330
6B
102
}
330
6B
100
AcDbProxyObject
 90
      499
 91
      505
 93
      610
310
40901902A4063FBFFFFFE056BD1B81E855B9FC0AD7A3703D0AD73F4214DD185B99185C9900AD7A3703D0AC73F90141901A02B5E8DC0F42B1CFC02B5E8DC0F42B1CFE5764000000000000300FC0
340
14
340
0
340
11
340
0
 94
        0
1001
ACAD_MLEADERVER
1070
     2
  0
MLINESTYLE
  5
18
102
{ACAD_REACTORS
330
17
102
}
330
17
100
AcDbMlineStyle
  2
Standard
 70
     0
  3

 62
   256
 51
90.0
 52
90.0
 71
     2
 49
0.5
 62
   256
  6
BYLAYER
 49
-0.5
 62
   256
  6
BYLAYER
  0
ACAD_PROXY_OBJECT
  5
48
102
{ACAD_REACTORS
330
47
102
}
330
47
100
AcDbProxyObject
 90
      499
 91
      503
 93
       41
310
903313A31580
  0
ACAD_PROXY_OBJECT
  5
49
102
{ACAD_REACTORS
330
47
102
}
330
47
100
AcDbProxyObject
 90
      499
 91
      503
 93
      105
310
903313A324000000000000004000
  0
ACAD_PROXY_OBJECT
  5
4A
102
{ACAD_REACTORS
330
47
102
}
330
47
100
AcDbProxyObject
 90
      499
 91
      503
 93
      105
310
903313A344000000000000104000
  0
ACAD_PROXY_OBJECT
  5
4B
102
{ACAD_REACTORS
330
47
102
}
330
47
100
AcDbProxyObject
 90
      499
 91
      503
 93
      105
310
903313A354000000000000144000
  0
ACAD_PROXY_OBJECT
  5
4C
102
{ACAD_REACTORS
330
47
102
}
330
47
100
AcDbProxyObject
 90
      499
 91
      503
 93
      105
310
903313A384000000000000204000
  0
ACAD_PROXY_OBJECT
  5
4D
102
{ACAD_REACTORS
330
47
102
}
330
47
100
AcDbProxyObject
 90
      499
 91
      503
 93
      113
310
904313A31304000000000000244000
  0
ACAD_PROXY_OBJECT
  5
4E
102
{ACAD_REACTORS
330
47
102
}
330
47
100
AcDbProxyObject
 90
      499
 91
      503
 93
      113
310
904313A31364000000000000304000
  0
ACAD_PROXY_OBJECT
  5
4F
102
{ACAD_REACTORS
330
47
102
}
330
47
100
AcDbProxyObject
 90
      499
 91
      503
 93
      113
310
904313A32304000000000000344000
  0
ACAD_PROXY_OBJECT
  5
50
102
{ACAD_REACTORS
330
47
102
}
330
47
100
AcDbProxyObject
 90
      499
 91
      503
 93
      113
310
904313A333040000000000003E4000
  0
ACAD_PROXY_OBJECT
  5
51
102
{ACAD_REACTORS
330
47
102
}
330
47
100
AcDbProxyObject
 90
      499
 91
      503
 93
      113
310
904313A34304000000000000444000
  0
ACAD_PROXY_OBJECT
  5
52
102
{ACAD_REACTORS
330
47
102
}
330
47
100
AcDbProxyObject
 90
      499
 91
      503
 93
      113
310
904313A35304000000000000494000
  0
ACAD_PROXY_OBJECT
  5
53
102
{ACAD_REACTORS
330
47
102
}
330
47
100
AcDbProxyObject
 90
      499
 91
      503
 93
      121
310
905313A3130304000000000000594000
  0
ACAD_PROXY_OBJECT
  5
54
102
{ACAD_REACTORS
330
47
102
}
330
47
100
AcDbProxyObject
 90
      499
 91
      503
 93
      105
310
903323A310000000000000010100
  0
ACAD_PROXY_OBJECT
  5
55
102
{ACAD_REACTORS
330
47
102
}
330
47
100
AcDbProxyObject
 90
      499
 91
      503
 93
      105
310
903343A310000000000000410100
  0
ACAD_PROXY_OBJECT
  5
56
102
{ACAD_REACTORS
330
47
102
}
330
47
100
AcDbProxyObject
 90
      499
 91
      503
 93
      105
310
903383A310000000000000810100
  0
ACAD_PROXY_OBJECT
  5
57
102
{ACAD_REACTORS
330
47
102
}
330
47
100
AcDbProxyObject
 90
      499
 91
      503
 93
      113
310
90431303A310000000000000910100
  0
ACAD_PROXY_OBJECT
  5
58
102
{ACAD_REACTORS
330
47
102
}
330
47
100
AcDbProxyObject
 90
      499
 91
      503
 93
      121
310
9053130303A310000000000001650100
  0
ACAD_PROXY_OBJECT
  5
59
102
{ACAD_REACTORS
330
47
102
}
330
47
100
AcDbProxyObject
 90
      499
 91
      503
 93
      257
310
90E312F31323822203D2031272D3022000000000000200FC000000000000284000
  0
ACAD_PROXY_OBJECT
  5
5A
102
{ACAD_REACTORS
330
47
102
}
330
47
100
AcDbProxyObject
 90
      499
 91
      503
 93
      249
310
90D312F363422203D2031272D3022000000000000240FC000000000000284000
  0
ACAD_PROXY_OBJECT
  5
5B
102
{ACAD_REACTORS
330
47
102
}
330
47
100
AcDbProxyObject
 90
      499
 91
      503
 93
      249
310
90D312F333222203D2031272D3022000000000000280FC000000000000284000
  0
ACAD_PROXY_OBJECT
  5
5C
102
{ACAD_REACTORS
330
47
102
}
330
47
100
AcDbProxyObject
 90
      499
 91
      503
 93
      249
310
90D312F313622203D2031272D30220000000000002C0FC000000000000284000
  0
ACAD_PROXY_OBJECT
  5
5D
102
{ACAD_REACTORS
330
47
102
}
330
47
100
AcDbProxyObject
 90
      499
 91
      503
 93
      249
310
90D332F333222203D2031272D30220000000000002E0FC000000000000284000
  0
ACAD_PROXY_OBJECT
  5
5E
102
{ACAD_REACTORS
330
47
102
}
330
47
100
AcDbProxyObject
 90
      499
 91
      503
 93
      241
310
90C312F3822203D2031272D3022000000000000300FC000000000000284000
  0
ACAD_PROXY_OBJECT
  5
5F
102
{ACAD_REACTORS
330
47
102
}
330
47
100
AcDbProxyObject
 90
      499
 91
      503
 93
      249
310
90D332F313622203D2031272D3022000000000000320FC000000000000284000
  0
ACAD_PROXY_OBJECT
  5
60
102
{ACAD_REACTORS
330
47
102
}
330
47
100
AcDbProxyObject
 90
      499
 91
      503
 93
      241
310
90C312F3422203D2031272D3022000000000000340FC000000000000284000
  0
ACAD_PROXY_OBJECT
  5
61
102
{ACAD_REACTORS
330
47
102
}
330
47
100
AcDbProxyObject
 90
      499
 91
      503
 93
      241
310
90C332F3822203D2031272D3022000000000000360FC000000000000284000
  0
ACAD_PROXY_OBJECT
  5
62
102
{ACAD_REACTORS
330
47
102
}
330
47
100
AcDbProxyObject
 90
      499
 91
      503
 93
      241
310
90C312F3222203D2031272D3022000000000000380FC000000000000284000
  0
ACAD_PROXY_OBJECT
  5
63
102
{ACAD_REACTORS
330
47
102
}
330
47
100
AcDbProxyObject
 90
      499
 91
      503
 93
      241
310
90C332F3422203D2031272D30220000000000003A0FC000000000000284000
  0
ACAD_PROXY_OBJECT
  5
64
102
{ACAD_REACTORS
330
47
102
}
330
47
100
AcDbProxyObject
 90
      499
 91
      503
 93
      161
310
90A3122203D2031272D30224000000000000284000
  0
ACAD_PROXY_OBJECT
  5
65
102
{ACAD_REACTORS
330
47
102
}
330
47
100
AcDbProxyObject
 90
      499
 91
      503
 93
      257
310
90E312D312F3222203D2031272D30220000000000003E0FC000000000000284000
  0
ACAD_PROXY_OBJECT
  5
66
102
{ACAD_REACTORS
330
47
102
}
330
47
100
AcDbProxyObject
 90
      499
 91
      503
 93
      225
310
90A3322203D2031272D302200000000000002100000000000000284000
  0
ACAD_PROXY_OBJECT
  5
67
102
{ACAD_REACTORS
330
47
102
}
330
47
100
AcDbProxyObject
 90
      499
 91
      503
 93
      225
310
90A3622203D2031272D302200000000000006100000000000000284000
  0
ACAD_PROXY_OBJECT
  5
68
102
{ACAD_REACTORS
330
47
102
}
330
47
100
AcDbProxyObject
 90
      499
 91
      503
 93
      249
310
90D31272D3022203D2031272D30220000000000000A100000000000000284000
  0
ACAD_PROXY_OBJECT
  5
2F
102
{ACAD_REACTORS
330
2A
102
}
330
2A
100
AcDbProxyObject
 90
      499
 91
      501
 93
      436
310
42CC9915DA5C99599C985B595049028333333333333E33F0000000000000F90107901411070040501600405405064090741402480A0340
1001
ACAD
1000
AcDbSavedByObjectVersion
1070
     0
  0
ACAD_PROXY_OBJECT
  5
32
102
{ACAD_REACTORS
330
2A
102
}
330
2A
100
AcDbProxyObject
 90
      499
 91
      501
 93
      388
310
4150985CDA58D07406404333333333333E33F0000000000000F90107A41107004050150841D405064090741402480A0350
1001
ACAD
1000
AcDbSavedByObjectVersion
1070
     0
  0
ACAD_PROXY_OBJECT
  5
36
102
{ACAD_REACTORS
330
2A
102
}
330
2A
100
AcDbProxyObject
 90
      499
 91
      501
 93
      428
310
42109C9A59DA1D195B90C409028333333333333E33F0000000000000F9010790141107004050150841D405064090741402480A029950
1001
ACAD
1000
AcDbSavedByObjectVersion
1070
     0
  0
ACAD_PROXY_OBJECT
  5
3A
102
{ACAD_REACTORS
330
2A
102
}
330
2A
100
AcDbProxyObject
 90
      499
 91
      501
 93
      452
310
42D0DBDB1BDC90DA185B99D95104090240C333333333333E33F0000000000000F90108901411070040501508421405064090741402480A0350
1001
ACAD
1000
AcDbSavedByObjectVersion
1070
     0
  0
ACAD_PROXY_OBJECT
  5
34
102
{ACAD_REACTORS
330
2A
102
}
330
2A
100
AcDbProxyObject
 90
      499
 91
      501
 93
      500
310
4290DBDB98D95C1D1D585B10940D028333333333333E33F0000000000000F90107902409070040501000000000018199010841D405064090740C02480A0340
1001
ACAD
1000
AcDbSavedByObjectVersion
1070
     0
  0
ACAD_PROXY_OBJECT
  5
35
102
{ACAD_REACTORS
330
2A
102
}
330
2A
100
AcDbProxyObject
 90
      499
 91
      501
 93
      412
310
40D11A5B50B409028333333333333E33F0000000000000F9010790141107004050150841D405064090741402480A02677FFFFFD0
1001
ACAD
1000
AcDbSavedByObjectVersion
1070
     0
  0
ACAD_PROXY_OBJECT
  5
3D
102
{ACAD_REACTORS
330
2A
102
}
330
2A
100
AcDbProxyObject
 90
      499
 91
      501
 93
      452
310
43115919D950DBDB1BDC93D999916409028333333333333E33F0000000000000F9010790141107004050150841D405064090741402480A0350
1001
ACAD
1000
AcDbSavedByObjectVersion
1070
     0
  0
ACAD_PROXY_OBJECT
  5
39
102
{ACAD_REACTORS
330
2A
102
}
330
2A
100
AcDbProxyObject
 90
      499
 91
      501
 93
      444
310
42D19858D95C185D1D195C9B90F409028333333333333E33F0000000000000F9010790141107004050150841D405064090741402480A0350
1001
ACAD
1000
AcDbSavedByObjectVersion
1070
     0
  0
ACAD_PROXY_OBJECT
  5
2B
102
{ACAD_REACTORS
330
2A
102
}
330
2A
100
AcDbProxyObject
 90
      499
 91
      501
 93
      380
310
41119B185D240901404333333333333E33F0000000000000F9010740A907004050150841D405064090741402480A1B50
1001
ACAD
1000
AcDbSavedByObjectVersion
1070
     0
  0
ACAD_PROXY_OBJECT
  5
2C
102
{ACAD_REACTORS
330
2A
102
}
330
2A
100
AcDbProxyObject
 90
      499
 91
      501
 93
      468
310
43519B185D15DA5D1A115919D95CD0140901404333333333333E33F0000000000000F90107409019070040501600405405064090741402480A1B50
1001
ACAD
1000
AcDbSavedByObjectVersion
1070
     0
  0
ACAD_PROXY_OBJECT
  5
2D
102
{ACAD_REACTORS
330
2A
102
}
330
2A
100
AcDbProxyObject
 90
      499
 91
      501
 93
      404
310
41D1DBDD5C985D5910240902404333333333333E33F0000000000000F9010740A9070040501641D405064090741402480A1B50
1001
ACAD
1000
AcDbSavedByObjectVersion
1070
     0
  0
ACAD_PROXY_OBJECT
  5
2E
102
{ACAD_REACTORS
330
2A
102
}
330
2A
100
AcDbProxyObject
 90
      499
 91
      501
 93
      492
310
4411DBDD5C985D5915DA5D1A115919D95CD0340902404333333333333E33F0000000000000F90107409019070040501600405405064090741402480A1B50
1001
ACAD
1000
AcDbSavedByObjectVersion
1070
     0
  0
ACAD_PROXY_OBJECT
  5
31
102
{ACAD_REACTORS
330
2A
102
}
330
2A
100
AcDbProxyObject
 90
      499
 91
      501
 93
      476
310
41921A5919195B90640502408333333333333E33F0000000000000F901079024090700405020000000000001110200405405064090740C02480A0340
1001
ACAD
1000
AcDbSavedByObjectVersion
1070
     0
  0
ACAD_PROXY_OBJECT
  5
3B
102
{ACAD_REACTORS
330
2A
102
}
330
2A
100
AcDbProxyObject
 90
      499
 91
      501
 93
      428
310
42529A5D1D195C93D999914409028333333333333E33F0000000000000F9010790141107004050150A41D405064090741402480A0350
1001
ACAD
1000
AcDbSavedByObjectVersion
1070
     0
  0
ACAD_PROXY_OBJECT
  5
38
102
{ACAD_REACTORS
330
2A
102
}
330
2A
100
AcDbProxyObject
 90
      499
 91
      501
 93
      444
310
42D31A5B995C185D1D195C9B90E409028333333333333E33F0000000000000F9010790141107004050750841D405064090741402483A0350
1001
ACAD
1000
AcDbSavedByObjectVersion
1070
     0
  0
ACAD_PROXY_OBJECT
  5
3C
102
{ACAD_REACTORS
330
2A
102
}
330
2A
100
AcDbProxyObject
 90
      499
 91
      501
 93
      444
310
42D3DD995C9A185B99D3D999915409028333333333333E33F0000000000000F9010790141107004050150941D405064090741402480A0350
1001
ACAD
1000
AcDbSavedByObjectVersion
1070
     0
  0
ACAD_PROXY_OBJECT
  5
33
102
{ACAD_REACTORS
330
2A
102
}
330
2A
100
AcDbProxyObject
 90
      499
 91
      501
 93
      428
310
425499585B1A5CDD1A58D08409038333333333333E33F0000000000000F9010740A907004050150800405405064090740C02480A1B40
1001
ACAD
1000
AcDbSavedByObjectVersion
1070
     0
  0
ACAD_PROXY_OBJECT
  5
42
102
{ACAD_REACTORS
330
2A
102
}
330
2A
100
AcDbProxyObject
 90
      499
 91
      501
 93
      420
310
4194DA1859195911B40902404333333333333E33F0000000000000F9010740A41107004050150800405405064090840C02480A0B40
1001
ACAD
1000
AcDbSavedByObjectVersion
1070
     0
  0
ACAD_PROXY_OBJECT
  5
41
102
{ACAD_REACTORS
330
2A
102
}
330
2A
100
AcDbProxyObject
 90
      499
 91
      501
 93
      516
310
4454DA18591959081DDA5D1A08195919D95CD1A40902404333333333333E33F0000000000000F901074090142907004050250800405405064090740C02480A0B40
1001
ACAD
1000
AcDbSavedByObjectVersion
1070
     0
  0
ACAD_PROXY_OBJECT
  5
3E
102
{ACAD_REACTORS
330
2A
102
}
330
2A
100
AcDbProxyObject
 90
      499
 91
      501
 93
      532
310
4394DA1859195CC81BD98811DC985E5174090240C333333333333E33F0000000000000F901079024090741D01000000000000111010841D405064090740C02480A0340
1001
ACAD
1000
AcDbSavedByObjectVersion
1070
     0
  0
ACAD_PROXY_OBJECT
  5
3F
102
{ACAD_REACTORS
330
2A
102
}
330
2A
100
AcDbProxyObject
 90
      499
 91
      501
 93
      476
310
41D4DAD95D18DA1E51840502408333333333333E33F0000000000000F901079024090741D01000000000000111010B41D405064090741802480A0340
1001
ACAD
1000
AcDbSavedByObjectVersion
1070
     0
  0
ACAD_PROXY_OBJECT
  5
37
102
{ACAD_REACTORS
330
2A
102
}
330
2A
100
AcDbProxyObject
 90
      499
 91
      501
 93
      412
310
41D51A1A58DAD95B90D409028333333333333E33F0000000000000F9010790141107004050150C41D405064090741402480A0350
1001
ACAD
1000
AcDbSavedByObjectVersion
1070
     0
  0
ACAD_PROXY_OBJECT
  5
30
102
{ACAD_REACTORS
330
2A
102
}
330
2A
100
AcDbProxyObject
 90
      499
 91
      501
 93
      420
310
4255DA5C99599C985B595059028333333333333E33F0000000000000F90107901411070040501600405405064090740C02480A0340
1001
ACAD
1000
AcDbSavedByObjectVersion
1070
     0
  0
ACAD_PROXY_OBJECT
  5
40
102
{ACAD_REACTORS
330
2A
102
}
330
2A
100
AcDbProxyObject
 90
      499
 91
      501
 93
      404
310
41560B54985E51940902404000000000000E03F0000000000000F9010740501907004050150841D405064090740C02480A1B40
1001
ACAD
1000
AcDbSavedByObjectVersion
1070
     0
  0
XRECORD
  5
332
102
{ACAD_REACTORS
330
328
102
}
330
328
100
AcDbXrecord
340
0
  0
XRECORD
  5
331
102
{ACAD_REACTORS
330
328
102
}
330
328
100
AcDbXrecord
 90
        0
  0
XRECORD
  5
348
102
{ACAD_REACTORS
330
328
102
}
330
328
100
AcDbXrecord
1000
DSTYLE
1002
{
1070
   171
 70
     2
1070
   143
 40
25.4
1070
   274
 70
     2
1070
    41
 40
0.18
1070
   141
 40
0.09
1070
   271
 70
     4
1070
    43
 40
0.38
1070
   278
 70
    46
1070
    44
 40
0.18
1070
    42
 40
0.0625
1070
   147
 40
0.09
1070
    77
 70
     0
1070
   272
 70
     4
1070
    73
 70
     1
1070
   172
 70
     0
1070
    74
 70
     1
1070
   283
 70
     1
1070
   340
340
11
1070
   140
 40
0.18
1070
   284
 70
     0
1070
    78
 70
     0
1002
}
  0
XRECORD
  5
333
102
{ACAD_REACTORS
330
328
102
}
330
328
100
AcDbXrecord
  1
{25E0671B-D1E7-4721-8641-A2E1190958A9}
  0
XRECORD
  5
32B
102
{ACAD_REACTORS
330
328
102
}
330
328
100
AcDbXrecord
  1

  0
XRECORD
  5
330
102
{ACAD_REACTORS
330
328
102
}
330
328
100
AcDbXrecord
 90
        4
  0
XRECORD
  5
32D
102
{ACAD_REACTORS
330
328
102
}
330
328
100
AcDbXrecord
340
1A
  0
XRECORD
  5
32F
102
{ACAD_REACTORS
330
328
102
}
330
328
100
AcDbXrecord
 90
    10781
  0
XRECORD
  5
32E
102
{ACAD_REACTORS
330
328
102
}
330
328
100
AcDbXrecord
340
19
  0
XRECORD
  5
335
102
{ACAD_REACTORS
330
328
102
}
330
328
100
AcDbXrecord
 40
0.0
  0
XRECORD
  5
338
102
{ACAD_REACTORS
330
328
102
}
330
328
100
AcDbXrecord
340
0
  0
XRECORD
  5
33E
102
{ACAD_REACTORS
330
328
102
}
330
328
100
AcDbXrecord
 10
0.0
 20
0.0
 30
0.0
  0
XRECORD
  5
33A
102
{ACAD_REACTORS
330
328
102
}
330
328
100
AcDbXrecord
 10
0.0
 20
0.0
 30
0.0
  0
XRECORD
  5
33D
102
{ACAD_REACTORS
330
328
102
}
330
328
100
AcDbXrecord
 10
0.0
 20
0.0
 30
0.0
  0
XRECORD
  5
33B
102
{ACAD_REACTORS
330
328
102
}
330
328
100
AcDbXrecord
 10
0.0
 20
0.0
 30
0.0
  0
XRECORD
  5
33C
102
{ACAD_REACTORS
330
328
102
}
330
328
100
AcDbXrecord
 10
0.0
 20
0.0
 30
0.0
  0
XRECORD
  5
339
102
{ACAD_REACTORS
330
328
102
}
330
328
100
AcDbXrecord
 10
0.0
 20
0.0
 30
0.0
  0
XRECORD
  5
336
102
{ACAD_REACTORS
330
328
102
}
330
328
100
AcDbXrecord
340
0
  0
XRECORD
  5
337
102
{ACAD_REACTORS
330
328
102
}
330
328
100
AcDbXrecord
 70
     0
  0
XRECORD
  5
32C
102
{ACAD_REACTORS
330
328
102
}
330
328
100
AcDbXrecord
  1

  0
XRECORD
  5
329
102
{ACAD_REACTORS
330
328
102
}
330
328
100
AcDbXrecord
 90
        1
  0
XRECORD
  5
32A
102
{ACAD_REACTORS
330
328
102
}
330
328
100
AcDbXrecord
 90
       70
  0
XRECORD
  5
341
102
{ACAD_REACTORS
330
328
102
}
330
328
100
AcDbXrecord
340
0
  0
XRECORD
  5
347
102
{ACAD_REACTORS
330
328
102
}
330
328
100
AcDbXrecord
 10
0.0
 20
0.0
 30
0.0
  0
XRECORD
  5
343
102
{ACAD_REACTORS
330
328
102
}
330
328
100
AcDbXrecord
 10
0.0
 20
0.0
 30
0.0
  0
XRECORD
  5
346
102
{ACAD_REACTORS
330
328
102
}
330
328
100
AcDbXrecord
 10
0.0
 20
0.0
 30
0.0
  0
XRECORD
  5
344
102
{ACAD_REACTORS
330
328
102
}
330
328
100
AcDbXrecord
 10
0.0
 20
0.0
 30
0.0
  0
XRECORD
  5
345
102
{ACAD_REACTORS
330
328
102
}
330
328
100
AcDbXrecord
 10
0.0
 20
0.0
 30
0.0
  0
XRECORD
  5
342
102
{ACAD_REACTORS
330
328
102
}
330
328
100
AcDbXrecord
 10
0.0
 20
0.0
 30
0.0
  0
XRECORD
  5
33F
102
{ACAD_REACTORS
330
328
102
}
330
328
100
AcDbXrecord
340
0
  0
XRECORD
  5
340
102
{ACAD_REACTORS
330
328
102
}
330
328
100
AcDbXrecord
 70
     0
  0
XRECORD
  5
334
102
{ACAD_REACTORS
330
328
102
}
330
328
100
AcDbXrecord
  1
{FAEB1C32-E019-11D5-929B-00C0DF256EC4}
  0
DICTIONARYVAR
  5
352
102
{ACAD_REACTORS
330
349
102
}
330
349
100
DictionaryVariables
280
     0
  1
1:1
  0
DICTIONARYVAR
  5
34B
102
{ACAD_REACTORS
330
349
102
}
330
349
100
DictionaryVariables
280
     0
  1
Standard
  0
DICTIONARYVAR
  5
34A
102
{ACAD_REACTORS
330
349
102
}
330
349
100
DictionaryVariables
280
     0
  1
Standard
  0
DICTIONARYVAR
  5
34E
102
{ACAD_REACTORS
330
349
102
}
330
349
100
DictionaryVariables
280
     0
  1
2
  0
DICTIONARYVAR
  5
34F
102
{ACAD_REACTORS
330
349
102
}
330
349
100
DictionaryVariables
280
     0
  1
1
  0
DICTIONARYVAR
  5
353
102
{ACAD_REACTORS
330
349
102
}
330
349
100
DictionaryVariables
280
     0
  1
1
  0
DICTIONARY
  5
356
330
45
100
AcDbDictionary
280
     1
  3
ACAD_XREC_ROUNDTRIP
360
357
  0
DICTIONARY
  5
354
330
44
100
AcDbDictionary
280
     1
  3
ACAD_XREC_ROUNDTRIP
360
355
  0
DICTIONARY
  5
358
330
46
100
AcDbDictionary
280
     1
  3
ACAD_XREC_ROUNDTRIP
360
359
  0
XRECORD
  5
357
102
{ACAD_REACTORS
330
356
102
}
330
356
100
AcDbXrecord
102
MATERIAL
148
0.0
149
0.0
149
0.0
 93
        0
 94
      127
282
     0
 72
     1
 77
     1
171
     1
175
     1
179
     1
273
     0
  0
XRECORD
  5
355
102
{ACAD_REACTORS
330
354
102
}
330
354
100
AcDbXrecord
102
MATERIAL
148
0.0
149
0.0
149
0.0
 93
        0
 94
      127
282
     0
 72
     1
 77
     1
171
     1
175
     1
179
     1
273
     0
  0
XRECORD
  5
359
102
{ACAD_REACTORS
330
358
102
}
330
358
100
AcDbXrecord
102
MATERIAL
148
0.0
149
0.0
149
0.0
 93
        0
 94
      127
282
     0
 72
     1
 77
     1
171
     1
175
     1
179
     1
273
     0
  0
ENDSEC
  0
EOF
