  0
SECTION
  2
HEADER
  9
$ACADVER
  1
AC1009
  9
$INSBASE
 10
0.0
 20
0.0
 30
0.0
  9
$EXTMIN
 10
0.0
 20
0.0
 30
0.0
  9
$EXTMAX
 10
0.0
 20
0.0
 30
0.0
  0
ENDSEC
  0
SECTION
  2
TABLES
  0
TABLE
  2
VPORT
 70
0
  0
ENDTAB
  0
TABLE
  2
LTYPE
 70
1
  0
LTYPE
  2
CONTINUOUS
 70
0
  3
Solid line
 72
65
 73
0
 40
0.0
  0
ENDTAB
  0
TABLE
  2
LAYER
 70
1
  0
LAYER
  2
0
 70
64
 62
7
  6
continuous
  0
ENDTAB
  0
TABLE
  2
STYLE
 70
1
  0
STYLE
  2
STANDARD
 70
0
 40
0
 41
1.0
 50
0.0
 71
0
 42
1
 3
ARIAL.TTF
 4

  0
ENDTAB
  0
TABLE
  2
VIEW
 70
0
  0
ENDTAB
  0
ENDSEC
  0
SECTION
  2
BLOCKS
  0
BLOCK
  8
0
  2
CUT
 70
0
 10
0.0
 20
0.0
 30
0.0
  3
CUT
  0
CIRCLE
  8
0
 62
0
 10
0.0
 20
6.10524019169e-15
 30
0.0
 40
81.0
  0
CIRCLE
  8
0
 62
0
 10
47.1252399223
 20
34.238490946
 30
0.0
 40
7.2
  0
CIRCLE
  8
0
 62
0
 10
-18.0002399223
 20
55.3990420742
 30
0.0
 40
7.2
  0
CIRCLE
  8
0
 62
0
 10
-18.0002399223
 20
-55.3990420742
 30
0.0
 40
7.2
  0
CIRCLE
  8
0
 62
0
 10
47.1252399223
 20
-34.238490946
 30
0.0
 40
7.2
  0
CIRCLE
  8
0
 62
0
 10
-58.25
 20
2.42026939861e-15
 30
0.0
 40
7.2
  0
CIRCLE
  8
0
 62
0
 10
0.0
 20
7.32747196253e-15
 30
0.0
 40
77.3303716349
  0
CIRCLE
  8
0
 62
0
 10
47.1252399223
 20
34.238490946
 30
0.0
 40
8.93338375886
  0
CIRCLE
  8
0
 62
0
 10
-18.0002399223
 20
55.3990420742
 30
0.0
 40
8.93338375886
  0
CIRCLE
  8
0
 62
0
 10
-18.0002399223
 20
-55.3990420742
 30
0.0
 40
8.93338375886
  0
CIRCLE
  8
0
 62
0
 10
47.1252399223
 20
-34.238490946
 30
0.0
 40
8.93338375886
  0
CIRCLE
  8
0
 62
0
 10
-58.25
 20
2.99760216649e-15
 30
0.0
 40
8.93338375886
  0
CIRCLE
  8
0
 62
0
 10
50.0
 20
1.6156943637e-14
 30
0.0
 40
6.21
  0
CIRCLE
  8
0
 62
0
 10
15.4508497187
 20
47.5528258148
 30
0.0
 40
6.21
  0
CIRCLE
  8
0
 62
0
 10
47.1252399223
 20
34.238490946
 30
0.0
 40
16.2
  0
CIRCLE
  8
0
 62
0
 10
-58.25
 20
7.32747196253e-15
 30
0.0
 40
16.2
  0
CIRCLE
  8
0
 62
0
 10
-18.0002399223
 20
55.3990420742
 30
0.0
 40
16.2
  0
CIRCLE
  8
0
 62
0
 10
47.1252399223
 20
-34.238490946
 30
0.0
 40
16.2
  0
CIRCLE
  8
0
 62
0
 10
15.4508497187
 20
-47.5528258148
 30
0.0
 40
6.21
  0
CIRCLE
  8
0
 62
0
 10
-18.0002399223
 20
-55.3990420742
 30
0.0
 40
16.2
  0
CIRCLE
  8
0
 62
0
 10
-40.4508497187
 20
-29.3892626146
 30
0.0
 40
6.21
  0
CIRCLE
  8
0
 62
0
 10
-40.4508497187
 20
29.3892626146
 30
0.0
 40
6.21
  0
CIRCLE
  8
0
 62
0
 10
0.0
 20
1.09912079438e-14
 30
0.0
 40
27.0
  0
LINE
  8
0
 62
0
 10
-77.3303716349
 20
7.32747196253e-15
 30
0.0
 11
-81.0
 21
6.10524019169e-15
 31
0.0
  0
LINE
  8
0
 62
0
 10
54.3524992005
 20
39.4894021726
 30
0.0
 11
52.9501622818
 21
38.4705447625
 31
0.0
  0
LINE
  8
0
 62
0
 10
-20.7608073211
 20
63.8951949106
 30
0.0
 11
-20.2251622818
 21
62.2466489915
 31
0.0
  0
LINE
  8
0
 62
0
 10
-20.7608073211
 20
-63.8951949106
 30
0.0
 11
-20.2251622818
 21
-62.2466489915
 31
0.0
  0
LINE
  8
0
 62
0
 10
54.3524992005
 20
-39.4894021726
 30
0.0
 11
52.9501622818
 21
-38.4705447625
 31
0.0
  0
LINE
  8
0
 62
0
 10
-67.1833837589
 20
2.99760216649e-15
 30
0.0
 11
-65.45
 21
2.42026939861e-15
 31
0.0
  0
ENDBLK
  0
ENDSEC
  0
SECTION
  2
ENTITIES
  0
INSERT
  2
CUT
  8
0
 62
0
 10
0.0
 20
0.0
 30
0.0
  0
ENDSEC
  0
EOF
