ISO-10303-21;
HEADER;
/* Generated by software containing ST-Developer
 * from STEP Tools, Inc. (www.steptools.com) 
 */

FILE_DESCRIPTION(
/* description */ (''),
/* implementation_level */ '2;1');

FILE_NAME(
/* name */ 'C:/Users/Riko.Riko-PC/Documents/e-mtb/3d/hub v5.step',
/* time_stamp */ '2017-11-17T04:55:23+01:00',
/* author */ ('bouricoo'),
/* organization */ (''),
/* preprocessor_version */ 'ST-DEVELOPER v16.13',
/* originating_system */ 'Autodesk Translation Framework v6.5.0.72',
/* authorisation */ '');

FILE_SCHEMA (('AUTOMOTIVE_DESIGN { 1 0 10303 214 3 1 1 }'));
ENDSEC;

DATA;
#10=MECHANICAL_DESIGN_GEOMETRIC_PRESENTATION_REPRESENTATION('',(#13),#225);
#11=SHAPE_REPRESENTATION_RELATIONSHIP('SRR','None',#232,#12);
#12=ADVANCED_BREP_SHAPE_REPRESENTATION('',(#14),#224);
#13=STYLED_ITEM('',(#241),#14);
#14=MANIFOLD_SOLID_BREP('Body6',#120);
#15=LINE('',#207,#19);
#16=LINE('',#216,#20);
#17=LINE('',#219,#21);
#18=LINE('',#221,#22);
#19=VECTOR('',#171,11.);
#20=VECTOR('',#182,14.);
#21=VECTOR('',#187,10.5);
#22=VECTOR('',#190,13.);
#23=CYLINDRICAL_SURFACE('',#141,11.);
#24=CYLINDRICAL_SURFACE('',#146,14.);
#25=CYLINDRICAL_SURFACE('',#149,10.5);
#26=CYLINDRICAL_SURFACE('',#150,13.);
#27=FACE_BOUND('',#40,.T.);
#28=FACE_BOUND('',#42,.T.);
#29=FACE_BOUND('',#45,.T.);
#30=FACE_BOUND('',#48,.T.);
#31=FACE_OUTER_BOUND('',#39,.T.);
#32=FACE_OUTER_BOUND('',#41,.T.);
#33=FACE_OUTER_BOUND('',#43,.T.);
#34=FACE_OUTER_BOUND('',#44,.T.);
#35=FACE_OUTER_BOUND('',#46,.T.);
#36=FACE_OUTER_BOUND('',#47,.T.);
#37=FACE_OUTER_BOUND('',#49,.T.);
#38=FACE_OUTER_BOUND('',#50,.T.);
#39=EDGE_LOOP('',(#82));
#40=EDGE_LOOP('',(#83));
#41=EDGE_LOOP('',(#84));
#42=EDGE_LOOP('',(#85,#86));
#43=EDGE_LOOP('',(#87,#88,#89,#90));
#44=EDGE_LOOP('',(#91));
#45=EDGE_LOOP('',(#92));
#46=EDGE_LOOP('',(#93,#94,#95,#96));
#47=EDGE_LOOP('',(#97));
#48=EDGE_LOOP('',(#98));
#49=EDGE_LOOP('',(#99,#100,#101,#102,#103));
#50=EDGE_LOOP('',(#104,#105,#106,#107));
#51=CIRCLE('',#135,13.);
#52=CIRCLE('',#136,10.5);
#53=CIRCLE('',#138,11.);
#54=CIRCLE('',#139,10.5);
#55=CIRCLE('',#140,10.5);
#56=CIRCLE('',#142,11.);
#57=CIRCLE('',#144,14.);
#58=CIRCLE('',#145,13.);
#59=CIRCLE('',#147,14.);
#60=VERTEX_POINT('',#193);
#61=VERTEX_POINT('',#195);
#62=VERTEX_POINT('',#198);
#63=VERTEX_POINT('',#200);
#64=VERTEX_POINT('',#201);
#65=VERTEX_POINT('',#205);
#66=VERTEX_POINT('',#209);
#67=VERTEX_POINT('',#211);
#68=VERTEX_POINT('',#214);
#69=EDGE_CURVE('',#60,#60,#51,.T.);
#70=EDGE_CURVE('',#61,#61,#52,.T.);
#71=EDGE_CURVE('',#62,#62,#53,.T.);
#72=EDGE_CURVE('',#63,#64,#54,.T.);
#73=EDGE_CURVE('',#64,#63,#55,.T.);
#74=EDGE_CURVE('',#65,#65,#56,.T.);
#75=EDGE_CURVE('',#65,#62,#15,.T.);
#76=EDGE_CURVE('',#66,#66,#57,.T.);
#77=EDGE_CURVE('',#67,#67,#58,.T.);
#78=EDGE_CURVE('',#68,#68,#59,.T.);
#79=EDGE_CURVE('',#68,#66,#16,.T.);
#80=EDGE_CURVE('',#64,#61,#17,.T.);
#81=EDGE_CURVE('',#67,#60,#18,.T.);
#82=ORIENTED_EDGE('',*,*,#69,.T.);
#83=ORIENTED_EDGE('',*,*,#70,.T.);
#84=ORIENTED_EDGE('',*,*,#71,.F.);
#85=ORIENTED_EDGE('',*,*,#72,.F.);
#86=ORIENTED_EDGE('',*,*,#73,.F.);
#87=ORIENTED_EDGE('',*,*,#74,.F.);
#88=ORIENTED_EDGE('',*,*,#75,.T.);
#89=ORIENTED_EDGE('',*,*,#71,.T.);
#90=ORIENTED_EDGE('',*,*,#75,.F.);
#91=ORIENTED_EDGE('',*,*,#76,.F.);
#92=ORIENTED_EDGE('',*,*,#77,.T.);
#93=ORIENTED_EDGE('',*,*,#78,.F.);
#94=ORIENTED_EDGE('',*,*,#79,.T.);
#95=ORIENTED_EDGE('',*,*,#76,.T.);
#96=ORIENTED_EDGE('',*,*,#79,.F.);
#97=ORIENTED_EDGE('',*,*,#78,.T.);
#98=ORIENTED_EDGE('',*,*,#74,.T.);
#99=ORIENTED_EDGE('',*,*,#72,.T.);
#100=ORIENTED_EDGE('',*,*,#80,.T.);
#101=ORIENTED_EDGE('',*,*,#70,.F.);
#102=ORIENTED_EDGE('',*,*,#80,.F.);
#103=ORIENTED_EDGE('',*,*,#73,.T.);
#104=ORIENTED_EDGE('',*,*,#77,.F.);
#105=ORIENTED_EDGE('',*,*,#81,.T.);
#106=ORIENTED_EDGE('',*,*,#69,.F.);
#107=ORIENTED_EDGE('',*,*,#81,.F.);
#108=PLANE('',#134);
#109=PLANE('',#137);
#110=PLANE('',#143);
#111=PLANE('',#148);
#112=ADVANCED_FACE('',(#31,#27),#108,.F.);
#113=ADVANCED_FACE('',(#32,#28),#109,.T.);
#114=ADVANCED_FACE('',(#33),#23,.F.);
#115=ADVANCED_FACE('',(#34,#29),#110,.F.);
#116=ADVANCED_FACE('',(#35),#24,.T.);
#117=ADVANCED_FACE('',(#36,#30),#111,.T.);
#118=ADVANCED_FACE('',(#37),#25,.F.);
#119=ADVANCED_FACE('',(#38),#26,.T.);
#120=CLOSED_SHELL('',(#112,#113,#114,#115,#116,#117,#118,#119));
#121=DERIVED_UNIT_ELEMENT(#123,1.);
#122=DERIVED_UNIT_ELEMENT(#227,3.);
#123=(
MASS_UNIT()
NAMED_UNIT(*)
SI_UNIT(.KILO.,.GRAM.)
);
#124=DERIVED_UNIT((#121,#122));
#125=MEASURE_REPRESENTATION_ITEM('density measure',
POSITIVE_RATIO_MEASURE(7850.),#124);
#126=PROPERTY_DEFINITION_REPRESENTATION(#131,#128);
#127=PROPERTY_DEFINITION_REPRESENTATION(#132,#129);
#128=REPRESENTATION('material name',(#130),#224);
#129=REPRESENTATION('density',(#125),#224);
#130=DESCRIPTIVE_REPRESENTATION_ITEM('Steel','Steel');
#131=PROPERTY_DEFINITION('material property','material name',#234);
#132=PROPERTY_DEFINITION('material property','density of part',#234);
#133=AXIS2_PLACEMENT_3D('placement',#191,#151,#152);
#134=AXIS2_PLACEMENT_3D('',#192,#153,#154);
#135=AXIS2_PLACEMENT_3D('',#194,#155,#156);
#136=AXIS2_PLACEMENT_3D('',#196,#157,#158);
#137=AXIS2_PLACEMENT_3D('',#197,#159,#160);
#138=AXIS2_PLACEMENT_3D('',#199,#161,#162);
#139=AXIS2_PLACEMENT_3D('',#202,#163,#164);
#140=AXIS2_PLACEMENT_3D('',#203,#165,#166);
#141=AXIS2_PLACEMENT_3D('',#204,#167,#168);
#142=AXIS2_PLACEMENT_3D('',#206,#169,#170);
#143=AXIS2_PLACEMENT_3D('',#208,#172,#173);
#144=AXIS2_PLACEMENT_3D('',#210,#174,#175);
#145=AXIS2_PLACEMENT_3D('',#212,#176,#177);
#146=AXIS2_PLACEMENT_3D('',#213,#178,#179);
#147=AXIS2_PLACEMENT_3D('',#215,#180,#181);
#148=AXIS2_PLACEMENT_3D('',#217,#183,#184);
#149=AXIS2_PLACEMENT_3D('',#218,#185,#186);
#150=AXIS2_PLACEMENT_3D('',#220,#188,#189);
#151=DIRECTION('axis',(0.,0.,1.));
#152=DIRECTION('refdir',(1.,0.,0.));
#153=DIRECTION('center_axis',(0.,1.,0.));
#154=DIRECTION('ref_axis',(1.,0.,0.));
#155=DIRECTION('center_axis',(0.,-1.,0.));
#156=DIRECTION('ref_axis',(1.,0.,0.));
#157=DIRECTION('center_axis',(0.,1.,0.));
#158=DIRECTION('ref_axis',(1.,0.,0.));
#159=DIRECTION('center_axis',(0.,1.,0.));
#160=DIRECTION('ref_axis',(-1.,0.,0.));
#161=DIRECTION('center_axis',(0.,-1.,0.));
#162=DIRECTION('ref_axis',(-1.,0.,0.));
#163=DIRECTION('center_axis',(0.,1.,0.));
#164=DIRECTION('ref_axis',(1.,0.,0.));
#165=DIRECTION('center_axis',(0.,1.,0.));
#166=DIRECTION('ref_axis',(1.,0.,0.));
#167=DIRECTION('center_axis',(0.,-1.,0.));
#168=DIRECTION('ref_axis',(-1.,0.,0.));
#169=DIRECTION('center_axis',(0.,-1.,0.));
#170=DIRECTION('ref_axis',(-1.,0.,0.));
#171=DIRECTION('',(0.,-1.,0.));
#172=DIRECTION('center_axis',(0.,1.,0.));
#173=DIRECTION('ref_axis',(-1.,0.,0.));
#174=DIRECTION('center_axis',(0.,1.,0.));
#175=DIRECTION('ref_axis',(-1.,0.,0.));
#176=DIRECTION('center_axis',(0.,1.,0.));
#177=DIRECTION('ref_axis',(1.,0.,0.));
#178=DIRECTION('center_axis',(0.,1.,0.));
#179=DIRECTION('ref_axis',(-1.,0.,0.));
#180=DIRECTION('center_axis',(0.,1.,0.));
#181=DIRECTION('ref_axis',(-1.,0.,0.));
#182=DIRECTION('',(0.,-1.,0.));
#183=DIRECTION('center_axis',(0.,1.,0.));
#184=DIRECTION('ref_axis',(-1.,0.,0.));
#185=DIRECTION('center_axis',(0.,1.,0.));
#186=DIRECTION('ref_axis',(1.,0.,0.));
#187=DIRECTION('',(0.,-1.,0.));
#188=DIRECTION('center_axis',(0.,1.,0.));
#189=DIRECTION('ref_axis',(1.,0.,0.));
#190=DIRECTION('',(0.,-1.,0.));
#191=CARTESIAN_POINT('',(0.,0.,0.));
#192=CARTESIAN_POINT('Origin',(189.165025453467,0.5,0.));
#193=CARTESIAN_POINT('',(176.165025453467,0.5,1.59204083889156E-15));
#194=CARTESIAN_POINT('Origin',(189.165025453467,0.5,0.));
#195=CARTESIAN_POINT('',(178.665025453467,0.5,1.28587913910472E-15));
#196=CARTESIAN_POINT('Origin',(189.165025453467,0.5,0.));
#197=CARTESIAN_POINT('Origin',(189.165025453467,6.,0.));
#198=CARTESIAN_POINT('',(200.165025453467,6.,-1.34711147906209E-15));
#199=CARTESIAN_POINT('Origin',(189.165025453467,6.,0.));
#200=CARTESIAN_POINT('',(199.665025453467,6.,-1.28587913910472E-15));
#201=CARTESIAN_POINT('',(178.665025453467,6.,1.28587913910472E-15));
#202=CARTESIAN_POINT('Origin',(189.165025453467,6.,0.));
#203=CARTESIAN_POINT('Origin',(189.165025453467,6.,0.));
#204=CARTESIAN_POINT('Origin',(189.165025453467,18.,0.));
#205=CARTESIAN_POINT('',(200.165025453467,18.,-1.34711147906209E-15));
#206=CARTESIAN_POINT('Origin',(189.165025453467,18.,0.));
#207=CARTESIAN_POINT('',(200.165025453467,18.,1.34711147906209E-15));
#208=CARTESIAN_POINT('Origin',(189.165025453467,10.,0.));
#209=CARTESIAN_POINT('',(203.165025453467,10.,-1.71450551880629E-15));
#210=CARTESIAN_POINT('Origin',(189.165025453467,10.,0.));
#211=CARTESIAN_POINT('',(176.165025453467,10.,1.59204083889156E-15));
#212=CARTESIAN_POINT('Origin',(189.165025453467,10.,0.));
#213=CARTESIAN_POINT('Origin',(189.165025453467,10.,0.));
#214=CARTESIAN_POINT('',(203.165025453467,18.,-1.71450551880629E-15));
#215=CARTESIAN_POINT('Origin',(189.165025453467,18.,0.));
#216=CARTESIAN_POINT('',(203.165025453467,10.,-1.71450551880629E-15));
#217=CARTESIAN_POINT('Origin',(189.165025453467,18.,0.));
#218=CARTESIAN_POINT('Origin',(189.165025453467,5.,0.));
#219=CARTESIAN_POINT('',(178.665025453467,5.,1.28587913910472E-15));
#220=CARTESIAN_POINT('Origin',(189.165025453467,5.,0.));
#221=CARTESIAN_POINT('',(176.165025453467,5.,1.59204083889156E-15));
#222=UNCERTAINTY_MEASURE_WITH_UNIT(LENGTH_MEASURE(0.01),#226,
'DISTANCE_ACCURACY_VALUE',
'Maximum model space distance between geometric entities at asserted c
onnectivities');
#223=UNCERTAINTY_MEASURE_WITH_UNIT(LENGTH_MEASURE(0.01),#226,
'DISTANCE_ACCURACY_VALUE',
'Maximum model space distance between geometric entities at asserted c
onnectivities');
#224=(
GEOMETRIC_REPRESENTATION_CONTEXT(3)
GLOBAL_UNCERTAINTY_ASSIGNED_CONTEXT((#222))
GLOBAL_UNIT_ASSIGNED_CONTEXT((#226,#229,#228))
REPRESENTATION_CONTEXT('','3D')
);
#225=(
GEOMETRIC_REPRESENTATION_CONTEXT(3)
GLOBAL_UNCERTAINTY_ASSIGNED_CONTEXT((#223))
GLOBAL_UNIT_ASSIGNED_CONTEXT((#226,#229,#228))
REPRESENTATION_CONTEXT('','3D')
);
#226=(
LENGTH_UNIT()
NAMED_UNIT(*)
SI_UNIT(.MILLI.,.METRE.)
);
#227=(
LENGTH_UNIT()
NAMED_UNIT(*)
SI_UNIT($,.METRE.)
);
#228=(
NAMED_UNIT(*)
SI_UNIT($,.STERADIAN.)
SOLID_ANGLE_UNIT()
);
#229=(
NAMED_UNIT(*)
PLANE_ANGLE_UNIT()
SI_UNIT($,.RADIAN.)
);
#230=SHAPE_DEFINITION_REPRESENTATION(#231,#232);
#231=PRODUCT_DEFINITION_SHAPE('',$,#234);
#232=SHAPE_REPRESENTATION('',(#133),#224);
#233=PRODUCT_DEFINITION_CONTEXT('part definition',#238,'design');
#234=PRODUCT_DEFINITION('hub','hub v6',#235,#233);
#235=PRODUCT_DEFINITION_FORMATION('',$,#240);
#236=PRODUCT_RELATED_PRODUCT_CATEGORY('hub v6','hub v6',(#240));
#237=APPLICATION_PROTOCOL_DEFINITION('international standard',
'automotive_design',2009,#238);
#238=APPLICATION_CONTEXT(
'Core Data for Automotive Mechanical Design Process');
#239=PRODUCT_CONTEXT('part definition',#238,'mechanical');
#240=PRODUCT('hub','hub v6',$,(#239));
#241=PRESENTATION_STYLE_ASSIGNMENT((#242));
#242=SURFACE_STYLE_USAGE(.BOTH.,#243);
#243=SURFACE_SIDE_STYLE('',(#244));
#244=SURFACE_STYLE_FILL_AREA(#245);
#245=FILL_AREA_STYLE('Steel - Satin',(#246));
#246=FILL_AREA_STYLE_COLOUR('Steel - Satin',#247);
#247=COLOUR_RGB('Steel - Satin',0.627450980392157,0.627450980392157,0.627450980392157);
ENDSEC;
END-ISO-10303-21;
