ISO-10303-21;
HEADER;
FILE_DESCRIPTION (( 'STEP AP203' ),
    '1' );
FILE_NAME ('douille8-12.STEP',
    '2017-11-01T16:17:17',
    ( '' ),
    ( '' ),
    'SwSTEP 2.0',
    'SolidWorks 2016',
    '' );
FILE_SCHEMA (( 'CONFIG_CONTROL_DESIGN' ));
ENDSEC;

DATA;
#1 = CALENDAR_DATE ( 2017, 1, 11 ) ;
#2 = LINE ( 'NONE', #15, #79 ) ;
#3 = CIRCLE ( 'NONE', #134, 4.099999999999999600 ) ;
#4 = AXIS2_PLACEMENT_3D ( 'NONE', #198, #220, #17 ) ;
#5 = CALENDAR_DATE ( 2017, 1, 11 ) ;
#6 = DIRECTION ( 'NONE',  ( 0.0000000000000000000, 0.0000000000000000000, 1.000000000000000000 ) ) ;
#7 = ADVANCED_FACE ( 'NONE', ( #98 ), #119, .F. ) ;
#8 = LINE ( 'NONE', #152, #248 ) ;
#9 = CC_DESIGN_APPROVAL ( #36, ( #49 ) ) ;
#10 = DIRECTION ( 'NONE',  ( 1.000000000000000000, 0.0000000000000000000, 0.0000000000000000000 ) ) ;
#11 = CARTESIAN_POINT ( 'NONE',  ( 0.0000000000000000000, 0.0000000000000000000, 0.0000000000000000000 ) ) ;
#12 = DIRECTION ( 'NONE',  ( -1.000000000000000000, 0.0000000000000000000, 0.0000000000000000000 ) ) ;
#13 = CARTESIAN_POINT ( 'NONE',  ( -4.099999999999999600, 0.0000000000000000000, 81.20000000000000300 ) ) ;
#14 = EDGE_CURVE ( 'NONE', #177, #115, #91, .T. ) ;
#15 = CARTESIAN_POINT ( 'NONE',  ( -5.999999999999998200, 0.0000000000000000000, 81.20000000000000300 ) ) ;
#16 = APPROVAL_DATE_TIME ( #90, #156 ) ;
#17 = DIRECTION ( 'NONE',  ( 1.000000000000000000, 0.0000000000000000000, 0.0000000000000000000 ) ) ;
#18 = APPROVAL_STATUS ( 'not_yet_approved' ) ;
#19 = AXIS2_PLACEMENT_3D ( 'NONE', #130, #89, #219 ) ;
#20 = VECTOR ( 'NONE', #238, 1000.000000000000000 ) ;
#21 = ORIENTED_EDGE ( 'NONE', *, *, #66, .F. ) ;
#22 = APPROVAL ( #169, 'UNSPECIFIED' ) ;
#23 = COORDINATED_UNIVERSAL_TIME_OFFSET ( 1, 0, .AHEAD. ) ;
#24 = ORIENTED_EDGE ( 'NONE', *, *, #83, .F. ) ;
#25 = EDGE_CURVE ( 'NONE', #227, #240, #8, .T. ) ;
#26 = ORIENTED_EDGE ( 'NONE', *, *, #224, .F. ) ;
#27 = DIRECTION ( 'NONE',  ( 1.000000000000000000, 0.0000000000000000000, 0.0000000000000000000 ) ) ;
#28 = EDGE_LOOP ( 'NONE', ( #56, #184, #55, #139 ) ) ;
#29 = MECHANICAL_CONTEXT ( 'NONE', #142, 'mechanical' ) ;
#30 = DIRECTION ( 'NONE',  ( -0.0000000000000000000, -0.0000000000000000000, -1.000000000000000000 ) ) ;
#31 = ORIENTED_EDGE ( 'NONE', *, *, #168, .T. ) ;
#32 = CC_DESIGN_SECURITY_CLASSIFICATION ( #151, ( #77 ) ) ;
#33 = PERSON_AND_ORGANIZATION ( #207, #124 ) ;
#34 = ORIENTED_EDGE ( 'NONE', *, *, #145, .F. ) ;
#35 = DIRECTION ( 'NONE',  ( -1.000000000000000000, 0.0000000000000000000, 0.0000000000000000000 ) ) ;
#36 = APPROVAL ( #18, 'UNSPECIFIED' ) ;
#37 = EDGE_LOOP ( 'NONE', ( #243, #34 ) ) ;
#38 = PRODUCT_DEFINITION_SHAPE ( 'NONE', 'NONE',  #49 ) ;
#39 = ORIENTED_EDGE ( 'NONE', *, *, #191, .F. ) ;
#40 = CC_DESIGN_DATE_AND_TIME_ASSIGNMENT ( #234, #71, ( #49 ) ) ;
#41 = AXIS2_PLACEMENT_3D ( 'NONE', #94, #110, #233 ) ;
#42 = VERTEX_POINT ( 'NONE', #193 ) ;
#43 = AXIS2_PLACEMENT_3D ( 'NONE', #249, #117, #27 ) ;
#44 = DIRECTION ( 'NONE',  ( 0.0000000000000000000, 0.0000000000000000000, 1.000000000000000000 ) ) ;
#45 = PERSON_AND_ORGANIZATION ( #207, #124 ) ;
#46 = LINE ( 'NONE', #135, #20 ) ;
#47 = APPLICATION_PROTOCOL_DEFINITION ( 'international standard', 'config_control_design', 1994, #57 ) ;
#48 = APPROVAL_PERSON_ORGANIZATION ( #105, #156, #106 ) ;
#49 = PRODUCT_DEFINITION ( 'UNKNOWN', '', #77, #140 ) ;
#50 = DATE_TIME_ROLE ( 'classification_date' ) ;
#51 = CARTESIAN_POINT ( 'NONE',  ( -5.999999999999998200, 0.0000000000000000000, 81.20000000000000300 ) ) ;
#52 = APPROVAL_DATE_TIME ( #242, #22 ) ;
#53 = FACE_OUTER_BOUND ( 'NONE', #172, .T. ) ;
#54 = DIRECTION ( 'NONE',  ( -0.0000000000000000000, -0.0000000000000000000, -1.000000000000000000 ) ) ;
#55 = ORIENTED_EDGE ( 'NONE', *, *, #191, .T. ) ;
#56 = ORIENTED_EDGE ( 'NONE', *, *, #95, .F. ) ;
#57 = APPLICATION_CONTEXT ( 'configuration controlled 3d designs of mechanical parts and assemblies' ) ;
#58 = ORIENTED_EDGE ( 'NONE', *, *, #14, .F. ) ;
#59 = EDGE_LOOP ( 'NONE', ( #136, #239 ) ) ;
#60 = CYLINDRICAL_SURFACE ( 'NONE', #19, 4.099999999999999600 ) ;
#61 = CC_DESIGN_PERSON_AND_ORGANIZATION_ASSIGNMENT ( #111, #86, ( #137 ) ) ;
#62 = APPROVAL_PERSON_ORGANIZATION ( #45, #36, #211 ) ;
#63 = CYLINDRICAL_SURFACE ( 'NONE', #159, 5.999999999999998200 ) ;
#64 = DIRECTION ( 'NONE',  ( 1.000000000000000000, 0.0000000000000000000, 0.0000000000000000000 ) ) ;
#65 = PERSON_AND_ORGANIZATION_ROLE ( 'classification_officer' ) ;
#66 = EDGE_CURVE ( 'NONE', #42, #240, #206, .T. ) ;
#67 = CIRCLE ( 'NONE', #141, 5.999999999999998200 ) ;
#68 = EDGE_LOOP ( 'NONE', ( #158, #185, #192, #24 ) ) ;
#69 = DIRECTION ( 'NONE',  ( 1.000000000000000000, 0.0000000000000000000, 0.0000000000000000000 ) ) ;
#70 = ADVANCED_FACE ( 'NONE', ( #232 ), #63, .T. ) ;
#71 = DATE_TIME_ROLE ( 'creation_date' ) ;
#72 = AXIS2_PLACEMENT_3D ( 'NONE', #148, #236, #35 ) ;
#73 = ORIENTED_EDGE ( 'NONE', *, *, #66, .T. ) ;
#74 = DIRECTION ( 'NONE',  ( 1.000000000000000000, 0.0000000000000000000, -0.0000000000000000000 ) ) ;
#75 = CIRCLE ( 'NONE', #180, 5.999999999999998200 ) ;
#76 = DIRECTION ( 'NONE',  ( 1.000000000000000000, 0.0000000000000000000, 0.0000000000000000000 ) ) ;
#77 = PRODUCT_DEFINITION_FORMATION_WITH_SPECIFIED_SOURCE ( 'ANY', '', #137, .NOT_KNOWN. ) ;
#78 = AXIS2_PLACEMENT_3D ( 'NONE', #186, #165, #69 ) ;
#79 = VECTOR ( 'NONE', #153, 1000.000000000000000 ) ;
#80 = CALENDAR_DATE ( 2017, 1, 11 ) ;
#81 = EDGE_LOOP ( 'NONE', ( #21, #39 ) ) ;
#82 = CLOSED_SHELL ( 'NONE', ( #87, #189, #167, #104, #70, #7 ) ) ;
#83 = EDGE_CURVE ( 'NONE', #245, #115, #209, .T. ) ;
#84 = CARTESIAN_POINT ( 'NONE',  ( -4.099999999999999600, 0.0000000000000000000, 81.20000000000000300 ) ) ;
#85 = COORDINATED_UNIVERSAL_TIME_OFFSET ( 1, 0, .AHEAD. ) ;
#86 = PERSON_AND_ORGANIZATION_ROLE ( 'design_owner' ) ;
#87 = ADVANCED_FACE ( 'NONE', ( #203 ), #60, .F. ) ;
#88 = ORIENTED_EDGE ( 'NONE', *, *, #83, .T. ) ;
#89 = DIRECTION ( 'NONE',  ( -0.0000000000000000000, -0.0000000000000000000, -1.000000000000000000 ) ) ;
#90 = DATE_AND_TIME ( #80, #114 ) ;
#91 = CIRCLE ( 'NONE', #205, 4.099999999999999600 ) ;
#92 = DIRECTION ( 'NONE',  ( 1.000000000000000000, 0.0000000000000000000, 0.0000000000000000000 ) ) ;
#93 = DIRECTION ( 'NONE',  ( 0.0000000000000000000, 0.0000000000000000000, 1.000000000000000000 ) ) ;
#94 = CARTESIAN_POINT ( 'NONE',  ( 0.0000000000000000000, 0.0000000000000000000, 0.0000000000000000000 ) ) ;
#95 = EDGE_CURVE ( 'NONE', #227, #143, #75, .T. ) ;
#96 = COORDINATED_UNIVERSAL_TIME_OFFSET ( 1, 0, .AHEAD. ) ;
#97 = VERTEX_POINT ( 'NONE', #195 ) ;
#98 = FACE_OUTER_BOUND ( 'NONE', #163, .T. ) ;
#99 = LOCAL_TIME ( 17, 17, 17.00000000000000000, #23 ) ;
#100 = CIRCLE ( 'NONE', #4, 4.099999999999999600 ) ;
#101 =( LENGTH_UNIT ( ) NAMED_UNIT ( * ) SI_UNIT ( .MILLI., .METRE. ) );
#102 = CARTESIAN_POINT ( 'NONE',  ( 5.999999999999998200, 7.347880794884117800E-016, 0.0000000000000000000 ) ) ;
#103 = CC_DESIGN_APPROVAL ( #22, ( #77 ) ) ;
#104 = ADVANCED_FACE ( 'NONE', ( #210, #212 ), #173, .F. ) ;
#105 = PERSON_AND_ORGANIZATION ( #207, #124 ) ;
#106 = APPROVAL_ROLE ( '' ) ;
#107 = APPROVAL_STATUS ( 'not_yet_approved' ) ;
#108 = AXIS2_PLACEMENT_3D ( 'NONE', #11, #6, #10 ) ;
#109 = LOCAL_TIME ( 17, 17, 17.00000000000000000, #96 ) ;
#110 = DIRECTION ( 'NONE',  ( 0.0000000000000000000, 0.0000000000000000000, 1.000000000000000000 ) ) ;
#111 = PERSON_AND_ORGANIZATION ( #207, #124 ) ;
#112 = DIRECTION ( 'NONE',  ( 1.000000000000000000, 0.0000000000000000000, 0.0000000000000000000 ) ) ;
#113 = CARTESIAN_POINT ( 'NONE',  ( 0.0000000000000000000, 0.0000000000000000000, 0.0000000000000000000 ) ) ;
#114 = LOCAL_TIME ( 17, 17, 17.00000000000000000, #154 ) ;
#115 = VERTEX_POINT ( 'NONE', #241 ) ;
#116 = CARTESIAN_POINT ( 'NONE',  ( 0.0000000000000000000, 0.0000000000000000000, 81.20000000000000300 ) ) ;
#117 = DIRECTION ( 'NONE',  ( 0.0000000000000000000, 0.0000000000000000000, 1.000000000000000000 ) ) ;
#118 = FACE_OUTER_BOUND ( 'NONE', #28, .T. ) ;
#119 = CYLINDRICAL_SURFACE ( 'NONE', #194, 4.099999999999999600 ) ;
#120 = CYLINDRICAL_SURFACE ( 'NONE', #72, 5.999999999999998200 ) ;
#121 = CC_DESIGN_PERSON_AND_ORGANIZATION_ASSIGNMENT ( #187, #225, ( #77 ) ) ;
#122 = PERSON_AND_ORGANIZATION_ROLE ( 'creator' ) ;
#123 = LOCAL_TIME ( 17, 17, 17.00000000000000000, #149 ) ;
#124 = ORGANIZATION ( 'UNSPECIFIED', 'UNSPECIFIED', '' ) ;
#125 = DIRECTION ( 'NONE',  ( 0.0000000000000000000, 0.0000000000000000000, 1.000000000000000000 ) ) ;
#126 = CARTESIAN_POINT ( 'NONE',  ( 0.0000000000000000000, 0.0000000000000000000, 81.20000000000000300 ) ) ;
#127 =( GEOMETRIC_REPRESENTATION_CONTEXT ( 3 ) GLOBAL_UNCERTAINTY_ASSIGNED_CONTEXT ( ( #230 ) ) GLOBAL_UNIT_ASSIGNED_CONTEXT ( ( #101, #175, #132 ) ) REPRESENTATION_CONTEXT ( 'NONE', 'WORKASPACE' ) );
#128 = CARTESIAN_POINT ( 'NONE',  ( 0.0000000000000000000, 0.0000000000000000000, 81.20000000000000300 ) ) ;
#129 = PERSON_AND_ORGANIZATION_ROLE ( 'design_supplier' ) ;
#130 = CARTESIAN_POINT ( 'NONE',  ( 0.0000000000000000000, 0.0000000000000000000, 81.20000000000000300 ) ) ;
#131 = SHAPE_DEFINITION_REPRESENTATION ( #38, #161 ) ;
#132 =( NAMED_UNIT ( * ) SI_UNIT ( $, .STERADIAN. ) SOLID_ANGLE_UNIT ( ) );
#133 = FACE_BOUND ( 'NONE', #37, .T. ) ;
#134 = AXIS2_PLACEMENT_3D ( 'NONE', #128, #213, #92 ) ;
#135 = CARTESIAN_POINT ( 'NONE',  ( 4.099999999999999600, 5.021051876504147400E-016, 81.20000000000000300 ) ) ;
#136 = ORIENTED_EDGE ( 'NONE', *, *, #208, .T. ) ;
#137 = PRODUCT ( 'douille8-12', 'douille8-12', '', ( #29 ) ) ;
#138 = CALENDAR_DATE ( 2017, 1, 11 ) ;
#139 = ORIENTED_EDGE ( 'NONE', *, *, #168, .F. ) ;
#140 = DESIGN_CONTEXT ( 'detailed design', #57, 'design' ) ;
#141 = AXIS2_PLACEMENT_3D ( 'NONE', #164, #44, #64 ) ;
#142 = APPLICATION_CONTEXT ( 'configuration controlled 3d designs of mechanical parts and assemblies' ) ;
#143 = VERTEX_POINT ( 'NONE', #51 ) ;
#144 = APPROVAL_ROLE ( '' ) ;
#145 = EDGE_CURVE ( 'NONE', #97, #245, #3, .T. ) ;
#146 = DIRECTION ( 'NONE',  ( -1.000000000000000000, 0.0000000000000000000, 0.0000000000000000000 ) ) ;
#147 = ORIENTED_EDGE ( 'NONE', *, *, #25, .F. ) ;
#148 = CARTESIAN_POINT ( 'NONE',  ( 0.0000000000000000000, 0.0000000000000000000, 81.20000000000000300 ) ) ;
#149 = COORDINATED_UNIVERSAL_TIME_OFFSET ( 1, 0, .AHEAD. ) ;
#150 = EDGE_LOOP ( 'NONE', ( #147, #218, #31, #73 ) ) ;
#151 = SECURITY_CLASSIFICATION ( '', '', #200 ) ;
#152 = CARTESIAN_POINT ( 'NONE',  ( 5.999999999999998200, 7.347880794884117800E-016, 81.20000000000000300 ) ) ;
#153 = DIRECTION ( 'NONE',  ( -0.0000000000000000000, -0.0000000000000000000, -1.000000000000000000 ) ) ;
#154 = COORDINATED_UNIVERSAL_TIME_OFFSET ( 1, 0, .AHEAD. ) ;
#155 = EDGE_CURVE ( 'NONE', #245, #97, #100, .T. ) ;
#156 = APPROVAL ( #107, 'UNSPECIFIED' ) ;
#157 = APPROVAL_DATE_TIME ( #204, #36 ) ;
#158 = ORIENTED_EDGE ( 'NONE', *, *, #155, .T. ) ;
#159 = AXIS2_PLACEMENT_3D ( 'NONE', #223, #215, #12 ) ;
#160 = ORIENTED_EDGE ( 'NONE', *, *, #228, .T. ) ;
#161 = ADVANCED_BREP_SHAPE_REPRESENTATION ( 'douille8-12', ( #170, #78 ), #127 ) ;
#162 = PERSON_AND_ORGANIZATION ( #207, #124 ) ;
#163 = EDGE_LOOP ( 'NONE', ( #26, #188, #88, #58 ) ) ;
#164 = CARTESIAN_POINT ( 'NONE',  ( 0.0000000000000000000, 0.0000000000000000000, 81.20000000000000300 ) ) ;
#165 = DIRECTION ( 'NONE',  ( 0.0000000000000000000, 0.0000000000000000000, 1.000000000000000000 ) ) ;
#166 = DIRECTION ( 'NONE',  ( 1.000000000000000000, 0.0000000000000000000, 0.0000000000000000000 ) ) ;
#167 = ADVANCED_FACE ( 'NONE', ( #53, #133 ), #174, .T. ) ;
#168 = EDGE_CURVE ( 'NONE', #143, #42, #2, .T. ) ;
#169 = APPROVAL_STATUS ( 'not_yet_approved' ) ;
#170 = MANIFOLD_SOLID_BREP ( 'Boss.-Extru.1', #82 ) ;
#171 = CALENDAR_DATE ( 2017, 1, 11 ) ;
#172 = EDGE_LOOP ( 'NONE', ( #160, #221 ) ) ;
#173 = PLANE ( 'NONE',  #41 ) ;
#174 = PLANE ( 'NONE',  #214 ) ;
#175 =( NAMED_UNIT ( * ) PLANE_ANGLE_UNIT ( ) SI_UNIT ( $, .RADIAN. ) );
#176 = CIRCLE ( 'NONE', #43, 4.099999999999999600 ) ;
#177 = VERTEX_POINT ( 'NONE', #178 ) ;
#178 = CARTESIAN_POINT ( 'NONE',  ( 4.099999999999999600, 5.021051876504147400E-016, 0.0000000000000000000 ) ) ;
#179 = LOCAL_TIME ( 17, 17, 17.00000000000000000, #85 ) ;
#180 = AXIS2_PLACEMENT_3D ( 'NONE', #237, #125, #112 ) ;
#181 = CC_DESIGN_PERSON_AND_ORGANIZATION_ASSIGNMENT ( #226, #122, ( #49 ) ) ;
#182 = PERSON_AND_ORGANIZATION ( #207, #124 ) ;
#183 = AXIS2_PLACEMENT_3D ( 'NONE', #247, #93, #76 ) ;
#184 = ORIENTED_EDGE ( 'NONE', *, *, #25, .T. ) ;
#185 = ORIENTED_EDGE ( 'NONE', *, *, #224, .T. ) ;
#186 = CARTESIAN_POINT ( 'NONE',  ( 0.0000000000000000000, 0.0000000000000000000, 0.0000000000000000000 ) ) ;
#187 = PERSON_AND_ORGANIZATION ( #207, #124 ) ;
#188 = ORIENTED_EDGE ( 'NONE', *, *, #145, .T. ) ;
#189 = ADVANCED_FACE ( 'NONE', ( #118 ), #120, .T. ) ;
#190 = PRODUCT_RELATED_PRODUCT_CATEGORY ( 'detail', '', ( #137 ) ) ;
#191 = EDGE_CURVE ( 'NONE', #240, #42, #196, .T. ) ;
#192 = ORIENTED_EDGE ( 'NONE', *, *, #208, .F. ) ;
#193 = CARTESIAN_POINT ( 'NONE',  ( -5.999999999999998200, 0.0000000000000000000, 0.0000000000000000000 ) ) ;
#194 = AXIS2_PLACEMENT_3D ( 'NONE', #126, #54, #146 ) ;
#195 = CARTESIAN_POINT ( 'NONE',  ( 4.099999999999999600, 5.021051876504147400E-016, 81.20000000000000300 ) ) ;
#196 = CIRCLE ( 'NONE', #183, 5.999999999999998200 ) ;
#197 = CC_DESIGN_DATE_AND_TIME_ASSIGNMENT ( #201, #50, ( #151 ) ) ;
#198 = CARTESIAN_POINT ( 'NONE',  ( 0.0000000000000000000, 0.0000000000000000000, 81.20000000000000300 ) ) ;
#199 = DIRECTION ( 'NONE',  ( 0.0000000000000000000, 0.0000000000000000000, 1.000000000000000000 ) ) ;
#200 = SECURITY_CLASSIFICATION_LEVEL ( 'unclassified' ) ;
#201 = DATE_AND_TIME ( #138, #179 ) ;
#202 = CC_DESIGN_PERSON_AND_ORGANIZATION_ASSIGNMENT ( #33, #65, ( #151 ) ) ;
#203 = FACE_OUTER_BOUND ( 'NONE', #68, .T. ) ;
#204 = DATE_AND_TIME ( #5, #99 ) ;
#205 = AXIS2_PLACEMENT_3D ( 'NONE', #113, #231, #166 ) ;
#206 = CIRCLE ( 'NONE', #108, 5.999999999999998200 ) ;
#207 = PERSON ( 'UNSPECIFIED', 'UNSPECIFIED', 'UNSPECIFIED', ('UNSPECIFIED'), ('UNSPECIFIED'), ('UNSPECIFIED') ) ;
#208 = EDGE_CURVE ( 'NONE', #115, #177, #176, .T. ) ;
#209 = LINE ( 'NONE', #13, #235 ) ;
#210 = FACE_OUTER_BOUND ( 'NONE', #81, .T. ) ;
#211 = APPROVAL_ROLE ( '' ) ;
#212 = FACE_BOUND ( 'NONE', #59, .T. ) ;
#213 = DIRECTION ( 'NONE',  ( 0.0000000000000000000, 0.0000000000000000000, 1.000000000000000000 ) ) ;
#214 = AXIS2_PLACEMENT_3D ( 'NONE', #116, #199, #74 ) ;
#215 = DIRECTION ( 'NONE',  ( -0.0000000000000000000, -0.0000000000000000000, -1.000000000000000000 ) ) ;
#216 = CC_DESIGN_APPROVAL ( #156, ( #151 ) ) ;
#217 = APPROVAL_PERSON_ORGANIZATION ( #182, #22, #144 ) ;
#218 = ORIENTED_EDGE ( 'NONE', *, *, #228, .F. ) ;
#219 = DIRECTION ( 'NONE',  ( -1.000000000000000000, 0.0000000000000000000, 0.0000000000000000000 ) ) ;
#220 = DIRECTION ( 'NONE',  ( 0.0000000000000000000, 0.0000000000000000000, 1.000000000000000000 ) ) ;
#221 = ORIENTED_EDGE ( 'NONE', *, *, #95, .T. ) ;
#222 = CC_DESIGN_PERSON_AND_ORGANIZATION_ASSIGNMENT ( #162, #129, ( #77 ) ) ;
#223 = CARTESIAN_POINT ( 'NONE',  ( 0.0000000000000000000, 0.0000000000000000000, 81.20000000000000300 ) ) ;
#224 = EDGE_CURVE ( 'NONE', #97, #177, #46, .T. ) ;
#225 = PERSON_AND_ORGANIZATION_ROLE ( 'creator' ) ;
#226 = PERSON_AND_ORGANIZATION ( #207, #124 ) ;
#227 = VERTEX_POINT ( 'NONE', #246 ) ;
#228 = EDGE_CURVE ( 'NONE', #143, #227, #67, .T. ) ;
#229 = DIRECTION ( 'NONE',  ( -0.0000000000000000000, -0.0000000000000000000, -1.000000000000000000 ) ) ;
#230 = UNCERTAINTY_MEASURE_WITH_UNIT (LENGTH_MEASURE( 1.000000000000000100E-005 ), #101, 'distance_accuracy_value', 'NONE');
#231 = DIRECTION ( 'NONE',  ( 0.0000000000000000000, 0.0000000000000000000, 1.000000000000000000 ) ) ;
#232 = FACE_OUTER_BOUND ( 'NONE', #150, .T. ) ;
#233 = DIRECTION ( 'NONE',  ( 1.000000000000000000, 0.0000000000000000000, -0.0000000000000000000 ) ) ;
#234 = DATE_AND_TIME ( #171, #123 ) ;
#235 = VECTOR ( 'NONE', #30, 1000.000000000000000 ) ;
#236 = DIRECTION ( 'NONE',  ( -0.0000000000000000000, -0.0000000000000000000, -1.000000000000000000 ) ) ;
#237 = CARTESIAN_POINT ( 'NONE',  ( 0.0000000000000000000, 0.0000000000000000000, 81.20000000000000300 ) ) ;
#238 = DIRECTION ( 'NONE',  ( -0.0000000000000000000, -0.0000000000000000000, -1.000000000000000000 ) ) ;
#239 = ORIENTED_EDGE ( 'NONE', *, *, #14, .T. ) ;
#240 = VERTEX_POINT ( 'NONE', #102 ) ;
#241 = CARTESIAN_POINT ( 'NONE',  ( -4.099999999999999600, 0.0000000000000000000, 0.0000000000000000000 ) ) ;
#242 = DATE_AND_TIME ( #1, #109 ) ;
#243 = ORIENTED_EDGE ( 'NONE', *, *, #155, .F. ) ;
#244 = APPLICATION_PROTOCOL_DEFINITION ( 'international standard', 'config_control_design', 1994, #142 ) ;
#245 = VERTEX_POINT ( 'NONE', #84 ) ;
#246 = CARTESIAN_POINT ( 'NONE',  ( 5.999999999999998200, 7.347880794884117800E-016, 81.20000000000000300 ) ) ;
#247 = CARTESIAN_POINT ( 'NONE',  ( 0.0000000000000000000, 0.0000000000000000000, 0.0000000000000000000 ) ) ;
#248 = VECTOR ( 'NONE', #229, 1000.000000000000000 ) ;
#249 = CARTESIAN_POINT ( 'NONE',  ( 0.0000000000000000000, 0.0000000000000000000, 0.0000000000000000000 ) ) ;
ENDSEC;
END-ISO-10303-21;
