  0
SECTION
  2
HEADER
  9
$ACADVER
  1
AC1009
  9
$INSBASE
 10
0.0
 20
0.0
 30
0.0
  9
$EXTMIN
 10
0.0
 20
0.0
 30
0.0
  9
$EXTMAX
 10
0.0
 20
0.0
 30
0.0
  0
ENDSEC
  0
SECTION
  2
TABLES
  0
TABLE
  2
VPORT
 70
0
  0
ENDTAB
  0
TABLE
  2
LTYPE
 70
1
  0
LTYPE
  2
CONTINUOUS
 70
0
  3
Solid line
 72
65
 73
0
 40
0.0
  0
ENDTAB
  0
TABLE
  2
LAYER
 70
1
  0
LAYER
  2
0
 70
64
 62
7
  6
continuous
  0
ENDTAB
  0
TABLE
  2
STYLE
 70
1
  0
STYLE
  2
STANDARD
 70
0
 40
0
 41
1.0
 50
0.0
 71
0
 42
1
 3
ARIAL.TTF
 4

  0
ENDTAB
  0
TABLE
  2
VIEW
 70
0
  0
ENDTAB
  0
ENDSEC
  0
SECTION
  2
BLOCKS
  0
BLOCK
  8
0
  2
CUT
 70
0
 10
0.0
 20
0.0
 30
0.0
  3
CUT
  0
POLYLINE
  8
0
 62
0
 70
0
 66
1
 10
0.0
 20
0.0
 30
0.0
  0
VERTEX
  8
0
 10
39.5
 20
1.83186799063e-14
 30
0.0
  0
VERTEX
  8
0
 10
39.45
 20
1.83168094427e-14
 30
0.0
  0
VERTEX
  8
0
 10
39.4
 20
1.83149389791e-14
 30
0.0
  0
VERTEX
  8
0
 10
39.35
 20
1.83130685154e-14
 30
0.0
  0
VERTEX
  8
0
 10
39.3
 20
1.8308769329e-14
 30
0.0
  0
VERTEX
  8
0
 10
39.25
 20
1.83031102946e-14
 30
0.0
  0
VERTEX
  8
0
 10
39.2
 20
1.82974512602e-14
 30
0.0
  0
VERTEX
  8
0
 10
39.15
 20
1.82905153492e-14
 30
0.0
  0
VERTEX
  8
0
 10
39.1
 20
1.82809198569e-14
 30
0.0
  0
VERTEX
  8
0
 10
39.05
 20
1.82713243646e-14
 30
0.0
  0
VERTEX
  8
0
 10
39.0
 20
1.826134398e-14
 30
0.0
  0
VERTEX
  8
0
 10
38.95
 20
1.8247547897e-14
 30
0.0
  0
VERTEX
  8
0
 10
38.9
 20
1.82337518139e-14
 30
0.0
  0
VERTEX
  8
0
 10
38.85
 20
1.82199557309e-14
 30
0.0
  0
VERTEX
  8
0
 10
38.8
 20
1.82016239257e-14
 30
0.0
  0
VERTEX
  8
0
 10
38.75
 20
1.81832159684e-14
 30
0.0
  0
VERTEX
  8
0
 10
38.7
 20
1.81646040625e-14
 30
0.0
  0
VERTEX
  8
0
 10
38.65
 20
1.81409717052e-14
 30
0.0
  0
VERTEX
  8
0
 10
38.6
 20
1.81173393478e-14
 30
0.0
  0
VERTEX
  8
0
 10
38.55
 20
1.80918960795e-14
 30
0.0
  0
VERTEX
  8
0
 10
38.5
 20
1.80621314009e-14
 30
0.0
  0
VERTEX
  8
0
 10
38.45
 20
1.80323667223e-14
 30
0.0
  0
VERTEX
  8
0
 10
38.4
 20
1.7996696722e-14
 30
0.0
  0
VERTEX
  8
0
 10
38.35
 20
1.79594265179e-14
 30
0.0
  0
VERTEX
  8
0
 10
38.3
 20
1.79168849817e-14
 30
0.0
  0
VERTEX
  8
0
 10
38.25
 20
1.7869943594e-14
 30
0.0
  0
VERTEX
  8
0
 10
38.2
 20
1.78150316819e-14
 30
0.0
  0
VERTEX
  8
0
 10
38.15
 20
1.77547677629e-14
 30
0.0
  0
VERTEX
  8
0
 10
38.1
 20
1.76749438496e-14
 30
0.0
  0
VERTEX
  8
0
 10
38.05
 20
1.75704747601e-14
 30
0.0
  0
VERTEX
  8
0
 10
38.0
 20
1.73194791842e-14
 30
0.0
  0
SEQEND
  8
0
  0
POLYLINE
  8
0
 62
0
 70
0
 66
1
 10
0.0
 20
0.0
 30
0.0
  0
VERTEX
  8
0
 10
39.5
 20
2.32314167903e-14
 30
0.0
  0
VERTEX
  8
0
 10
39.45
 20
2.32295463267e-14
 30
0.0
  0
VERTEX
  8
0
 10
39.4
 20
2.3227521965e-14
 30
0.0
  0
VERTEX
  8
0
 10
39.35
 20
2.32218629306e-14
 30
0.0
  0
VERTEX
  8
0
 10
39.3
 20
2.32157870897e-14
 30
0.0
  0
VERTEX
  8
0
 10
39.25
 20
2.32061915974e-14
 30
0.0
  0
VERTEX
  8
0
 10
39.2
 20
2.31956714861e-14
 30
0.0
  0
VERTEX
  8
0
 10
39.15
 20
2.31818754031e-14
 30
0.0
  0
VERTEX
  8
0
 10
39.1
 20
2.31662021278e-14
 30
0.0
  0
VERTEX
  8
0
 10
39.05
 20
2.31477941705e-14
 30
0.0
  0
VERTEX
  8
0
 10
39.0
 20
2.31257843098e-14
 30
0.0
  0
VERTEX
  8
0
 10
38.95
 20
2.31016066145e-14
 30
0.0
  0
VERTEX
  8
0
 10
38.9
 20
2.30718419359e-14
 30
0.0
  0
VERTEX
  8
0
 10
38.85
 20
2.30373815654e-14
 30
0.0
  0
VERTEX
  8
0
 10
38.8
 20
2.29970364176e-14
 30
0.0
  0
VERTEX
  8
0
 10
38.75
 20
2.29476659792e-14
 30
0.0
  0
VERTEX
  8
0
 10
38.7
 20
2.28827072454e-14
 30
0.0
  0
VERTEX
  8
0
 10
38.65
 20
2.27853296149e-14
 30
0.0
  0
VERTEX
  8
0
 10
38.625
 20
2.26485497024e-14
 30
0.0
  0
SEQEND
  8
0
  0
POLYLINE
  8
0
 62
0
 70
0
 66
1
 10
0.0
 20
0.0
 30
0.0
  0
VERTEX
  8
0
 10
33.125
 20
2.63122856836e-14
 30
0.0
  0
VERTEX
  8
0
 10
33.175
 20
2.61291640417e-14
 30
0.0
  0
VERTEX
  8
0
 10
33.225
 20
2.60452385598e-14
 30
0.0
  0
VERTEX
  8
0
 10
33.275
 20
2.59922312651e-14
 30
0.0
  0
VERTEX
  8
0
 10
33.325
 20
2.5942810484e-14
 30
0.0
  0
VERTEX
  8
0
 10
33.375
 20
2.59095037933e-14
 30
0.0
  0
VERTEX
  8
0
 10
33.425
 20
2.58761971025e-14
 30
0.0
  0
VERTEX
  8
0
 10
33.475
 20
2.5847978947e-14
 30
0.0
  0
VERTEX
  8
0
 10
33.525
 20
2.58270509662e-14
 30
0.0
  0
VERTEX
  8
0
 10
33.575
 20
2.58061229853e-14
 30
0.0
  0
VERTEX
  8
0
 10
33.625
 20
2.57860571162e-14
 30
0.0
  0
VERTEX
  8
0
 10
33.675
 20
2.57744026011e-14
 30
0.0
  0
VERTEX
  8
0
 10
33.725
 20
2.57627480859e-14
 30
0.0
  0
VERTEX
  8
0
 10
33.775
 20
2.57510935707e-14
 30
0.0
  0
VERTEX
  8
0
 10
33.825
 20
2.57425532654e-14
 30
0.0
  0
VERTEX
  8
0
 10
33.875
 20
2.57388005026e-14
 30
0.0
  0
VERTEX
  8
0
 10
33.925
 20
2.57350477398e-14
 30
0.0
  0
VERTEX
  8
0
 10
33.975
 20
2.57312949771e-14
 30
0.0
  0
VERTEX
  8
0
 10
34.025
 20
2.57312949771e-14
 30
0.0
  0
VERTEX
  8
0
 10
34.075
 20
2.57350477398e-14
 30
0.0
  0
VERTEX
  8
0
 10
34.125
 20
2.57388005026e-14
 30
0.0
  0
VERTEX
  8
0
 10
34.175
 20
2.57425532654e-14
 30
0.0
  0
VERTEX
  8
0
 10
34.225
 20
2.57510935707e-14
 30
0.0
  0
VERTEX
  8
0
 10
34.275
 20
2.57627480859e-14
 30
0.0
  0
VERTEX
  8
0
 10
34.325
 20
2.57744026011e-14
 30
0.0
  0
VERTEX
  8
0
 10
34.375
 20
2.57860571162e-14
 30
0.0
  0
VERTEX
  8
0
 10
34.425
 20
2.58061229853e-14
 30
0.0
  0
VERTEX
  8
0
 10
34.475
 20
2.58270509662e-14
 30
0.0
  0
VERTEX
  8
0
 10
34.525
 20
2.5847978947e-14
 30
0.0
  0
VERTEX
  8
0
 10
34.575
 20
2.58761971025e-14
 30
0.0
  0
VERTEX
  8
0
 10
34.625
 20
2.59095037933e-14
 30
0.0
  0
VERTEX
  8
0
 10
34.675
 20
2.5942810484e-14
 30
0.0
  0
VERTEX
  8
0
 10
34.725
 20
2.59922312651e-14
 30
0.0
  0
VERTEX
  8
0
 10
34.775
 20
2.60452385598e-14
 30
0.0
  0
VERTEX
  8
0
 10
34.825
 20
2.61291640417e-14
 30
0.0
  0
VERTEX
  8
0
 10
34.875
 20
2.63122856836e-14
 30
0.0
  0
SEQEND
  8
0
  0
POLYLINE
  8
0
 62
0
 70
0
 66
1
 10
0.0
 20
0.0
 30
0.0
  0
VERTEX
  8
0
 10
24.5
 20
2.63122856836e-14
 30
0.0
  0
VERTEX
  8
0
 10
24.55
 20
2.60663521928e-14
 30
0.0
  0
VERTEX
  8
0
 10
24.6
 20
2.59711671393e-14
 30
0.0
  0
VERTEX
  8
0
 10
24.65
 20
2.58772080262e-14
 30
0.0
  0
VERTEX
  8
0
 10
24.7
 20
2.58242007315e-14
 30
0.0
  0
VERTEX
  8
0
 10
24.75
 20
2.57711934369e-14
 30
0.0
  0
VERTEX
  8
0
 10
24.8
 20
2.57181861422e-14
 30
0.0
  0
VERTEX
  8
0
 10
24.85
 20
2.56741415284e-14
 30
0.0
  0
VERTEX
  8
0
 10
24.9
 20
2.56408348377e-14
 30
0.0
  0
VERTEX
  8
0
 10
24.95
 20
2.5607528147e-14
 30
0.0
  0
VERTEX
  8
0
 10
25.0
 20
2.55742214562e-14
 30
0.0
  0
VERTEX
  8
0
 10
25.05
 20
2.55409147655e-14
 30
0.0
  0
VERTEX
  8
0
 10
25.1
 20
2.5516331278e-14
 30
0.0
  0
VERTEX
  8
0
 10
25.15
 20
2.54954032972e-14
 30
0.0
  0
VERTEX
  8
0
 10
25.2
 20
2.54744753163e-14
 30
0.0
  0
VERTEX
  8
0
 10
25.25
 20
2.54535473354e-14
 30
0.0
  0
VERTEX
  8
0
 10
25.3
 20
2.54326193546e-14
 30
0.0
  0
VERTEX
  8
0
 10
25.35
 20
2.54118444988e-14
 30
0.0
  0
VERTEX
  8
0
 10
25.4
 20
2.54001899836e-14
 30
0.0
  0
VERTEX
  8
0
 10
25.45
 20
2.53885354685e-14
 30
0.0
  0
VERTEX
  8
0
 10
25.5
 20
2.53768809533e-14
 30
0.0
  0
VERTEX
  8
0
 10
25.55
 20
2.53652264382e-14
 30
0.0
  0
VERTEX
  8
0
 10
25.6
 20
2.5353571923e-14
 30
0.0
  0
VERTEX
  8
0
 10
25.65
 20
2.53419174079e-14
 30
0.0
  0
VERTEX
  8
0
 10
25.7
 20
2.5335601538e-14
 30
0.0
  0
VERTEX
  8
0
 10
25.75
 20
2.53318487753e-14
 30
0.0
  0
VERTEX
  8
0
 10
25.8
 20
2.53280960125e-14
 30
0.0
  0
VERTEX
  8
0
 10
25.85
 20
2.53243432497e-14
 30
0.0
  0
VERTEX
  8
0
 10
25.9
 20
2.5320590487e-14
 30
0.0
  0
VERTEX
  8
0
 10
25.95
 20
2.53168377242e-14
 30
0.0
  0
VERTEX
  8
0
 10
26.0
 20
2.53130849615e-14
 30
0.0
  0
VERTEX
  8
0
 10
26.05
 20
2.53168377242e-14
 30
0.0
  0
VERTEX
  8
0
 10
26.1
 20
2.5320590487e-14
 30
0.0
  0
VERTEX
  8
0
 10
26.15
 20
2.53243432497e-14
 30
0.0
  0
VERTEX
  8
0
 10
26.2
 20
2.53280960125e-14
 30
0.0
  0
VERTEX
  8
0
 10
26.25
 20
2.53318487753e-14
 30
0.0
  0
VERTEX
  8
0
 10
26.3
 20
2.5335601538e-14
 30
0.0
  0
VERTEX
  8
0
 10
26.35
 20
2.53419174079e-14
 30
0.0
  0
VERTEX
  8
0
 10
26.4
 20
2.5353571923e-14
 30
0.0
  0
VERTEX
  8
0
 10
26.45
 20
2.53652264382e-14
 30
0.0
  0
VERTEX
  8
0
 10
26.5
 20
2.53768809533e-14
 30
0.0
  0
VERTEX
  8
0
 10
26.55
 20
2.53885354685e-14
 30
0.0
  0
VERTEX
  8
0
 10
26.6
 20
2.54001899836e-14
 30
0.0
  0
VERTEX
  8
0
 10
26.65
 20
2.54118444988e-14
 30
0.0
  0
VERTEX
  8
0
 10
26.7
 20
2.54326193546e-14
 30
0.0
  0
VERTEX
  8
0
 10
26.75
 20
2.54535473354e-14
 30
0.0
  0
VERTEX
  8
0
 10
26.8
 20
2.54744753163e-14
 30
0.0
  0
VERTEX
  8
0
 10
26.85
 20
2.54954032972e-14
 30
0.0
  0
VERTEX
  8
0
 10
26.9
 20
2.5516331278e-14
 30
0.0
  0
VERTEX
  8
0
 10
26.95
 20
2.55409147655e-14
 30
0.0
  0
VERTEX
  8
0
 10
27.0
 20
2.55742214562e-14
 30
0.0
  0
VERTEX
  8
0
 10
27.05
 20
2.5607528147e-14
 30
0.0
  0
VERTEX
  8
0
 10
27.1
 20
2.56408348377e-14
 30
0.0
  0
VERTEX
  8
0
 10
27.15
 20
2.56741415284e-14
 30
0.0
  0
VERTEX
  8
0
 10
27.2
 20
2.57181861422e-14
 30
0.0
  0
VERTEX
  8
0
 10
27.25
 20
2.57711934369e-14
 30
0.0
  0
VERTEX
  8
0
 10
27.3
 20
2.58242007315e-14
 30
0.0
  0
VERTEX
  8
0
 10
27.35
 20
2.58772080262e-14
 30
0.0
  0
VERTEX
  8
0
 10
27.4
 20
2.59711671393e-14
 30
0.0
  0
VERTEX
  8
0
 10
27.45
 20
2.60663521928e-14
 30
0.0
  0
VERTEX
  8
0
 10
27.5
 20
2.63122856836e-14
 30
0.0
  0
SEQEND
  8
0
  0
POLYLINE
  8
0
 62
0
 70
0
 66
1
 10
0.0
 20
0.0
 30
0.0
  0
VERTEX
  8
0
 10
33.125
 20
9.0
 30
0.0
  0
VERTEX
  8
0
 10
33.175
 20
9.0
 30
0.0
  0
VERTEX
  8
0
 10
33.225
 20
9.0
 30
0.0
  0
VERTEX
  8
0
 10
33.275
 20
9.0
 30
0.0
  0
VERTEX
  8
0
 10
33.325
 20
9.0
 30
0.0
  0
VERTEX
  8
0
 10
33.375
 20
9.0
 30
0.0
  0
VERTEX
  8
0
 10
33.425
 20
9.0
 30
0.0
  0
VERTEX
  8
0
 10
33.475
 20
9.0
 30
0.0
  0
VERTEX
  8
0
 10
33.525
 20
9.0
 30
0.0
  0
VERTEX
  8
0
 10
33.575
 20
9.0
 30
0.0
  0
VERTEX
  8
0
 10
33.625
 20
9.0
 30
0.0
  0
VERTEX
  8
0
 10
33.675
 20
9.0
 30
0.0
  0
VERTEX
  8
0
 10
33.725
 20
9.0
 30
0.0
  0
VERTEX
  8
0
 10
33.775
 20
9.0
 30
0.0
  0
VERTEX
  8
0
 10
33.825
 20
9.0
 30
0.0
  0
VERTEX
  8
0
 10
33.875
 20
9.0
 30
0.0
  0
VERTEX
  8
0
 10
33.925
 20
9.0
 30
0.0
  0
VERTEX
  8
0
 10
33.975
 20
9.0
 30
0.0
  0
VERTEX
  8
0
 10
34.025
 20
9.0
 30
0.0
  0
VERTEX
  8
0
 10
34.075
 20
9.0
 30
0.0
  0
VERTEX
  8
0
 10
34.125
 20
9.0
 30
0.0
  0
VERTEX
  8
0
 10
34.175
 20
9.0
 30
0.0
  0
VERTEX
  8
0
 10
34.225
 20
9.0
 30
0.0
  0
VERTEX
  8
0
 10
34.275
 20
9.0
 30
0.0
  0
VERTEX
  8
0
 10
34.325
 20
9.0
 30
0.0
  0
VERTEX
  8
0
 10
34.375
 20
9.0
 30
0.0
  0
VERTEX
  8
0
 10
34.425
 20
9.0
 30
0.0
  0
VERTEX
  8
0
 10
34.475
 20
9.0
 30
0.0
  0
VERTEX
  8
0
 10
34.525
 20
9.0
 30
0.0
  0
VERTEX
  8
0
 10
34.575
 20
9.0
 30
0.0
  0
VERTEX
  8
0
 10
34.625
 20
9.0
 30
0.0
  0
VERTEX
  8
0
 10
34.675
 20
9.0
 30
0.0
  0
VERTEX
  8
0
 10
34.725
 20
9.0
 30
0.0
  0
VERTEX
  8
0
 10
34.775
 20
9.0
 30
0.0
  0
VERTEX
  8
0
 10
34.825
 20
9.0
 30
0.0
  0
VERTEX
  8
0
 10
34.875
 20
9.0
 30
0.0
  0
SEQEND
  8
0
  0
POLYLINE
  8
0
 62
0
 70
0
 66
1
 10
0.0
 20
0.0
 30
0.0
  0
VERTEX
  8
0
 10
24.5
 20
9.0
 30
0.0
  0
VERTEX
  8
0
 10
24.55
 20
9.0
 30
0.0
  0
VERTEX
  8
0
 10
24.6
 20
9.0
 30
0.0
  0
VERTEX
  8
0
 10
24.65
 20
9.0
 30
0.0
  0
VERTEX
  8
0
 10
24.7
 20
9.0
 30
0.0
  0
VERTEX
  8
0
 10
24.75
 20
9.0
 30
0.0
  0
VERTEX
  8
0
 10
24.8
 20
9.0
 30
0.0
  0
VERTEX
  8
0
 10
24.85
 20
9.0
 30
0.0
  0
VERTEX
  8
0
 10
24.9
 20
9.0
 30
0.0
  0
VERTEX
  8
0
 10
24.95
 20
9.0
 30
0.0
  0
VERTEX
  8
0
 10
25.0
 20
9.0
 30
0.0
  0
VERTEX
  8
0
 10
25.05
 20
9.0
 30
0.0
  0
VERTEX
  8
0
 10
25.1
 20
9.0
 30
0.0
  0
VERTEX
  8
0
 10
25.15
 20
9.0
 30
0.0
  0
VERTEX
  8
0
 10
25.2
 20
9.0
 30
0.0
  0
VERTEX
  8
0
 10
25.25
 20
9.0
 30
0.0
  0
VERTEX
  8
0
 10
25.3
 20
9.0
 30
0.0
  0
VERTEX
  8
0
 10
25.35
 20
9.0
 30
0.0
  0
VERTEX
  8
0
 10
25.4
 20
9.0
 30
0.0
  0
VERTEX
  8
0
 10
25.45
 20
9.0
 30
0.0
  0
VERTEX
  8
0
 10
25.5
 20
9.0
 30
0.0
  0
VERTEX
  8
0
 10
25.55
 20
9.0
 30
0.0
  0
VERTEX
  8
0
 10
25.6
 20
9.0
 30
0.0
  0
VERTEX
  8
0
 10
25.65
 20
9.0
 30
0.0
  0
VERTEX
  8
0
 10
25.7
 20
9.0
 30
0.0
  0
VERTEX
  8
0
 10
25.75
 20
9.0
 30
0.0
  0
VERTEX
  8
0
 10
25.8
 20
9.0
 30
0.0
  0
VERTEX
  8
0
 10
25.85
 20
9.0
 30
0.0
  0
VERTEX
  8
0
 10
25.9
 20
9.0
 30
0.0
  0
VERTEX
  8
0
 10
25.95
 20
9.0
 30
0.0
  0
VERTEX
  8
0
 10
26.0
 20
9.0
 30
0.0
  0
VERTEX
  8
0
 10
26.05
 20
9.0
 30
0.0
  0
VERTEX
  8
0
 10
26.1
 20
9.0
 30
0.0
  0
VERTEX
  8
0
 10
26.15
 20
9.0
 30
0.0
  0
VERTEX
  8
0
 10
26.2
 20
9.0
 30
0.0
  0
VERTEX
  8
0
 10
26.25
 20
9.0
 30
0.0
  0
VERTEX
  8
0
 10
26.3
 20
9.0
 30
0.0
  0
VERTEX
  8
0
 10
26.35
 20
9.0
 30
0.0
  0
VERTEX
  8
0
 10
26.4
 20
9.0
 30
0.0
  0
VERTEX
  8
0
 10
26.45
 20
9.0
 30
0.0
  0
VERTEX
  8
0
 10
26.5
 20
9.0
 30
0.0
  0
VERTEX
  8
0
 10
26.55
 20
9.0
 30
0.0
  0
VERTEX
  8
0
 10
26.6
 20
9.0
 30
0.0
  0
VERTEX
  8
0
 10
26.65
 20
9.0
 30
0.0
  0
VERTEX
  8
0
 10
26.7
 20
9.0
 30
0.0
  0
VERTEX
  8
0
 10
26.75
 20
9.0
 30
0.0
  0
VERTEX
  8
0
 10
26.8
 20
9.0
 30
0.0
  0
VERTEX
  8
0
 10
26.85
 20
9.0
 30
0.0
  0
VERTEX
  8
0
 10
26.9
 20
9.0
 30
0.0
  0
VERTEX
  8
0
 10
26.95
 20
9.0
 30
0.0
  0
VERTEX
  8
0
 10
27.0
 20
9.0
 30
0.0
  0
VERTEX
  8
0
 10
27.05
 20
9.0
 30
0.0
  0
VERTEX
  8
0
 10
27.1
 20
9.0
 30
0.0
  0
VERTEX
  8
0
 10
27.15
 20
9.0
 30
0.0
  0
VERTEX
  8
0
 10
27.2
 20
9.0
 30
0.0
  0
VERTEX
  8
0
 10
27.25
 20
9.0
 30
0.0
  0
VERTEX
  8
0
 10
27.3
 20
9.0
 30
0.0
  0
VERTEX
  8
0
 10
27.35
 20
9.0
 30
0.0
  0
VERTEX
  8
0
 10
27.4
 20
9.0
 30
0.0
  0
VERTEX
  8
0
 10
27.45
 20
9.0
 30
0.0
  0
VERTEX
  8
0
 10
27.5
 20
9.0
 30
0.0
  0
SEQEND
  8
0
  0
LINE
  8
0
 62
0
 10
20.0
 20
2.6645352591e-14
 30
0.0
 11
20.0
 21
9.0
 31
0.0
  0
LINE
  8
0
 62
0
 10
40.0
 20
1.6320278462e-14
 30
0.0
 11
39.5
 21
1.6320278462e-14
 31
0.0
  0
LINE
  8
0
 62
0
 10
40.0
 20
2.20656826144e-14
 30
0.0
 11
39.5
 21
2.20656826144e-14
 31
0.0
  0
LINE
  8
0
 62
0
 10
40.0
 20
2.6645352591e-14
 30
0.0
 11
34.875
 21
2.6645352591e-14
 31
0.0
  0
LINE
  8
0
 62
0
 10
33.125
 20
2.6645352591e-14
 30
0.0
 11
27.5
 21
2.6645352591e-14
 31
0.0
  0
LINE
  8
0
 62
0
 10
24.5
 20
2.6645352591e-14
 30
0.0
 11
20.0
 21
2.6645352591e-14
 31
0.0
  0
LINE
  8
0
 62
0
 10
40.0
 20
9.0
 30
0.0
 11
34.875
 21
9.0
 31
0.0
  0
LINE
  8
0
 62
0
 10
33.125
 20
9.0
 30
0.0
 11
27.5
 21
9.0
 31
0.0
  0
LINE
  8
0
 62
0
 10
24.5
 20
9.0
 30
0.0
 11
20.0
 21
9.0
 31
0.0
  0
LINE
  8
0
 62
0
 10
24.5
 20
9.0
 30
0.0
 11
24.5
 21
2.6645352591e-14
 31
0.0
  0
LINE
  8
0
 62
0
 10
24.5
 20
7.5
 30
0.0
 11
27.5
 21
7.5
 31
0.0
  0
LINE
  8
0
 62
0
 10
33.125
 20
7.5
 30
0.0
 11
34.875
 21
7.5
 31
0.0
  0
LINE
  8
0
 62
0
 10
24.5
 20
6.1
 30
0.0
 11
27.5
 21
6.1
 31
0.0
  0
LINE
  8
0
 62
0
 10
40.0
 20
2.6645352591e-14
 30
0.0
 11
40.0
 21
9.0
 31
0.0
  0
LINE
  8
0
 62
0
 10
34.875
 20
9.0
 30
0.0
 11
34.875
 21
2.6645352591e-14
 31
0.0
  0
LINE
  8
0
 62
0
 10
33.125
 20
9.0
 30
0.0
 11
33.125
 21
2.6645352591e-14
 31
0.0
  0
LINE
  8
0
 62
0
 10
27.5
 20
9.0
 30
0.0
 11
27.5
 21
2.6645352591e-14
 31
0.0
  0
LINE
  8
0
 62
0
 10
27.5
 20
2.63122856836e-14
 30
0.0
 11
27.5
 21
9.0
 31
0.0
  0
LINE
  8
0
 62
0
 10
34.875
 20
1.5
 30
0.0
 11
33.125
 21
1.5
 31
0.0
  0
LINE
  8
0
 62
0
 10
27.5
 20
1.5
 30
0.0
 11
24.5
 21
1.5
 31
0.0
  0
LINE
  8
0
 62
0
 10
27.5
 20
2.9
 30
0.0
 11
24.5
 21
2.9
 31
0.0
  0
ENDBLK
  0
ENDSEC
  0
SECTION
  2
ENTITIES
  0
INSERT
  2
CUT
  8
0
 62
0
 10
0.0
 20
0.0
 30
0.0
  0
ENDSEC
  0
EOF
