ISO-10303-21;
HEADER;
FILE_DESCRIPTION(('STEP AP214'),'1');
FILE_NAME('axe-centrage-emboutissage indA.stp','2017-10-05T15:53:45',(' '),(' '),'Spatial InterOp 3D',' ',' ');
FILE_SCHEMA(('AUTOMOTIVE_DESIGN { 1 0 10303 214 1 1 1 1 }'));
ENDSEC;
DATA;
#1=MECHANICAL_DESIGN_GEOMETRIC_PRESENTATION_REPRESENTATION(' ',(#10,#11,#12,#13,#14,#15,#16,#17),#6);
#2=PRODUCT_DEFINITION_CONTEXT('',#18,'design');
#3=APPLICATION_PROTOCOL_DEFINITION('INTERNATIONAL STANDARD','automotive_design',1994,#18);
#4=PRODUCT_CATEGORY_RELATIONSHIP('NONE','NONE',#19,#20);
#5=SHAPE_DEFINITION_REPRESENTATION(#21,#22);
#6= (GEOMETRIC_REPRESENTATION_CONTEXT(3)GLOBAL_UNCERTAINTY_ASSIGNED_CONTEXT((#25))GLOBAL_UNIT_ASSIGNED_CONTEXT((#27,#28,#29))REPRESENTATION_CONTEXT('NONE','WORKSPACE'));
#10=STYLED_ITEM('',(#31),#32);
#11=STYLED_ITEM('',(#33),#34);
#12=STYLED_ITEM('',(#35),#36);
#13=STYLED_ITEM('',(#37),#38);
#14=STYLED_ITEM('',(#39),#40);
#15=STYLED_ITEM('',(#41),#42);
#16=STYLED_ITEM('',(#43),#44);
#17=STYLED_ITEM('',(#45),#46);
#18=APPLICATION_CONTEXT(' ');
#19=PRODUCT_CATEGORY('part','NONE');
#20=PRODUCT_RELATED_PRODUCT_CATEGORY('detail',' ',(#47));
#21=PRODUCT_DEFINITION_SHAPE('NONE','NONE',#48);
#22=ADVANCED_BREP_SHAPE_REPRESENTATION(' axe-centrage-emboutissage indA',(#49,#50),#6);
#25=UNCERTAINTY_MEASURE_WITH_UNIT(LENGTH_MEASURE(0.001),#27,'','');
#27= (CONVERSION_BASED_UNIT('MILLIMETRE',#53)LENGTH_UNIT()NAMED_UNIT(#56));
#28= (NAMED_UNIT(#58)PLANE_ANGLE_UNIT()SI_UNIT($,.RADIAN.));
#29= (NAMED_UNIT(#58)SOLID_ANGLE_UNIT()SI_UNIT($,.STERADIAN.));
#31=PRESENTATION_STYLE_ASSIGNMENT((#64));
#32=ADVANCED_FACE('',(#65,#66),#67,.T.);
#33=PRESENTATION_STYLE_ASSIGNMENT((#68));
#34=ADVANCED_FACE('',(#69,#70),#71,.T.);
#35=PRESENTATION_STYLE_ASSIGNMENT((#72));
#36=ADVANCED_FACE('',(#73,#74),#75,.T.);
#37=PRESENTATION_STYLE_ASSIGNMENT((#76));
#38=ADVANCED_FACE('',(#77,#78),#79,.T.);
#39=PRESENTATION_STYLE_ASSIGNMENT((#80));
#40=ADVANCED_FACE('',(#81,#82),#83,.T.);
#41=PRESENTATION_STYLE_ASSIGNMENT((#84));
#42=ADVANCED_FACE('',(#85,#86),#87,.T.);
#43=PRESENTATION_STYLE_ASSIGNMENT((#88));
#44=ADVANCED_FACE('',(#89),#90,.F.);
#45=PRESENTATION_STYLE_ASSIGNMENT((#91));
#46=ADVANCED_FACE('',(#92),#93,.F.);
#47=PRODUCT(' axe-centrage-emboutissage indA',' axe-centrage-emboutissage indA','PART- axe-centrage-emboutissage indA-DESC',(#94));
#48=PRODUCT_DEFINITION('','NONE',#95,#2);
#49=MANIFOLD_SOLID_BREP(' axe-centrage-emboutissage indA',#96);
#50=AXIS2_PLACEMENT_3D('',#97,#98,#99);
#53=LENGTH_MEASURE_WITH_UNIT(LENGTH_MEASURE(1.0),#100);
#56=DIMENSIONAL_EXPONENTS(1.0,0.0,0.0,0.0,0.0,0.0,0.0);
#58=DIMENSIONAL_EXPONENTS(0.0,0.0,0.0,0.0,0.0,0.0,0.0);
#64=SURFACE_STYLE_USAGE(.BOTH.,#101);
#65=FACE_BOUND('',#102,.T.);
#66=FACE_OUTER_BOUND('',#103,.T.);
#67=CONICAL_SURFACE('',#104,2.45,0.785398163397449);
#68=SURFACE_STYLE_USAGE(.BOTH.,#105);
#69=FACE_OUTER_BOUND('',#106,.T.);
#70=FACE_OUTER_BOUND('',#107,.T.);
#71=CYLINDRICAL_SURFACE('',#108,2.45);
#72=SURFACE_STYLE_USAGE(.BOTH.,#109);
#73=FACE_BOUND('',#110,.T.);
#74=FACE_OUTER_BOUND('',#111,.T.);
#75=CONICAL_SURFACE('',#112,2.75,0.785398163397449);
#76=SURFACE_STYLE_USAGE(.BOTH.,#113);
#77=FACE_OUTER_BOUND('',#114,.T.);
#78=FACE_OUTER_BOUND('',#115,.T.);
#79=CYLINDRICAL_SURFACE('',#116,2.75);
#80=SURFACE_STYLE_USAGE(.BOTH.,#117);
#81=FACE_BOUND('',#118,.T.);
#82=FACE_OUTER_BOUND('',#119,.T.);
#83=CONICAL_SURFACE('',#120,4.0,0.785398163397449);
#84=SURFACE_STYLE_USAGE(.BOTH.,#121);
#85=FACE_OUTER_BOUND('',#122,.T.);
#86=FACE_OUTER_BOUND('',#123,.T.);
#87=CYLINDRICAL_SURFACE('',#124,4.0);
#88=SURFACE_STYLE_USAGE(.BOTH.,#125);
#89=FACE_OUTER_BOUND('',#126,.T.);
#90=PLANE('',#127);
#91=SURFACE_STYLE_USAGE(.BOTH.,#128);
#92=FACE_OUTER_BOUND('',#129,.T.);
#93=PLANE('',#130);
#94=PRODUCT_CONTEXT('',#18,'mechanical');
#95=PRODUCT_DEFINITION_FORMATION_WITH_SPECIFIED_SOURCE(' ','NONE',#47,.NOT_KNOWN.);
#96=CLOSED_SHELL('',(#32,#34,#36,#38,#40,#42,#44,#46));
#97=CARTESIAN_POINT('',(0.0,0.0,0.0));
#98=DIRECTION('',(0.0,0.0,1.0));
#99=DIRECTION('',(1.0,0.0,0.0));
#100= (NAMED_UNIT(#56)LENGTH_UNIT()SI_UNIT(.MILLI.,.METRE.));
#101=SURFACE_SIDE_STYLE('',(#132));
#102=EDGE_LOOP('',(#133));
#103=EDGE_LOOP('',(#134));
#104=AXIS2_PLACEMENT_3D('',#135,#136,#137);
#105=SURFACE_SIDE_STYLE('',(#138));
#106=EDGE_LOOP('',(#139));
#107=EDGE_LOOP('',(#140));
#108=AXIS2_PLACEMENT_3D('',#141,#142,#143);
#109=SURFACE_SIDE_STYLE('',(#144));
#110=EDGE_LOOP('',(#145));
#111=EDGE_LOOP('',(#146));
#112=AXIS2_PLACEMENT_3D('',#147,#148,#149);
#113=SURFACE_SIDE_STYLE('',(#150));
#114=EDGE_LOOP('',(#151));
#115=EDGE_LOOP('',(#152));
#116=AXIS2_PLACEMENT_3D('',#153,#154,#155);
#117=SURFACE_SIDE_STYLE('',(#156));
#118=EDGE_LOOP('',(#157));
#119=EDGE_LOOP('',(#158));
#120=AXIS2_PLACEMENT_3D('',#159,#160,#161);
#121=SURFACE_SIDE_STYLE('',(#162));
#122=EDGE_LOOP('',(#163));
#123=EDGE_LOOP('',(#164));
#124=AXIS2_PLACEMENT_3D('',#165,#166,#167);
#125=SURFACE_SIDE_STYLE('',(#168));
#126=EDGE_LOOP('',(#169));
#127=AXIS2_PLACEMENT_3D('',#170,#171,#172);
#128=SURFACE_SIDE_STYLE('',(#173));
#129=EDGE_LOOP('',(#174));
#130=AXIS2_PLACEMENT_3D('',#175,#176,#177);
#132=SURFACE_STYLE_FILL_AREA(#178);
#133=ORIENTED_EDGE('',*,*,#179,.F.);
#134=ORIENTED_EDGE('',*,*,#180,.T.);
#135=CARTESIAN_POINT('',(0.0,0.0,-6.0));
#136=DIRECTION('',(-0.0,-0.0,1.0));
#137=DIRECTION('',(1.0,0.0,0.0));
#138=SURFACE_STYLE_FILL_AREA(#181);
#139=ORIENTED_EDGE('',*,*,#180,.F.);
#140=ORIENTED_EDGE('',*,*,#182,.T.);
#141=CARTESIAN_POINT('',(0.0,0.0,0.0));
#142=DIRECTION('',(0.0,0.0,-1.0));
#143=DIRECTION('',(-1.0,0.0,0.0));
#144=SURFACE_STYLE_FILL_AREA(#183);
#145=ORIENTED_EDGE('',*,*,#182,.F.);
#146=ORIENTED_EDGE('',*,*,#184,.T.);
#147=CARTESIAN_POINT('',(0.0,0.0,-1.7));
#148=DIRECTION('',(-0.0,-0.0,1.0));
#149=DIRECTION('',(1.0,0.0,0.0));
#150=SURFACE_STYLE_FILL_AREA(#185);
#151=ORIENTED_EDGE('',*,*,#184,.F.);
#152=ORIENTED_EDGE('',*,*,#186,.T.);
#153=CARTESIAN_POINT('',(0.0,0.0,0.0));
#154=DIRECTION('',(0.0,0.0,-1.0));
#155=DIRECTION('',(-1.0,0.0,0.0));
#156=SURFACE_STYLE_FILL_AREA(#187);
#157=ORIENTED_EDGE('',*,*,#186,.F.);
#158=ORIENTED_EDGE('',*,*,#188,.T.);
#159=CARTESIAN_POINT('',(0.0,0.0,5.55));
#160=DIRECTION('',(-0.0,-0.0,1.0));
#161=DIRECTION('',(1.0,0.0,0.0));
#162=SURFACE_STYLE_FILL_AREA(#189);
#163=ORIENTED_EDGE('',*,*,#188,.F.);
#164=ORIENTED_EDGE('',*,*,#190,.T.);
#165=CARTESIAN_POINT('',(0.0,0.0,0.0));
#166=DIRECTION('',(0.0,0.0,-1.0));
#167=DIRECTION('',(-1.0,0.0,0.0));
#168=SURFACE_STYLE_FILL_AREA(#191);
#169=ORIENTED_EDGE('',*,*,#190,.F.);
#170=CARTESIAN_POINT('',(-2.0,0.0,13.5));
#171=DIRECTION('',(0.0,0.0,-1.0));
#172=DIRECTION('',(-1.0,0.0,0.0));
#173=SURFACE_STYLE_FILL_AREA(#192);
#174=ORIENTED_EDGE('',*,*,#179,.T.);
#175=CARTESIAN_POINT('',(-0.975,0.0,-6.5));
#176=DIRECTION('',(0.0,0.0,1.0));
#177=DIRECTION('',(1.0,0.0,0.0));
#178=FILL_AREA_STYLE('',(#193));
#179=EDGE_CURVE('',#194,#194,#195,.T.);
#180=EDGE_CURVE('',#196,#196,#197,.T.);
#181=FILL_AREA_STYLE('',(#198));
#182=EDGE_CURVE('',#199,#199,#200,.T.);
#183=FILL_AREA_STYLE('',(#201));
#184=EDGE_CURVE('',#202,#202,#203,.T.);
#185=FILL_AREA_STYLE('',(#204));
#186=EDGE_CURVE('',#205,#205,#206,.T.);
#187=FILL_AREA_STYLE('',(#207));
#188=EDGE_CURVE('',#208,#208,#209,.T.);
#189=FILL_AREA_STYLE('',(#210));
#190=EDGE_CURVE('',#211,#211,#212,.T.);
#191=FILL_AREA_STYLE('',(#213));
#192=FILL_AREA_STYLE('',(#214));
#193=FILL_AREA_STYLE_COLOUR('',#215);
#194=VERTEX_POINT('',#216);
#195=CIRCLE('',#217,1.95);
#196=VERTEX_POINT('',#218);
#197=CIRCLE('',#219,2.45);
#198=FILL_AREA_STYLE_COLOUR('',#220);
#199=VERTEX_POINT('',#221);
#200=CIRCLE('',#222,2.45);
#201=FILL_AREA_STYLE_COLOUR('',#223);
#202=VERTEX_POINT('',#224);
#203=CIRCLE('',#225,2.75);
#204=FILL_AREA_STYLE_COLOUR('',#226);
#205=VERTEX_POINT('',#227);
#206=CIRCLE('',#228,2.75);
#207=FILL_AREA_STYLE_COLOUR('',#229);
#208=VERTEX_POINT('',#230);
#209=CIRCLE('',#231,4.0);
#210=FILL_AREA_STYLE_COLOUR('',#232);
#211=VERTEX_POINT('',#233);
#212=CIRCLE('',#234,4.0);
#213=FILL_AREA_STYLE_COLOUR('',#235);
#214=FILL_AREA_STYLE_COLOUR('',#236);
#215=COLOUR_RGB('',0.0,0.501960813999176,1.0);
#216=CARTESIAN_POINT('',(-1.95,0.0,-6.5));
#217=AXIS2_PLACEMENT_3D('',#237,#238,#239);
#218=CARTESIAN_POINT('',(-2.45,0.0,-6.0));
#219=AXIS2_PLACEMENT_3D('',#240,#241,#242);
#220=COLOUR_RGB('',0.0,0.501960813999176,1.0);
#221=CARTESIAN_POINT('',(-2.45,0.0,-2.0));
#222=AXIS2_PLACEMENT_3D('',#243,#244,#245);
#223=COLOUR_RGB('',0.0,0.501960813999176,1.0);
#224=CARTESIAN_POINT('',(-2.75,0.0,-1.7));
#225=AXIS2_PLACEMENT_3D('',#246,#247,#248);
#226=COLOUR_RGB('',0.0,0.501960813999176,1.0);
#227=CARTESIAN_POINT('',(-2.75,0.0,4.3));
#228=AXIS2_PLACEMENT_3D('',#249,#250,#251);
#229=COLOUR_RGB('',0.0,0.501960813999176,1.0);
#230=CARTESIAN_POINT('',(-4.0,0.0,5.55));
#231=AXIS2_PLACEMENT_3D('',#252,#253,#254);
#232=COLOUR_RGB('',0.0,0.501960813999176,1.0);
#233=CARTESIAN_POINT('',(-4.0,0.0,13.5));
#234=AXIS2_PLACEMENT_3D('',#255,#256,#257);
#235=COLOUR_RGB('',0.0,0.501960813999176,1.0);
#236=COLOUR_RGB('',0.0,0.501960813999176,1.0);
#237=CARTESIAN_POINT('',(0.0,0.0,-6.5));
#238=DIRECTION('',(0.0,0.0,-1.0));
#239=DIRECTION('',(-1.0,0.0,0.0));
#240=CARTESIAN_POINT('',(0.0,0.0,-6.0));
#241=DIRECTION('',(0.0,0.0,-1.0));
#242=DIRECTION('',(-1.0,0.0,0.0));
#243=CARTESIAN_POINT('',(0.0,0.0,-2.0));
#244=DIRECTION('',(0.0,0.0,-1.0));
#245=DIRECTION('',(-1.0,0.0,0.0));
#246=CARTESIAN_POINT('',(0.0,0.0,-1.7));
#247=DIRECTION('',(0.0,0.0,-1.0));
#248=DIRECTION('',(-1.0,0.0,0.0));
#249=CARTESIAN_POINT('',(0.0,0.0,4.3));
#250=DIRECTION('',(0.0,0.0,-1.0));
#251=DIRECTION('',(-1.0,0.0,0.0));
#252=CARTESIAN_POINT('',(0.0,0.0,5.55));
#253=DIRECTION('',(0.0,0.0,-1.0));
#254=DIRECTION('',(-1.0,0.0,0.0));
#255=CARTESIAN_POINT('',(0.0,0.0,13.5));
#256=DIRECTION('',(0.0,0.0,-1.0));
#257=DIRECTION('',(-1.0,0.0,0.0));
ENDSEC;
END-ISO-10303-21;
