  0
SECTION
  2
HEADER
  9
$ACADVER
  1
AC1009
  9
$INSBASE
 10
0.0
 20
0.0
 30
0.0
  9
$EXTMIN
 10
0.0
 20
0.0
 30
0.0
  9
$EXTMAX
 10
0.0
 20
0.0
 30
0.0
  0
ENDSEC
  0
SECTION
  2
TABLES
  0
TABLE
  2
VPORT
 70
0
  0
ENDTAB
  0
TABLE
  2
LTYPE
 70
1
  0
LTYPE
  2
CONTINUOUS
 70
0
  3
Solid line
 72
65
 73
0
 40
0.0
  0
ENDTAB
  0
TABLE
  2
LAYER
 70
1
  0
LAYER
  2
0
 70
64
 62
7
  6
continuous
  0
ENDTAB
  0
TABLE
  2
STYLE
 70
1
  0
STYLE
  2
STANDARD
 70
0
 40
0
 41
1.0
 50
0.0
 71
0
 42
1
 3
ARIAL.TTF
 4

  0
ENDTAB
  0
TABLE
  2
VIEW
 70
0
  0
ENDTAB
  0
ENDSEC
  0
SECTION
  2
BLOCKS
  0
BLOCK
  8
0
  2
CUT001
 70
0
 10
0.0
 20
0.0
 30
0.0
  3
CUT001
  0
POLYLINE
  8
0
 62
0
 70
0
 66
1
 10
0.0
 20
0.0
 30
0.0
  0
VERTEX
  8
0
 10
33.125
 20
2.69183708657e-14
 30
0.0
  0
VERTEX
  8
0
 10
33.175
 20
2.67352492237e-14
 30
0.0
  0
VERTEX
  8
0
 10
33.225
 20
2.66513237418e-14
 30
0.0
  0
VERTEX
  8
0
 10
33.275
 20
2.65983164472e-14
 30
0.0
  0
VERTEX
  8
0
 10
33.325
 20
2.6548895666e-14
 30
0.0
  0
VERTEX
  8
0
 10
33.375
 20
2.65155889753e-14
 30
0.0
  0
VERTEX
  8
0
 10
33.425
 20
2.64822822846e-14
 30
0.0
  0
VERTEX
  8
0
 10
33.475
 20
2.64540641291e-14
 30
0.0
  0
VERTEX
  8
0
 10
33.525
 20
2.64331361482e-14
 30
0.0
  0
VERTEX
  8
0
 10
33.575
 20
2.64122081673e-14
 30
0.0
  0
VERTEX
  8
0
 10
33.625
 20
2.63921422982e-14
 30
0.0
  0
VERTEX
  8
0
 10
33.675
 20
2.63804877831e-14
 30
0.0
  0
VERTEX
  8
0
 10
33.725
 20
2.63688332679e-14
 30
0.0
  0
VERTEX
  8
0
 10
33.775
 20
2.63571787528e-14
 30
0.0
  0
VERTEX
  8
0
 10
33.825
 20
2.63486384474e-14
 30
0.0
  0
VERTEX
  8
0
 10
33.875
 20
2.63448856846e-14
 30
0.0
  0
VERTEX
  8
0
 10
33.925
 20
2.63411329219e-14
 30
0.0
  0
VERTEX
  8
0
 10
33.975
 20
2.63373801591e-14
 30
0.0
  0
VERTEX
  8
0
 10
34.025
 20
2.63373801591e-14
 30
0.0
  0
VERTEX
  8
0
 10
34.075
 20
2.63411329219e-14
 30
0.0
  0
VERTEX
  8
0
 10
34.125
 20
2.63448856846e-14
 30
0.0
  0
VERTEX
  8
0
 10
34.175
 20
2.63486384474e-14
 30
0.0
  0
VERTEX
  8
0
 10
34.225
 20
2.63571787528e-14
 30
0.0
  0
VERTEX
  8
0
 10
34.275
 20
2.63688332679e-14
 30
0.0
  0
VERTEX
  8
0
 10
34.325
 20
2.63804877831e-14
 30
0.0
  0
VERTEX
  8
0
 10
34.375
 20
2.63921422982e-14
 30
0.0
  0
VERTEX
  8
0
 10
34.425
 20
2.64122081673e-14
 30
0.0
  0
VERTEX
  8
0
 10
34.475
 20
2.64331361482e-14
 30
0.0
  0
VERTEX
  8
0
 10
34.525
 20
2.64540641291e-14
 30
0.0
  0
VERTEX
  8
0
 10
34.575
 20
2.64822822846e-14
 30
0.0
  0
VERTEX
  8
0
 10
34.625
 20
2.65155889753e-14
 30
0.0
  0
VERTEX
  8
0
 10
34.675
 20
2.6548895666e-14
 30
0.0
  0
VERTEX
  8
0
 10
34.725
 20
2.65983164472e-14
 30
0.0
  0
VERTEX
  8
0
 10
34.775
 20
2.66513237418e-14
 30
0.0
  0
VERTEX
  8
0
 10
34.825
 20
2.67352492237e-14
 30
0.0
  0
VERTEX
  8
0
 10
34.875
 20
2.69183708657e-14
 30
0.0
  0
SEQEND
  8
0
  0
POLYLINE
  8
0
 62
0
 70
0
 66
1
 10
0.0
 20
0.0
 30
0.0
  0
VERTEX
  8
0
 10
24.5
 20
2.76481590955e-14
 30
0.0
  0
VERTEX
  8
0
 10
24.55
 20
2.74022256047e-14
 30
0.0
  0
VERTEX
  8
0
 10
24.6
 20
2.73070405512e-14
 30
0.0
  0
VERTEX
  8
0
 10
24.65
 20
2.72130814381e-14
 30
0.0
  0
VERTEX
  8
0
 10
24.7
 20
2.71600741434e-14
 30
0.0
  0
VERTEX
  8
0
 10
24.75
 20
2.71070668487e-14
 30
0.0
  0
VERTEX
  8
0
 10
24.8
 20
2.70540595541e-14
 30
0.0
  0
VERTEX
  8
0
 10
24.85
 20
2.70100149403e-14
 30
0.0
  0
VERTEX
  8
0
 10
24.9
 20
2.69767082496e-14
 30
0.0
  0
VERTEX
  8
0
 10
24.95
 20
2.69434015588e-14
 30
0.0
  0
VERTEX
  8
0
 10
25.0
 20
2.69100948681e-14
 30
0.0
  0
VERTEX
  8
0
 10
25.05
 20
2.68767881774e-14
 30
0.0
  0
VERTEX
  8
0
 10
25.1
 20
2.68522046899e-14
 30
0.0
  0
VERTEX
  8
0
 10
25.15
 20
2.6831276709e-14
 30
0.0
  0
VERTEX
  8
0
 10
25.2
 20
2.68103487282e-14
 30
0.0
  0
VERTEX
  8
0
 10
25.25
 20
2.67894207473e-14
 30
0.0
  0
VERTEX
  8
0
 10
25.3
 20
2.67684927665e-14
 30
0.0
  0
VERTEX
  8
0
 10
25.35
 20
2.67477179107e-14
 30
0.0
  0
VERTEX
  8
0
 10
25.4
 20
2.67360633955e-14
 30
0.0
  0
VERTEX
  8
0
 10
25.45
 20
2.67244088804e-14
 30
0.0
  0
VERTEX
  8
0
 10
25.5
 20
2.67127543652e-14
 30
0.0
  0
VERTEX
  8
0
 10
25.55
 20
2.67010998501e-14
 30
0.0
  0
VERTEX
  8
0
 10
25.6
 20
2.66894453349e-14
 30
0.0
  0
VERTEX
  8
0
 10
25.65
 20
2.66777908198e-14
 30
0.0
  0
VERTEX
  8
0
 10
25.7
 20
2.66714749499e-14
 30
0.0
  0
VERTEX
  8
0
 10
25.75
 20
2.66677221872e-14
 30
0.0
  0
VERTEX
  8
0
 10
25.8
 20
2.66639694244e-14
 30
0.0
  0
VERTEX
  8
0
 10
25.85
 20
2.66602166616e-14
 30
0.0
  0
VERTEX
  8
0
 10
25.9
 20
2.66564638989e-14
 30
0.0
  0
VERTEX
  8
0
 10
25.95
 20
2.66527111361e-14
 30
0.0
  0
VERTEX
  8
0
 10
26.0
 20
2.66489583733e-14
 30
0.0
  0
VERTEX
  8
0
 10
26.05
 20
2.66527111361e-14
 30
0.0
  0
VERTEX
  8
0
 10
26.1
 20
2.66564638989e-14
 30
0.0
  0
VERTEX
  8
0
 10
26.15
 20
2.66602166616e-14
 30
0.0
  0
VERTEX
  8
0
 10
26.2
 20
2.66639694244e-14
 30
0.0
  0
VERTEX
  8
0
 10
26.25
 20
2.66677221872e-14
 30
0.0
  0
VERTEX
  8
0
 10
26.3
 20
2.66714749499e-14
 30
0.0
  0
VERTEX
  8
0
 10
26.35
 20
2.66777908198e-14
 30
0.0
  0
VERTEX
  8
0
 10
26.4
 20
2.66894453349e-14
 30
0.0
  0
VERTEX
  8
0
 10
26.45
 20
2.67010998501e-14
 30
0.0
  0
VERTEX
  8
0
 10
26.5
 20
2.67127543652e-14
 30
0.0
  0
VERTEX
  8
0
 10
26.55
 20
2.67244088804e-14
 30
0.0
  0
VERTEX
  8
0
 10
26.6
 20
2.67360633955e-14
 30
0.0
  0
VERTEX
  8
0
 10
26.65
 20
2.67477179107e-14
 30
0.0
  0
VERTEX
  8
0
 10
26.7
 20
2.67684927665e-14
 30
0.0
  0
VERTEX
  8
0
 10
26.75
 20
2.67894207473e-14
 30
0.0
  0
VERTEX
  8
0
 10
26.8
 20
2.68103487282e-14
 30
0.0
  0
VERTEX
  8
0
 10
26.85
 20
2.6831276709e-14
 30
0.0
  0
VERTEX
  8
0
 10
26.9
 20
2.68522046899e-14
 30
0.0
  0
VERTEX
  8
0
 10
26.95
 20
2.68767881774e-14
 30
0.0
  0
VERTEX
  8
0
 10
27.0
 20
2.69100948681e-14
 30
0.0
  0
VERTEX
  8
0
 10
27.05
 20
2.69434015588e-14
 30
0.0
  0
VERTEX
  8
0
 10
27.1
 20
2.69767082496e-14
 30
0.0
  0
VERTEX
  8
0
 10
27.15
 20
2.70100149403e-14
 30
0.0
  0
VERTEX
  8
0
 10
27.2
 20
2.70540595541e-14
 30
0.0
  0
VERTEX
  8
0
 10
27.25
 20
2.71070668487e-14
 30
0.0
  0
VERTEX
  8
0
 10
27.3
 20
2.71600741434e-14
 30
0.0
  0
VERTEX
  8
0
 10
27.35
 20
2.72130814381e-14
 30
0.0
  0
VERTEX
  8
0
 10
27.4
 20
2.73070405512e-14
 30
0.0
  0
VERTEX
  8
0
 10
27.45
 20
2.74022256047e-14
 30
0.0
  0
VERTEX
  8
0
 10
27.5
 20
2.76481590955e-14
 30
0.0
  0
SEQEND
  8
0
  0
POLYLINE
  8
0
 62
0
 70
0
 66
1
 10
0.0
 20
0.0
 30
0.0
  0
VERTEX
  8
0
 10
34.0
 20
2.19824158876e-14
 30
0.0
  0
VERTEX
  8
0
 10
33.95
 20
2.23426075742e-14
 30
0.0
  0
VERTEX
  8
0
 10
33.9
 20
2.24911409357e-14
 30
0.0
  0
VERTEX
  8
0
 10
33.85
 20
2.26041435886e-14
 30
0.0
  0
VERTEX
  8
0
 10
33.8
 20
2.26976964945e-14
 30
0.0
  0
VERTEX
  8
0
 10
33.75
 20
2.27793468603e-14
 30
0.0
  0
VERTEX
  8
0
 10
33.7
 20
2.28531283624e-14
 30
0.0
  0
VERTEX
  8
0
 10
33.65
 20
2.29177667127e-14
 30
0.0
  0
VERTEX
  8
0
 10
33.6
 20
2.29780263862e-14
 30
0.0
  0
VERTEX
  8
0
 10
33.55
 20
2.30346417221e-14
 30
0.0
  0
VERTEX
  8
0
 10
33.5
 20
2.30856700247e-14
 30
0.0
  0
VERTEX
  8
0
 10
33.45
 20
2.31356577898e-14
 30
0.0
  0
VERTEX
  8
0
 10
33.4
 20
2.31801528087e-14
 30
0.0
  0
VERTEX
  8
0
 10
33.35
 20
2.32245412624e-14
 30
0.0
  0
VERTEX
  8
0
 10
33.3
 20
2.32642748845e-14
 30
0.0
  0
VERTEX
  8
0
 10
33.25
 20
2.33038422057e-14
 30
0.0
  0
VERTEX
  8
0
 10
33.2
 20
2.33400217177e-14
 30
0.0
  0
VERTEX
  8
0
 10
33.15
 20
2.33753697043e-14
 30
0.0
  0
VERTEX
  8
0
 10
33.125
 20
2.33930436976e-14
 30
0.0
  0
SEQEND
  8
0
  0
POLYLINE
  8
0
 62
0
 70
0
 66
1
 10
0.0
 20
0.0
 30
0.0
  0
VERTEX
  8
0
 10
25.4
 20
1.12446915113e-14
 30
0.0
  0
VERTEX
  8
0
 10
25.35
 20
1.13626333087e-14
 30
0.0
  0
VERTEX
  8
0
 10
25.3
 20
1.14102258355e-14
 30
0.0
  0
VERTEX
  8
0
 10
25.25
 20
1.14530284809e-14
 30
0.0
  0
VERTEX
  8
0
 10
25.2
 20
1.14795321282e-14
 30
0.0
  0
VERTEX
  8
0
 10
25.15
 20
1.15060357755e-14
 30
0.0
  0
VERTEX
  8
0
 10
25.1
 20
1.15325394228e-14
 30
0.0
  0
VERTEX
  8
0
 10
25.05
 20
1.15502636782e-14
 30
0.0
  0
VERTEX
  8
0
 10
25.0
 20
1.15669170236e-14
 30
0.0
  0
VERTEX
  8
0
 10
24.95
 20
1.15835703689e-14
 30
0.0
  0
VERTEX
  8
0
 10
24.9
 20
1.16002237143e-14
 30
0.0
  0
VERTEX
  8
0
 10
24.85
 20
1.16140441025e-14
 30
0.0
  0
VERTEX
  8
0
 10
24.8
 20
1.16245080929e-14
 30
0.0
  0
VERTEX
  8
0
 10
24.75
 20
1.16349720833e-14
 30
0.0
  0
VERTEX
  8
0
 10
24.7
 20
1.16454360737e-14
 30
0.0
  0
VERTEX
  8
0
 10
24.65
 20
1.16559000642e-14
 30
0.0
  0
VERTEX
  8
0
 10
24.6
 20
1.16656743652e-14
 30
0.0
  0
VERTEX
  8
0
 10
24.55
 20
1.16715016228e-14
 30
0.0
  0
VERTEX
  8
0
 10
24.5
 20
1.16773288803e-14
 30
0.0
  0
VERTEX
  8
0
 10
24.45
 20
1.16831561379e-14
 30
0.0
  0
VERTEX
  8
0
 10
24.4
 20
1.16889833955e-14
 30
0.0
  0
VERTEX
  8
0
 10
24.35
 20
1.16948106531e-14
 30
0.0
  0
VERTEX
  8
0
 10
24.3
 20
1.16997268933e-14
 30
0.0
  0
VERTEX
  8
0
 10
24.25
 20
1.17016032747e-14
 30
0.0
  0
VERTEX
  8
0
 10
24.2
 20
1.17034796561e-14
 30
0.0
  0
VERTEX
  8
0
 10
24.15
 20
1.17053560375e-14
 30
0.0
  0
VERTEX
  8
0
 10
24.1
 20
1.17072324188e-14
 30
0.0
  0
VERTEX
  8
0
 10
24.05
 20
1.17091088002e-14
 30
0.0
  0
VERTEX
  8
0
 10
24.0
 20
1.17109851816e-14
 30
0.0
  0
VERTEX
  8
0
 10
23.95
 20
1.17091088002e-14
 30
0.0
  0
VERTEX
  8
0
 10
23.9
 20
1.17072324188e-14
 30
0.0
  0
VERTEX
  8
0
 10
23.85
 20
1.17053560375e-14
 30
0.0
  0
VERTEX
  8
0
 10
23.8
 20
1.17034796561e-14
 30
0.0
  0
VERTEX
  8
0
 10
23.75
 20
1.17016032747e-14
 30
0.0
  0
VERTEX
  8
0
 10
23.7
 20
1.16997268933e-14
 30
0.0
  0
VERTEX
  8
0
 10
23.65
 20
1.16948106531e-14
 30
0.0
  0
VERTEX
  8
0
 10
23.6
 20
1.16889833955e-14
 30
0.0
  0
VERTEX
  8
0
 10
23.55
 20
1.16831561379e-14
 30
0.0
  0
VERTEX
  8
0
 10
23.5
 20
1.16773288803e-14
 30
0.0
  0
VERTEX
  8
0
 10
23.45
 20
1.16715016228e-14
 30
0.0
  0
VERTEX
  8
0
 10
23.4
 20
1.16656743652e-14
 30
0.0
  0
VERTEX
  8
0
 10
23.35
 20
1.16559000642e-14
 30
0.0
  0
VERTEX
  8
0
 10
23.3
 20
1.16454360737e-14
 30
0.0
  0
VERTEX
  8
0
 10
23.25
 20
1.16349720833e-14
 30
0.0
  0
VERTEX
  8
0
 10
23.2
 20
1.16245080929e-14
 30
0.0
  0
VERTEX
  8
0
 10
23.15
 20
1.16140441025e-14
 30
0.0
  0
VERTEX
  8
0
 10
23.1
 20
1.16002237143e-14
 30
0.0
  0
VERTEX
  8
0
 10
23.05
 20
1.15835703689e-14
 30
0.0
  0
VERTEX
  8
0
 10
23.0
 20
1.15669170236e-14
 30
0.0
  0
VERTEX
  8
0
 10
22.95
 20
1.15502636782e-14
 30
0.0
  0
VERTEX
  8
0
 10
22.9
 20
1.15325394228e-14
 30
0.0
  0
VERTEX
  8
0
 10
22.85
 20
1.15060357755e-14
 30
0.0
  0
VERTEX
  8
0
 10
22.8
 20
1.14795321282e-14
 30
0.0
  0
VERTEX
  8
0
 10
22.75
 20
1.14530284809e-14
 30
0.0
  0
VERTEX
  8
0
 10
22.7
 20
1.14102258355e-14
 30
0.0
  0
VERTEX
  8
0
 10
22.65
 20
1.13626333087e-14
 30
0.0
  0
VERTEX
  8
0
 10
22.6
 20
1.12446915113e-14
 30
0.0
  0
SEQEND
  8
0
  0
POLYLINE
  8
0
 62
0
 70
0
 66
1
 10
0.0
 20
0.0
 30
0.0
  0
VERTEX
  8
0
 10
33.125
 20
18.0
 30
0.0
  0
VERTEX
  8
0
 10
33.175
 20
18.0
 30
0.0
  0
VERTEX
  8
0
 10
33.225
 20
18.0
 30
0.0
  0
VERTEX
  8
0
 10
33.275
 20
18.0
 30
0.0
  0
VERTEX
  8
0
 10
33.325
 20
18.0
 30
0.0
  0
VERTEX
  8
0
 10
33.375
 20
18.0
 30
0.0
  0
VERTEX
  8
0
 10
33.425
 20
18.0
 30
0.0
  0
VERTEX
  8
0
 10
33.475
 20
18.0
 30
0.0
  0
VERTEX
  8
0
 10
33.525
 20
18.0
 30
0.0
  0
VERTEX
  8
0
 10
33.575
 20
18.0
 30
0.0
  0
VERTEX
  8
0
 10
33.625
 20
18.0
 30
0.0
  0
VERTEX
  8
0
 10
33.675
 20
18.0
 30
0.0
  0
VERTEX
  8
0
 10
33.725
 20
18.0
 30
0.0
  0
VERTEX
  8
0
 10
33.775
 20
18.0
 30
0.0
  0
VERTEX
  8
0
 10
33.825
 20
18.0
 30
0.0
  0
VERTEX
  8
0
 10
33.875
 20
18.0
 30
0.0
  0
VERTEX
  8
0
 10
33.925
 20
18.0
 30
0.0
  0
VERTEX
  8
0
 10
33.975
 20
18.0
 30
0.0
  0
VERTEX
  8
0
 10
34.025
 20
18.0
 30
0.0
  0
VERTEX
  8
0
 10
34.075
 20
18.0
 30
0.0
  0
VERTEX
  8
0
 10
34.125
 20
18.0
 30
0.0
  0
VERTEX
  8
0
 10
34.175
 20
18.0
 30
0.0
  0
VERTEX
  8
0
 10
34.225
 20
18.0
 30
0.0
  0
VERTEX
  8
0
 10
34.275
 20
18.0
 30
0.0
  0
VERTEX
  8
0
 10
34.325
 20
18.0
 30
0.0
  0
VERTEX
  8
0
 10
34.375
 20
18.0
 30
0.0
  0
VERTEX
  8
0
 10
34.425
 20
18.0
 30
0.0
  0
VERTEX
  8
0
 10
34.475
 20
18.0
 30
0.0
  0
VERTEX
  8
0
 10
34.525
 20
18.0
 30
0.0
  0
VERTEX
  8
0
 10
34.575
 20
18.0
 30
0.0
  0
VERTEX
  8
0
 10
34.625
 20
18.0
 30
0.0
  0
VERTEX
  8
0
 10
34.675
 20
18.0
 30
0.0
  0
VERTEX
  8
0
 10
34.725
 20
18.0
 30
0.0
  0
VERTEX
  8
0
 10
34.775
 20
18.0
 30
0.0
  0
VERTEX
  8
0
 10
34.825
 20
18.0
 30
0.0
  0
VERTEX
  8
0
 10
34.875
 20
18.0
 30
0.0
  0
SEQEND
  8
0
  0
POLYLINE
  8
0
 62
0
 70
0
 66
1
 10
0.0
 20
0.0
 30
0.0
  0
VERTEX
  8
0
 10
24.5
 20
18.0
 30
0.0
  0
VERTEX
  8
0
 10
24.55
 20
18.0
 30
0.0
  0
VERTEX
  8
0
 10
24.6
 20
18.0
 30
0.0
  0
VERTEX
  8
0
 10
24.65
 20
18.0
 30
0.0
  0
VERTEX
  8
0
 10
24.7
 20
18.0
 30
0.0
  0
VERTEX
  8
0
 10
24.75
 20
18.0
 30
0.0
  0
VERTEX
  8
0
 10
24.8
 20
18.0
 30
0.0
  0
VERTEX
  8
0
 10
24.85
 20
18.0
 30
0.0
  0
VERTEX
  8
0
 10
24.9
 20
18.0
 30
0.0
  0
VERTEX
  8
0
 10
24.95
 20
18.0
 30
0.0
  0
VERTEX
  8
0
 10
25.0
 20
18.0
 30
0.0
  0
VERTEX
  8
0
 10
25.05
 20
18.0
 30
0.0
  0
VERTEX
  8
0
 10
25.1
 20
18.0
 30
0.0
  0
VERTEX
  8
0
 10
25.15
 20
18.0
 30
0.0
  0
VERTEX
  8
0
 10
25.2
 20
18.0
 30
0.0
  0
VERTEX
  8
0
 10
25.25
 20
18.0
 30
0.0
  0
VERTEX
  8
0
 10
25.3
 20
18.0
 30
0.0
  0
VERTEX
  8
0
 10
25.35
 20
18.0
 30
0.0
  0
VERTEX
  8
0
 10
25.4
 20
18.0
 30
0.0
  0
VERTEX
  8
0
 10
25.45
 20
18.0
 30
0.0
  0
VERTEX
  8
0
 10
25.5
 20
18.0
 30
0.0
  0
VERTEX
  8
0
 10
25.55
 20
18.0
 30
0.0
  0
VERTEX
  8
0
 10
25.6
 20
18.0
 30
0.0
  0
VERTEX
  8
0
 10
25.65
 20
18.0
 30
0.0
  0
VERTEX
  8
0
 10
25.7
 20
18.0
 30
0.0
  0
VERTEX
  8
0
 10
25.75
 20
18.0
 30
0.0
  0
VERTEX
  8
0
 10
25.8
 20
18.0
 30
0.0
  0
VERTEX
  8
0
 10
25.85
 20
18.0
 30
0.0
  0
VERTEX
  8
0
 10
25.9
 20
18.0
 30
0.0
  0
VERTEX
  8
0
 10
25.95
 20
18.0
 30
0.0
  0
VERTEX
  8
0
 10
26.0
 20
18.0
 30
0.0
  0
VERTEX
  8
0
 10
26.05
 20
18.0
 30
0.0
  0
VERTEX
  8
0
 10
26.1
 20
18.0
 30
0.0
  0
VERTEX
  8
0
 10
26.15
 20
18.0
 30
0.0
  0
VERTEX
  8
0
 10
26.2
 20
18.0
 30
0.0
  0
VERTEX
  8
0
 10
26.25
 20
18.0
 30
0.0
  0
VERTEX
  8
0
 10
26.3
 20
18.0
 30
0.0
  0
VERTEX
  8
0
 10
26.35
 20
18.0
 30
0.0
  0
VERTEX
  8
0
 10
26.4
 20
18.0
 30
0.0
  0
VERTEX
  8
0
 10
26.45
 20
18.0
 30
0.0
  0
VERTEX
  8
0
 10
26.5
 20
18.0
 30
0.0
  0
VERTEX
  8
0
 10
26.55
 20
18.0
 30
0.0
  0
VERTEX
  8
0
 10
26.6
 20
18.0
 30
0.0
  0
VERTEX
  8
0
 10
26.65
 20
18.0
 30
0.0
  0
VERTEX
  8
0
 10
26.7
 20
18.0
 30
0.0
  0
VERTEX
  8
0
 10
26.75
 20
18.0
 30
0.0
  0
VERTEX
  8
0
 10
26.8
 20
18.0
 30
0.0
  0
VERTEX
  8
0
 10
26.85
 20
18.0
 30
0.0
  0
VERTEX
  8
0
 10
26.9
 20
18.0
 30
0.0
  0
VERTEX
  8
0
 10
26.95
 20
18.0
 30
0.0
  0
VERTEX
  8
0
 10
27.0
 20
18.0
 30
0.0
  0
VERTEX
  8
0
 10
27.05
 20
18.0
 30
0.0
  0
VERTEX
  8
0
 10
27.1
 20
18.0
 30
0.0
  0
VERTEX
  8
0
 10
27.15
 20
18.0
 30
0.0
  0
VERTEX
  8
0
 10
27.2
 20
18.0
 30
0.0
  0
VERTEX
  8
0
 10
27.25
 20
18.0
 30
0.0
  0
VERTEX
  8
0
 10
27.3
 20
18.0
 30
0.0
  0
VERTEX
  8
0
 10
27.35
 20
18.0
 30
0.0
  0
VERTEX
  8
0
 10
27.4
 20
18.0
 30
0.0
  0
VERTEX
  8
0
 10
27.45
 20
18.0
 30
0.0
  0
VERTEX
  8
0
 10
27.5
 20
18.0
 30
0.0
  0
SEQEND
  8
0
  0
POLYLINE
  8
0
 62
0
 70
0
 66
1
 10
0.0
 20
0.0
 30
0.0
  0
VERTEX
  8
0
 10
34.0
 20
18.0
 30
0.0
  0
VERTEX
  8
0
 10
33.95
 20
18.0
 30
0.0
  0
VERTEX
  8
0
 10
33.9
 20
18.0
 30
0.0
  0
VERTEX
  8
0
 10
33.85
 20
18.0
 30
0.0
  0
VERTEX
  8
0
 10
33.8
 20
18.0
 30
0.0
  0
VERTEX
  8
0
 10
33.75
 20
18.0
 30
0.0
  0
VERTEX
  8
0
 10
33.7
 20
18.0
 30
0.0
  0
VERTEX
  8
0
 10
33.65
 20
18.0
 30
0.0
  0
VERTEX
  8
0
 10
33.6
 20
18.0
 30
0.0
  0
VERTEX
  8
0
 10
33.55
 20
18.0
 30
0.0
  0
VERTEX
  8
0
 10
33.5
 20
18.0
 30
0.0
  0
VERTEX
  8
0
 10
33.45
 20
18.0
 30
0.0
  0
VERTEX
  8
0
 10
33.4
 20
18.0
 30
0.0
  0
VERTEX
  8
0
 10
33.35
 20
18.0
 30
0.0
  0
VERTEX
  8
0
 10
33.3
 20
18.0
 30
0.0
  0
VERTEX
  8
0
 10
33.25
 20
18.0
 30
0.0
  0
VERTEX
  8
0
 10
33.2
 20
18.0
 30
0.0
  0
VERTEX
  8
0
 10
33.15
 20
18.0
 30
0.0
  0
VERTEX
  8
0
 10
33.125
 20
18.0
 30
0.0
  0
SEQEND
  8
0
  0
POLYLINE
  8
0
 62
0
 70
0
 66
1
 10
0.0
 20
0.0
 30
0.0
  0
VERTEX
  8
0
 10
25.4
 20
8.0
 30
0.0
  0
VERTEX
  8
0
 10
25.35
 20
8.0
 30
0.0
  0
VERTEX
  8
0
 10
25.3
 20
8.0
 30
0.0
  0
VERTEX
  8
0
 10
25.25
 20
8.0
 30
0.0
  0
VERTEX
  8
0
 10
25.2
 20
8.0
 30
0.0
  0
VERTEX
  8
0
 10
25.15
 20
8.0
 30
0.0
  0
VERTEX
  8
0
 10
25.1
 20
8.0
 30
0.0
  0
VERTEX
  8
0
 10
25.05
 20
8.0
 30
0.0
  0
VERTEX
  8
0
 10
25.0
 20
8.0
 30
0.0
  0
VERTEX
  8
0
 10
24.95
 20
8.0
 30
0.0
  0
VERTEX
  8
0
 10
24.9
 20
8.0
 30
0.0
  0
VERTEX
  8
0
 10
24.85
 20
8.0
 30
0.0
  0
VERTEX
  8
0
 10
24.8
 20
8.0
 30
0.0
  0
VERTEX
  8
0
 10
24.75
 20
8.0
 30
0.0
  0
VERTEX
  8
0
 10
24.7
 20
8.0
 30
0.0
  0
VERTEX
  8
0
 10
24.65
 20
8.0
 30
0.0
  0
VERTEX
  8
0
 10
24.6
 20
8.0
 30
0.0
  0
VERTEX
  8
0
 10
24.55
 20
8.0
 30
0.0
  0
VERTEX
  8
0
 10
24.5
 20
8.0
 30
0.0
  0
SEQEND
  8
0
  0
LINE
  8
0
 62
0
 10
20.0
 20
1.43218770177e-14
 30
0.0
 11
20.0
 21
18.0
 31
0.0
  0
LINE
  8
0
 62
0
 10
40.0
 20
1.33226762955e-14
 30
0.0
 11
34.875
 21
1.35787214806e-14
 31
0.0
  0
LINE
  8
0
 62
0
 10
33.125
 20
1.36661515437e-14
 30
0.0
 11
27.5
 21
1.39471767469e-14
 31
0.0
  0
LINE
  8
0
 62
0
 10
24.5
 20
1.40970568552e-14
 30
0.0
 11
20.0
 21
1.43218770177e-14
 31
0.0
  0
LINE
  8
0
 62
0
 10
40.0
 20
18.0
 30
0.0
 11
34.875
 21
18.0
 31
0.0
  0
LINE
  8
0
 62
0
 10
33.125
 20
18.0
 30
0.0
 11
27.5
 21
18.0
 31
0.0
  0
LINE
  8
0
 62
0
 10
24.5
 20
18.0
 30
0.0
 11
20.0
 21
18.0
 31
0.0
  0
LINE
  8
0
 62
0
 10
24.5
 20
18.0
 30
0.0
 11
24.5
 21
2.11455852828e-14
 31
0.0
  0
LINE
  8
0
 62
0
 10
40.0
 20
18.0
 30
0.0
 11
40.0
 21
1.65492619608e-14
 31
0.0
  0
LINE
  8
0
 62
0
 10
40.0
 20
1.33226762955e-14
 30
0.0
 11
40.0
 21
18.0
 31
0.0
  0
LINE
  8
0
 62
0
 10
34.875
 20
18.0
 30
0.0
 11
34.875
 21
2.03680822208e-14
 31
0.0
  0
LINE
  8
0
 62
0
 10
33.125
 20
2.69183708657e-14
 30
0.0
 11
33.125
 21
18.0
 31
0.0
  0
LINE
  8
0
 62
0
 10
33.125
 20
18.0
 30
0.0
 11
33.125
 21
2.04992273156e-14
 31
0.0
  0
LINE
  8
0
 62
0
 10
27.5
 20
18.0
 30
0.0
 11
27.5
 21
2.09207651203e-14
 31
0.0
  0
LINE
  8
0
 62
0
 10
27.5
 20
2.76481590955e-14
 30
0.0
 11
27.5
 21
18.0
 31
0.0
  0
ENDBLK
  0
ENDSEC
  0
SECTION
  2
ENTITIES
  0
INSERT
  2
CUT001
  8
0
 62
0
 10
0.0
 20
0.0
 30
0.0
  0
ENDSEC
  0
EOF
