  0
SECTION
  2
HEADER
  9
$ACADVER
  1
AC1009
  9
$INSBASE
 10
0.0
 20
0.0
 30
0.0
  9
$EXTMIN
 10
0.0
 20
0.0
 30
0.0
  9
$EXTMAX
 10
0.0
 20
0.0
 30
0.0
  0
ENDSEC
  0
SECTION
  2
TABLES
  0
TABLE
  2
VPORT
 70
0
  0
ENDTAB
  0
TABLE
  2
LTYPE
 70
1
  0
LTYPE
  2
CONTINUOUS
 70
0
  3
Solid line
 72
65
 73
0
 40
0.0
  0
ENDTAB
  0
TABLE
  2
LAYER
 70
1
  0
LAYER
  2
0
 70
64
 62
7
  6
continuous
  0
ENDTAB
  0
TABLE
  2
STYLE
 70
1
  0
STYLE
  2
STANDARD
 70
0
 40
0
 41
1.0
 50
0.0
 71
0
 42
1
 3
ARIAL.TTF
 4

  0
ENDTAB
  0
TABLE
  2
VIEW
 70
0
  0
ENDTAB
  0
ENDSEC
  0
SECTION
  2
BLOCKS
  0
BLOCK
  8
0
  2
CUT
 70
0
 10
0.0
 20
0.0
 30
0.0
  3
CUT
  0
POLYLINE
  8
0
 62
0
 70
0
 66
1
 10
0.0
 20
0.0
 30
0.0
  0
VERTEX
  8
0
 10
39.3213648504
 20
9.31557064237e-15
 30
0.0
  0
VERTEX
  8
0
 10
39.2713648504
 20
9.31463541055e-15
 30
0.0
  0
VERTEX
  8
0
 10
39.2213648504
 20
9.31370017873e-15
 30
0.0
  0
VERTEX
  8
0
 10
39.1713648504
 20
9.31276494692e-15
 30
0.0
  0
VERTEX
  8
0
 10
39.1213648504
 20
9.3106153537e-15
 30
0.0
  0
VERTEX
  8
0
 10
39.0713648504
 20
9.30778583651e-15
 30
0.0
  0
VERTEX
  8
0
 10
39.0213648504
 20
9.30495631933e-15
 30
0.0
  0
VERTEX
  8
0
 10
38.9713648504
 20
9.30148836381e-15
 30
0.0
  0
VERTEX
  8
0
 10
38.9213648504
 20
9.29669061766e-15
 30
0.0
  0
VERTEX
  8
0
 10
38.8713648504
 20
9.29189287151e-15
 30
0.0
  0
VERTEX
  8
0
 10
38.8213648504
 20
9.2869026792e-15
 30
0.0
  0
VERTEX
  8
0
 10
38.7713648504
 20
9.28000463769e-15
 30
0.0
  0
VERTEX
  8
0
 10
38.7213648504
 20
9.27310659618e-15
 30
0.0
  0
VERTEX
  8
0
 10
38.6713648504
 20
9.26620855467e-15
 30
0.0
  0
VERTEX
  8
0
 10
38.6213648504
 20
9.25704265205e-15
 30
0.0
  0
VERTEX
  8
0
 10
38.5713648504
 20
9.24783867341e-15
 30
0.0
  0
VERTEX
  8
0
 10
38.5213648504
 20
9.23853272046e-15
 30
0.0
  0
VERTEX
  8
0
 10
38.4713648504
 20
9.22671654178e-15
 30
0.0
  0
VERTEX
  8
0
 10
38.4213648504
 20
9.21490036311e-15
 30
0.0
  0
VERTEX
  8
0
 10
38.3713648504
 20
9.20217872897e-15
 30
0.0
  0
VERTEX
  8
0
 10
38.3213648504
 20
9.18729638966e-15
 30
0.0
  0
VERTEX
  8
0
 10
38.2713648504
 20
9.17241405036e-15
 30
0.0
  0
VERTEX
  8
0
 10
38.2213648504
 20
9.1545790502e-15
 30
0.0
  0
VERTEX
  8
0
 10
38.1713648504
 20
9.13594394813e-15
 30
0.0
  0
VERTEX
  8
0
 10
38.1213648504
 20
9.11467318005e-15
 30
0.0
  0
VERTEX
  8
0
 10
38.0713648504
 20
9.09120248622e-15
 30
0.0
  0
VERTEX
  8
0
 10
38.0213648504
 20
9.06374653018e-15
 30
0.0
  0
VERTEX
  8
0
 10
37.9713648504
 20
9.03361457067e-15
 30
0.0
  0
VERTEX
  8
0
 10
37.9213648504
 20
8.993702614e-15
 30
0.0
  0
VERTEX
  8
0
 10
37.8713648504
 20
8.94146806926e-15
 30
0.0
  0
VERTEX
  8
0
 10
37.8213648504
 20
8.81597028128e-15
 30
0.0
  0
SEQEND
  8
0
  0
POLYLINE
  8
0
 62
0
 70
0
 66
1
 10
0.0
 20
0.0
 30
0.0
  0
VERTEX
  8
0
 10
39.4738198662
 20
1.17719390843e-14
 30
0.0
  0
VERTEX
  8
0
 10
39.4238198662
 20
1.17710038525e-14
 30
0.0
  0
VERTEX
  8
0
 10
39.3738198662
 20
1.17699916717e-14
 30
0.0
  0
VERTEX
  8
0
 10
39.3238198662
 20
1.17671621545e-14
 30
0.0
  0
VERTEX
  8
0
 10
39.2738198662
 20
1.1764124234e-14
 30
0.0
  0
VERTEX
  8
0
 10
39.2238198662
 20
1.17593264879e-14
 30
0.0
  0
VERTEX
  8
0
 10
39.1738198662
 20
1.17540664323e-14
 30
0.0
  0
VERTEX
  8
0
 10
39.1238198662
 20
1.17471683907e-14
 30
0.0
  0
VERTEX
  8
0
 10
39.0738198662
 20
1.17393317531e-14
 30
0.0
  0
VERTEX
  8
0
 10
39.0238198662
 20
1.17301277745e-14
 30
0.0
  0
VERTEX
  8
0
 10
38.9738198662
 20
1.17191228441e-14
 30
0.0
  0
VERTEX
  8
0
 10
38.9238198662
 20
1.17070339965e-14
 30
0.0
  0
VERTEX
  8
0
 10
38.8738198662
 20
1.16921516572e-14
 30
0.0
  0
VERTEX
  8
0
 10
38.8238198662
 20
1.16749214719e-14
 30
0.0
  0
VERTEX
  8
0
 10
38.7738198662
 20
1.1654748898e-14
 30
0.0
  0
VERTEX
  8
0
 10
38.7238198662
 20
1.16300636788e-14
 30
0.0
  0
VERTEX
  8
0
 10
38.6738198662
 20
1.15975843119e-14
 30
0.0
  0
VERTEX
  8
0
 10
38.6238198662
 20
1.15488954966e-14
 30
0.0
  0
VERTEX
  8
0
 10
38.5988198662
 20
1.14805055404e-14
 30
0.0
  0
SEQEND
  8
0
  0
POLYLINE
  8
0
 62
0
 70
0
 66
1
 10
0.0
 20
0.0
 30
0.0
  0
VERTEX
  8
0
 10
33.061188
 20
1.34591854328e-14
 30
0.0
  0
VERTEX
  8
0
 10
33.111188
 20
1.33676246119e-14
 30
0.0
  0
VERTEX
  8
0
 10
33.161188
 20
1.33256618709e-14
 30
0.0
  0
VERTEX
  8
0
 10
33.211188
 20
1.32991582236e-14
 30
0.0
  0
VERTEX
  8
0
 10
33.261188
 20
1.3274447833e-14
 30
0.0
  0
VERTEX
  8
0
 10
33.311188
 20
1.32577944876e-14
 30
0.0
  0
VERTEX
  8
0
 10
33.361188
 20
1.32411411423e-14
 30
0.0
  0
VERTEX
  8
0
 10
33.411188
 20
1.32270320645e-14
 30
0.0
  0
VERTEX
  8
0
 10
33.461188
 20
1.32165680741e-14
 30
0.0
  0
VERTEX
  8
0
 10
33.511188
 20
1.32061040837e-14
 30
0.0
  0
VERTEX
  8
0
 10
33.561188
 20
1.31960711491e-14
 30
0.0
  0
VERTEX
  8
0
 10
33.611188
 20
1.31902438915e-14
 30
0.0
  0
VERTEX
  8
0
 10
33.661188
 20
1.3184416634e-14
 30
0.0
  0
VERTEX
  8
0
 10
33.711188
 20
1.31785893764e-14
 30
0.0
  0
VERTEX
  8
0
 10
33.761188
 20
1.31743192237e-14
 30
0.0
  0
VERTEX
  8
0
 10
33.811188
 20
1.31724428423e-14
 30
0.0
  0
VERTEX
  8
0
 10
33.861188
 20
1.31705664609e-14
 30
0.0
  0
VERTEX
  8
0
 10
33.911188
 20
1.31686900796e-14
 30
0.0
  0
VERTEX
  8
0
 10
33.961188
 20
1.31686900796e-14
 30
0.0
  0
VERTEX
  8
0
 10
34.011188
 20
1.31705664609e-14
 30
0.0
  0
VERTEX
  8
0
 10
34.061188
 20
1.31724428423e-14
 30
0.0
  0
VERTEX
  8
0
 10
34.111188
 20
1.31743192237e-14
 30
0.0
  0
VERTEX
  8
0
 10
34.161188
 20
1.31785893764e-14
 30
0.0
  0
VERTEX
  8
0
 10
34.211188
 20
1.3184416634e-14
 30
0.0
  0
VERTEX
  8
0
 10
34.261188
 20
1.31902438915e-14
 30
0.0
  0
VERTEX
  8
0
 10
34.311188
 20
1.31960711491e-14
 30
0.0
  0
VERTEX
  8
0
 10
34.361188
 20
1.32061040837e-14
 30
0.0
  0
VERTEX
  8
0
 10
34.411188
 20
1.32165680741e-14
 30
0.0
  0
VERTEX
  8
0
 10
34.461188
 20
1.32270320645e-14
 30
0.0
  0
VERTEX
  8
0
 10
34.511188
 20
1.32411411423e-14
 30
0.0
  0
VERTEX
  8
0
 10
34.561188
 20
1.32577944876e-14
 30
0.0
  0
VERTEX
  8
0
 10
34.611188
 20
1.3274447833e-14
 30
0.0
  0
VERTEX
  8
0
 10
34.661188
 20
1.32991582236e-14
 30
0.0
  0
VERTEX
  8
0
 10
34.711188
 20
1.33256618709e-14
 30
0.0
  0
VERTEX
  8
0
 10
34.761188
 20
1.33676246119e-14
 30
0.0
  0
VERTEX
  8
0
 10
34.811188
 20
1.34591854328e-14
 30
0.0
  0
SEQEND
  8
0
  0
POLYLINE
  8
0
 62
0
 70
0
 66
1
 10
0.0
 20
0.0
 30
0.0
  0
VERTEX
  8
0
 10
24.436188
 20
1.38240795478e-14
 30
0.0
  0
VERTEX
  8
0
 10
24.486188
 20
1.37011128024e-14
 30
0.0
  0
VERTEX
  8
0
 10
24.536188
 20
1.36535202756e-14
 30
0.0
  0
VERTEX
  8
0
 10
24.586188
 20
1.3606540719e-14
 30
0.0
  0
VERTEX
  8
0
 10
24.636188
 20
1.35800370717e-14
 30
0.0
  0
VERTEX
  8
0
 10
24.686188
 20
1.35535334244e-14
 30
0.0
  0
VERTEX
  8
0
 10
24.736188
 20
1.3527029777e-14
 30
0.0
  0
VERTEX
  8
0
 10
24.786188
 20
1.35050074702e-14
 30
0.0
  0
VERTEX
  8
0
 10
24.836188
 20
1.34883541248e-14
 30
0.0
  0
VERTEX
  8
0
 10
24.886188
 20
1.34717007794e-14
 30
0.0
  0
VERTEX
  8
0
 10
24.936188
 20
1.34550474341e-14
 30
0.0
  0
VERTEX
  8
0
 10
24.986188
 20
1.34383940887e-14
 30
0.0
  0
VERTEX
  8
0
 10
25.036188
 20
1.3426102345e-14
 30
0.0
  0
VERTEX
  8
0
 10
25.086188
 20
1.34156383545e-14
 30
0.0
  0
VERTEX
  8
0
 10
25.136188
 20
1.34051743641e-14
 30
0.0
  0
VERTEX
  8
0
 10
25.186188
 20
1.33947103737e-14
 30
0.0
  0
VERTEX
  8
0
 10
25.236188
 20
1.33842463832e-14
 30
0.0
  0
VERTEX
  8
0
 10
25.286188
 20
1.33738589553e-14
 30
0.0
  0
VERTEX
  8
0
 10
25.336188
 20
1.33680316978e-14
 30
0.0
  0
VERTEX
  8
0
 10
25.386188
 20
1.33622044402e-14
 30
0.0
  0
VERTEX
  8
0
 10
25.436188
 20
1.33563771826e-14
 30
0.0
  0
VERTEX
  8
0
 10
25.486188
 20
1.3350549925e-14
 30
0.0
  0
VERTEX
  8
0
 10
25.536188
 20
1.33447226675e-14
 30
0.0
  0
VERTEX
  8
0
 10
25.586188
 20
1.33388954099e-14
 30
0.0
  0
VERTEX
  8
0
 10
25.636188
 20
1.3335737475e-14
 30
0.0
  0
VERTEX
  8
0
 10
25.686188
 20
1.33338610936e-14
 30
0.0
  0
VERTEX
  8
0
 10
25.736188
 20
1.33319847122e-14
 30
0.0
  0
VERTEX
  8
0
 10
25.786188
 20
1.33301083308e-14
 30
0.0
  0
VERTEX
  8
0
 10
25.836188
 20
1.33282319494e-14
 30
0.0
  0
VERTEX
  8
0
 10
25.886188
 20
1.33263555681e-14
 30
0.0
  0
VERTEX
  8
0
 10
25.936188
 20
1.33244791867e-14
 30
0.0
  0
VERTEX
  8
0
 10
25.986188
 20
1.33263555681e-14
 30
0.0
  0
VERTEX
  8
0
 10
26.036188
 20
1.33282319494e-14
 30
0.0
  0
VERTEX
  8
0
 10
26.086188
 20
1.33301083308e-14
 30
0.0
  0
VERTEX
  8
0
 10
26.136188
 20
1.33319847122e-14
 30
0.0
  0
VERTEX
  8
0
 10
26.186188
 20
1.33338610936e-14
 30
0.0
  0
VERTEX
  8
0
 10
26.236188
 20
1.3335737475e-14
 30
0.0
  0
VERTEX
  8
0
 10
26.286188
 20
1.33388954099e-14
 30
0.0
  0
VERTEX
  8
0
 10
26.336188
 20
1.33447226675e-14
 30
0.0
  0
VERTEX
  8
0
 10
26.386188
 20
1.3350549925e-14
 30
0.0
  0
VERTEX
  8
0
 10
26.436188
 20
1.33563771826e-14
 30
0.0
  0
VERTEX
  8
0
 10
26.486188
 20
1.33622044402e-14
 30
0.0
  0
VERTEX
  8
0
 10
26.536188
 20
1.33680316978e-14
 30
0.0
  0
VERTEX
  8
0
 10
26.586188
 20
1.33738589553e-14
 30
0.0
  0
VERTEX
  8
0
 10
26.636188
 20
1.33842463832e-14
 30
0.0
  0
VERTEX
  8
0
 10
26.686188
 20
1.33947103737e-14
 30
0.0
  0
VERTEX
  8
0
 10
26.736188
 20
1.34051743641e-14
 30
0.0
  0
VERTEX
  8
0
 10
26.786188
 20
1.34156383545e-14
 30
0.0
  0
VERTEX
  8
0
 10
26.836188
 20
1.3426102345e-14
 30
0.0
  0
VERTEX
  8
0
 10
26.886188
 20
1.34383940887e-14
 30
0.0
  0
VERTEX
  8
0
 10
26.936188
 20
1.34550474341e-14
 30
0.0
  0
VERTEX
  8
0
 10
26.986188
 20
1.34717007794e-14
 30
0.0
  0
VERTEX
  8
0
 10
27.036188
 20
1.34883541248e-14
 30
0.0
  0
VERTEX
  8
0
 10
27.086188
 20
1.35050074702e-14
 30
0.0
  0
VERTEX
  8
0
 10
27.136188
 20
1.3527029777e-14
 30
0.0
  0
VERTEX
  8
0
 10
27.186188
 20
1.35535334244e-14
 30
0.0
  0
VERTEX
  8
0
 10
27.236188
 20
1.35800370717e-14
 30
0.0
  0
VERTEX
  8
0
 10
27.286188
 20
1.3606540719e-14
 30
0.0
  0
VERTEX
  8
0
 10
27.336188
 20
1.36535202756e-14
 30
0.0
  0
VERTEX
  8
0
 10
27.386188
 20
1.37011128024e-14
 30
0.0
  0
VERTEX
  8
0
 10
27.436188
 20
1.38240795478e-14
 30
0.0
  0
SEQEND
  8
0
  0
POLYLINE
  8
0
 62
0
 70
0
 66
1
 10
0.0
 20
0.0
 30
0.0
  0
VERTEX
  8
0
 10
25.027588
 20
2.24893830225e-14
 30
0.0
  0
VERTEX
  8
0
 10
24.977588
 20
2.27252666175e-14
 30
0.0
  0
VERTEX
  8
0
 10
24.927588
 20
2.2820451671e-14
 30
0.0
  0
VERTEX
  8
0
 10
24.877588
 20
2.29060569617e-14
 30
0.0
  0
VERTEX
  8
0
 10
24.827588
 20
2.29590642564e-14
 30
0.0
  0
VERTEX
  8
0
 10
24.777588
 20
2.3012071551e-14
 30
0.0
  0
VERTEX
  8
0
 10
24.727588
 20
2.30650788457e-14
 30
0.0
  0
VERTEX
  8
0
 10
24.677588
 20
2.31005273564e-14
 30
0.0
  0
VERTEX
  8
0
 10
24.627588
 20
2.31338340471e-14
 30
0.0
  0
VERTEX
  8
0
 10
24.577588
 20
2.31671407378e-14
 30
0.0
  0
VERTEX
  8
0
 10
24.527588
 20
2.32004474286e-14
 30
0.0
  0
VERTEX
  8
0
 10
24.477588
 20
2.32280882049e-14
 30
0.0
  0
VERTEX
  8
0
 10
24.427588
 20
2.32490161858e-14
 30
0.0
  0
VERTEX
  8
0
 10
24.377588
 20
2.32699441666e-14
 30
0.0
  0
VERTEX
  8
0
 10
24.327588
 20
2.32908721475e-14
 30
0.0
  0
VERTEX
  8
0
 10
24.277588
 20
2.33118001283e-14
 30
0.0
  0
VERTEX
  8
0
 10
24.227588
 20
2.33313487304e-14
 30
0.0
  0
VERTEX
  8
0
 10
24.177588
 20
2.33430032455e-14
 30
0.0
  0
VERTEX
  8
0
 10
24.127588
 20
2.33546577607e-14
 30
0.0
  0
VERTEX
  8
0
 10
24.077588
 20
2.33663122758e-14
 30
0.0
  0
VERTEX
  8
0
 10
24.027588
 20
2.3377966791e-14
 30
0.0
  0
VERTEX
  8
0
 10
23.977588
 20
2.33896213061e-14
 30
0.0
  0
VERTEX
  8
0
 10
23.927588
 20
2.33994537866e-14
 30
0.0
  0
VERTEX
  8
0
 10
23.877588
 20
2.34032065494e-14
 30
0.0
  0
VERTEX
  8
0
 10
23.827588
 20
2.34069593121e-14
 30
0.0
  0
VERTEX
  8
0
 10
23.777588
 20
2.34107120749e-14
 30
0.0
  0
VERTEX
  8
0
 10
23.727588
 20
2.34144648377e-14
 30
0.0
  0
VERTEX
  8
0
 10
23.677588
 20
2.34182176004e-14
 30
0.0
  0
VERTEX
  8
0
 10
23.627588
 20
2.34219703632e-14
 30
0.0
  0
VERTEX
  8
0
 10
23.577588
 20
2.34182176004e-14
 30
0.0
  0
VERTEX
  8
0
 10
23.527588
 20
2.34144648377e-14
 30
0.0
  0
VERTEX
  8
0
 10
23.477588
 20
2.34107120749e-14
 30
0.0
  0
VERTEX
  8
0
 10
23.427588
 20
2.34069593121e-14
 30
0.0
  0
VERTEX
  8
0
 10
23.377588
 20
2.34032065494e-14
 30
0.0
  0
VERTEX
  8
0
 10
23.327588
 20
2.33994537866e-14
 30
0.0
  0
VERTEX
  8
0
 10
23.277588
 20
2.33896213061e-14
 30
0.0
  0
VERTEX
  8
0
 10
23.227588
 20
2.3377966791e-14
 30
0.0
  0
VERTEX
  8
0
 10
23.177588
 20
2.33663122758e-14
 30
0.0
  0
VERTEX
  8
0
 10
23.127588
 20
2.33546577607e-14
 30
0.0
  0
VERTEX
  8
0
 10
23.077588
 20
2.33430032455e-14
 30
0.0
  0
VERTEX
  8
0
 10
23.027588
 20
2.33313487304e-14
 30
0.0
  0
VERTEX
  8
0
 10
22.977588
 20
2.33118001283e-14
 30
0.0
  0
VERTEX
  8
0
 10
22.927588
 20
2.32908721475e-14
 30
0.0
  0
VERTEX
  8
0
 10
22.877588
 20
2.32699441666e-14
 30
0.0
  0
VERTEX
  8
0
 10
22.827588
 20
2.32490161858e-14
 30
0.0
  0
VERTEX
  8
0
 10
22.777588
 20
2.32280882049e-14
 30
0.0
  0
VERTEX
  8
0
 10
22.727588
 20
2.32004474286e-14
 30
0.0
  0
VERTEX
  8
0
 10
22.677588
 20
2.31671407378e-14
 30
0.0
  0
VERTEX
  8
0
 10
22.627588
 20
2.31338340471e-14
 30
0.0
  0
VERTEX
  8
0
 10
22.577588
 20
2.31005273564e-14
 30
0.0
  0
VERTEX
  8
0
 10
22.527588
 20
2.30650788457e-14
 30
0.0
  0
VERTEX
  8
0
 10
22.477588
 20
2.3012071551e-14
 30
0.0
  0
VERTEX
  8
0
 10
22.427588
 20
2.29590642564e-14
 30
0.0
  0
VERTEX
  8
0
 10
22.377588
 20
2.29060569617e-14
 30
0.0
  0
VERTEX
  8
0
 10
22.327588
 20
2.2820451671e-14
 30
0.0
  0
VERTEX
  8
0
 10
22.277588
 20
2.27252666175e-14
 30
0.0
  0
VERTEX
  8
0
 10
22.227588
 20
2.24893830225e-14
 30
0.0
  0
SEQEND
  8
0
  0
POLYLINE
  8
0
 62
0
 70
0
 66
1
 10
0.0
 20
0.0
 30
0.0
  0
VERTEX
  8
0
 10
33.894077
 20
1.11681244253e-14
 30
0.0
  0
VERTEX
  8
0
 10
33.844077
 20
1.13159269534e-14
 30
0.0
  0
VERTEX
  8
0
 10
33.794077
 20
1.1414057916e-14
 30
0.0
  0
VERTEX
  8
0
 10
33.744077
 20
1.14616504428e-14
 30
0.0
  0
VERTEX
  8
0
 10
33.694077
 20
1.15092429695e-14
 30
0.0
  0
VERTEX
  8
0
 10
33.644077
 20
1.15568354963e-14
 30
0.0
  0
VERTEX
  8
0
 10
33.594077
 20
1.16032020827e-14
 30
0.0
  0
VERTEX
  8
0
 10
33.544077
 20
1.162970573e-14
 30
0.0
  0
VERTEX
  8
0
 10
33.494077
 20
1.16562093774e-14
 30
0.0
  0
VERTEX
  8
0
 10
33.444077
 20
1.16827130247e-14
 30
0.0
  0
VERTEX
  8
0
 10
33.394077
 20
1.1709216672e-14
 30
0.0
  0
VERTEX
  8
0
 10
33.344077
 20
1.17357203193e-14
 30
0.0
  0
VERTEX
  8
0
 10
33.294077
 20
1.17622239667e-14
 30
0.0
  0
VERTEX
  8
0
 10
33.244077
 20
1.1788727614e-14
 30
0.0
  0
VERTEX
  8
0
 10
33.194077
 20
1.18062685804e-14
 30
0.0
  0
VERTEX
  8
0
 10
33.144077
 20
1.18229219258e-14
 30
0.0
  0
VERTEX
  8
0
 10
33.094077
 20
1.18395752712e-14
 30
0.0
  0
VERTEX
  8
0
 10
33.044077
 20
1.18562286165e-14
 30
0.0
  0
VERTEX
  8
0
 10
32.994077
 20
1.18728819619e-14
 30
0.0
  0
VERTEX
  8
0
 10
32.944077
 20
1.18895353073e-14
 30
0.0
  0
VERTEX
  8
0
 10
32.894077
 20
1.19061886526e-14
 30
0.0
  0
VERTEX
  8
0
 10
32.844077
 20
1.1922841998e-14
 30
0.0
  0
VERTEX
  8
0
 10
32.794077
 20
1.19394953434e-14
 30
0.0
  0
VERTEX
  8
0
 10
32.744077
 20
1.19536148404e-14
 30
0.0
  0
VERTEX
  8
0
 10
32.694077
 20
1.19640788309e-14
 30
0.0
  0
VERTEX
  8
0
 10
32.644077
 20
1.19745428213e-14
 30
0.0
  0
VERTEX
  8
0
 10
32.594077
 20
1.19850068117e-14
 30
0.0
  0
VERTEX
  8
0
 10
32.544077
 20
1.19954708021e-14
 30
0.0
  0
VERTEX
  8
0
 10
32.494077
 20
1.20059347926e-14
 30
0.0
  0
VERTEX
  8
0
 10
32.444077
 20
1.2016398783e-14
 30
0.0
  0
VERTEX
  8
0
 10
32.394077
 20
1.20268627734e-14
 30
0.0
  0
VERTEX
  8
0
 10
32.344077
 20
1.20373267639e-14
 30
0.0
  0
VERTEX
  8
0
 10
32.294077
 20
1.20477907543e-14
 30
0.0
  0
VERTEX
  8
0
 10
32.244077
 20
1.20582547447e-14
 30
0.0
  0
VERTEX
  8
0
 10
32.194077
 20
1.20685656101e-14
 30
0.0
  0
VERTEX
  8
0
 10
32.144077
 20
1.20743928677e-14
 30
0.0
  0
VERTEX
  8
0
 10
32.094077
 20
1.20802201252e-14
 30
0.0
  0
VERTEX
  8
0
 10
32.044077
 20
1.20860473828e-14
 30
0.0
  0
VERTEX
  8
0
 10
31.994077
 20
1.20918746404e-14
 30
0.0
  0
VERTEX
  8
0
 10
31.944077
 20
1.2097701898e-14
 30
0.0
  0
VERTEX
  8
0
 10
31.894077
 20
1.21035291555e-14
 30
0.0
  0
VERTEX
  8
0
 10
31.844077
 20
1.21093564131e-14
 30
0.0
  0
VERTEX
  8
0
 10
31.794077
 20
1.21151836707e-14
 30
0.0
  0
VERTEX
  8
0
 10
31.744077
 20
1.21210109283e-14
 30
0.0
  0
VERTEX
  8
0
 10
31.694077
 20
1.21268381858e-14
 30
0.0
  0
VERTEX
  8
0
 10
31.644077
 20
1.21326654434e-14
 30
0.0
  0
VERTEX
  8
0
 10
31.594077
 20
1.2138492701e-14
 30
0.0
  0
VERTEX
  8
0
 10
31.544077
 20
1.21429321895e-14
 30
0.0
  0
VERTEX
  8
0
 10
31.494077
 20
1.21448085708e-14
 30
0.0
  0
VERTEX
  8
0
 10
31.444077
 20
1.21466849522e-14
 30
0.0
  0
VERTEX
  8
0
 10
31.394077
 20
1.21485613336e-14
 30
0.0
  0
VERTEX
  8
0
 10
31.344077
 20
1.2150437715e-14
 30
0.0
  0
VERTEX
  8
0
 10
31.294077
 20
1.21523140964e-14
 30
0.0
  0
VERTEX
  8
0
 10
31.244077
 20
1.21541904777e-14
 30
0.0
  0
VERTEX
  8
0
 10
31.194077
 20
1.21560668591e-14
 30
0.0
  0
VERTEX
  8
0
 10
31.144077
 20
1.21579432405e-14
 30
0.0
  0
VERTEX
  8
0
 10
31.094077
 20
1.21598196219e-14
 30
0.0
  0
VERTEX
  8
0
 10
31.044077
 20
1.21616960033e-14
 30
0.0
  0
VERTEX
  8
0
 10
30.994077
 20
1.21635723847e-14
 30
0.0
  0
VERTEX
  8
0
 10
30.944077
 20
1.2165448766e-14
 30
0.0
  0
VERTEX
  8
0
 10
30.894077
 20
1.21673251474e-14
 30
0.0
  0
VERTEX
  8
0
 10
30.844077
 20
1.2165448766e-14
 30
0.0
  0
VERTEX
  8
0
 10
30.794077
 20
1.21635723847e-14
 30
0.0
  0
VERTEX
  8
0
 10
30.744077
 20
1.21616960033e-14
 30
0.0
  0
VERTEX
  8
0
 10
30.694077
 20
1.21598196219e-14
 30
0.0
  0
VERTEX
  8
0
 10
30.644077
 20
1.21579432405e-14
 30
0.0
  0
VERTEX
  8
0
 10
30.594077
 20
1.21560668591e-14
 30
0.0
  0
VERTEX
  8
0
 10
30.544077
 20
1.21541904777e-14
 30
0.0
  0
VERTEX
  8
0
 10
30.494077
 20
1.21523140964e-14
 30
0.0
  0
VERTEX
  8
0
 10
30.444077
 20
1.2150437715e-14
 30
0.0
  0
VERTEX
  8
0
 10
30.394077
 20
1.21485613336e-14
 30
0.0
  0
VERTEX
  8
0
 10
30.344077
 20
1.21466849522e-14
 30
0.0
  0
VERTEX
  8
0
 10
30.294077
 20
1.21448085708e-14
 30
0.0
  0
VERTEX
  8
0
 10
30.244077
 20
1.21429321895e-14
 30
0.0
  0
VERTEX
  8
0
 10
30.194077
 20
1.2138492701e-14
 30
0.0
  0
VERTEX
  8
0
 10
30.144077
 20
1.21326654434e-14
 30
0.0
  0
VERTEX
  8
0
 10
30.094077
 20
1.21268381858e-14
 30
0.0
  0
VERTEX
  8
0
 10
30.044077
 20
1.21210109283e-14
 30
0.0
  0
VERTEX
  8
0
 10
29.994077
 20
1.21151836707e-14
 30
0.0
  0
VERTEX
  8
0
 10
29.944077
 20
1.21093564131e-14
 30
0.0
  0
VERTEX
  8
0
 10
29.894077
 20
1.21035291555e-14
 30
0.0
  0
VERTEX
  8
0
 10
29.844077
 20
1.2097701898e-14
 30
0.0
  0
VERTEX
  8
0
 10
29.794077
 20
1.20918746404e-14
 30
0.0
  0
VERTEX
  8
0
 10
29.744077
 20
1.20860473828e-14
 30
0.0
  0
VERTEX
  8
0
 10
29.694077
 20
1.20802201252e-14
 30
0.0
  0
VERTEX
  8
0
 10
29.644077
 20
1.20743928677e-14
 30
0.0
  0
VERTEX
  8
0
 10
29.594077
 20
1.20685656101e-14
 30
0.0
  0
VERTEX
  8
0
 10
29.544077
 20
1.20582547447e-14
 30
0.0
  0
VERTEX
  8
0
 10
29.494077
 20
1.20477907543e-14
 30
0.0
  0
VERTEX
  8
0
 10
29.444077
 20
1.20373267639e-14
 30
0.0
  0
VERTEX
  8
0
 10
29.394077
 20
1.20268627734e-14
 30
0.0
  0
VERTEX
  8
0
 10
29.344077
 20
1.2016398783e-14
 30
0.0
  0
VERTEX
  8
0
 10
29.294077
 20
1.20059347926e-14
 30
0.0
  0
VERTEX
  8
0
 10
29.244077
 20
1.19954708021e-14
 30
0.0
  0
VERTEX
  8
0
 10
29.194077
 20
1.19850068117e-14
 30
0.0
  0
VERTEX
  8
0
 10
29.144077
 20
1.19745428213e-14
 30
0.0
  0
VERTEX
  8
0
 10
29.094077
 20
1.19640788309e-14
 30
0.0
  0
VERTEX
  8
0
 10
29.044077
 20
1.19536148404e-14
 30
0.0
  0
VERTEX
  8
0
 10
28.994077
 20
1.19394953434e-14
 30
0.0
  0
VERTEX
  8
0
 10
28.944077
 20
1.1922841998e-14
 30
0.0
  0
VERTEX
  8
0
 10
28.894077
 20
1.19061886526e-14
 30
0.0
  0
VERTEX
  8
0
 10
28.844077
 20
1.18895353073e-14
 30
0.0
  0
VERTEX
  8
0
 10
28.794077
 20
1.18728819619e-14
 30
0.0
  0
VERTEX
  8
0
 10
28.744077
 20
1.18562286165e-14
 30
0.0
  0
VERTEX
  8
0
 10
28.694077
 20
1.18395752712e-14
 30
0.0
  0
VERTEX
  8
0
 10
28.644077
 20
1.18229219258e-14
 30
0.0
  0
VERTEX
  8
0
 10
28.594077
 20
1.18062685804e-14
 30
0.0
  0
VERTEX
  8
0
 10
28.544077
 20
1.1788727614e-14
 30
0.0
  0
VERTEX
  8
0
 10
28.494077
 20
1.17622239667e-14
 30
0.0
  0
VERTEX
  8
0
 10
28.444077
 20
1.17357203193e-14
 30
0.0
  0
VERTEX
  8
0
 10
28.394077
 20
1.1709216672e-14
 30
0.0
  0
VERTEX
  8
0
 10
28.344077
 20
1.16827130247e-14
 30
0.0
  0
VERTEX
  8
0
 10
28.294077
 20
1.16562093774e-14
 30
0.0
  0
VERTEX
  8
0
 10
28.244077
 20
1.162970573e-14
 30
0.0
  0
VERTEX
  8
0
 10
28.194077
 20
1.16032020827e-14
 30
0.0
  0
VERTEX
  8
0
 10
28.144077
 20
1.15568354963e-14
 30
0.0
  0
VERTEX
  8
0
 10
28.094077
 20
1.15092429695e-14
 30
0.0
  0
VERTEX
  8
0
 10
28.044077
 20
1.14616504428e-14
 30
0.0
  0
VERTEX
  8
0
 10
27.994077
 20
1.1414057916e-14
 30
0.0
  0
VERTEX
  8
0
 10
27.944077
 20
1.13159269534e-14
 30
0.0
  0
VERTEX
  8
0
 10
27.894077
 20
1.11681244253e-14
 30
0.0
  0
SEQEND
  8
0
  0
POLYLINE
  8
0
 62
0
 70
0
 66
1
 10
0.0
 20
0.0
 30
0.0
  0
VERTEX
  8
0
 10
33.061188
 20
10.0
 30
0.0
  0
VERTEX
  8
0
 10
33.111188
 20
10.0
 30
0.0
  0
VERTEX
  8
0
 10
33.161188
 20
10.0
 30
0.0
  0
VERTEX
  8
0
 10
33.211188
 20
10.0
 30
0.0
  0
VERTEX
  8
0
 10
33.261188
 20
10.0
 30
0.0
  0
VERTEX
  8
0
 10
33.311188
 20
10.0
 30
0.0
  0
VERTEX
  8
0
 10
33.361188
 20
10.0
 30
0.0
  0
VERTEX
  8
0
 10
33.411188
 20
10.0
 30
0.0
  0
VERTEX
  8
0
 10
33.461188
 20
10.0
 30
0.0
  0
VERTEX
  8
0
 10
33.511188
 20
10.0
 30
0.0
  0
VERTEX
  8
0
 10
33.561188
 20
10.0
 30
0.0
  0
VERTEX
  8
0
 10
33.611188
 20
10.0
 30
0.0
  0
VERTEX
  8
0
 10
33.661188
 20
10.0
 30
0.0
  0
VERTEX
  8
0
 10
33.711188
 20
10.0
 30
0.0
  0
VERTEX
  8
0
 10
33.761188
 20
10.0
 30
0.0
  0
VERTEX
  8
0
 10
33.811188
 20
10.0
 30
0.0
  0
VERTEX
  8
0
 10
33.861188
 20
10.0
 30
0.0
  0
VERTEX
  8
0
 10
33.911188
 20
10.0
 30
0.0
  0
VERTEX
  8
0
 10
33.961188
 20
10.0
 30
0.0
  0
VERTEX
  8
0
 10
34.011188
 20
10.0
 30
0.0
  0
VERTEX
  8
0
 10
34.061188
 20
10.0
 30
0.0
  0
VERTEX
  8
0
 10
34.111188
 20
10.0
 30
0.0
  0
VERTEX
  8
0
 10
34.161188
 20
10.0
 30
0.0
  0
VERTEX
  8
0
 10
34.211188
 20
10.0
 30
0.0
  0
VERTEX
  8
0
 10
34.261188
 20
10.0
 30
0.0
  0
VERTEX
  8
0
 10
34.311188
 20
10.0
 30
0.0
  0
VERTEX
  8
0
 10
34.361188
 20
10.0
 30
0.0
  0
VERTEX
  8
0
 10
34.411188
 20
10.0
 30
0.0
  0
VERTEX
  8
0
 10
34.461188
 20
10.0
 30
0.0
  0
VERTEX
  8
0
 10
34.511188
 20
10.0
 30
0.0
  0
VERTEX
  8
0
 10
34.561188
 20
10.0
 30
0.0
  0
VERTEX
  8
0
 10
34.611188
 20
10.0
 30
0.0
  0
VERTEX
  8
0
 10
34.661188
 20
10.0
 30
0.0
  0
VERTEX
  8
0
 10
34.711188
 20
10.0
 30
0.0
  0
VERTEX
  8
0
 10
34.761188
 20
10.0
 30
0.0
  0
VERTEX
  8
0
 10
34.811188
 20
10.0
 30
0.0
  0
SEQEND
  8
0
  0
POLYLINE
  8
0
 62
0
 70
0
 66
1
 10
0.0
 20
0.0
 30
0.0
  0
VERTEX
  8
0
 10
24.436188
 20
10.0
 30
0.0
  0
VERTEX
  8
0
 10
24.486188
 20
10.0
 30
0.0
  0
VERTEX
  8
0
 10
24.536188
 20
10.0
 30
0.0
  0
VERTEX
  8
0
 10
24.586188
 20
10.0
 30
0.0
  0
VERTEX
  8
0
 10
24.636188
 20
10.0
 30
0.0
  0
VERTEX
  8
0
 10
24.686188
 20
10.0
 30
0.0
  0
VERTEX
  8
0
 10
24.736188
 20
10.0
 30
0.0
  0
VERTEX
  8
0
 10
24.786188
 20
10.0
 30
0.0
  0
VERTEX
  8
0
 10
24.836188
 20
10.0
 30
0.0
  0
VERTEX
  8
0
 10
24.886188
 20
10.0
 30
0.0
  0
VERTEX
  8
0
 10
24.936188
 20
10.0
 30
0.0
  0
VERTEX
  8
0
 10
24.986188
 20
10.0
 30
0.0
  0
VERTEX
  8
0
 10
25.036188
 20
10.0
 30
0.0
  0
VERTEX
  8
0
 10
25.086188
 20
10.0
 30
0.0
  0
VERTEX
  8
0
 10
25.136188
 20
10.0
 30
0.0
  0
VERTEX
  8
0
 10
25.186188
 20
10.0
 30
0.0
  0
VERTEX
  8
0
 10
25.236188
 20
10.0
 30
0.0
  0
VERTEX
  8
0
 10
25.286188
 20
10.0
 30
0.0
  0
VERTEX
  8
0
 10
25.336188
 20
10.0
 30
0.0
  0
VERTEX
  8
0
 10
25.386188
 20
10.0
 30
0.0
  0
VERTEX
  8
0
 10
25.436188
 20
10.0
 30
0.0
  0
VERTEX
  8
0
 10
25.486188
 20
10.0
 30
0.0
  0
VERTEX
  8
0
 10
25.536188
 20
10.0
 30
0.0
  0
VERTEX
  8
0
 10
25.586188
 20
10.0
 30
0.0
  0
VERTEX
  8
0
 10
25.636188
 20
10.0
 30
0.0
  0
VERTEX
  8
0
 10
25.686188
 20
10.0
 30
0.0
  0
VERTEX
  8
0
 10
25.736188
 20
10.0
 30
0.0
  0
VERTEX
  8
0
 10
25.786188
 20
10.0
 30
0.0
  0
VERTEX
  8
0
 10
25.836188
 20
10.0
 30
0.0
  0
VERTEX
  8
0
 10
25.886188
 20
10.0
 30
0.0
  0
VERTEX
  8
0
 10
25.936188
 20
10.0
 30
0.0
  0
VERTEX
  8
0
 10
25.986188
 20
10.0
 30
0.0
  0
VERTEX
  8
0
 10
26.036188
 20
10.0
 30
0.0
  0
VERTEX
  8
0
 10
26.086188
 20
10.0
 30
0.0
  0
VERTEX
  8
0
 10
26.136188
 20
10.0
 30
0.0
  0
VERTEX
  8
0
 10
26.186188
 20
10.0
 30
0.0
  0
VERTEX
  8
0
 10
26.236188
 20
10.0
 30
0.0
  0
VERTEX
  8
0
 10
26.286188
 20
10.0
 30
0.0
  0
VERTEX
  8
0
 10
26.336188
 20
10.0
 30
0.0
  0
VERTEX
  8
0
 10
26.386188
 20
10.0
 30
0.0
  0
VERTEX
  8
0
 10
26.436188
 20
10.0
 30
0.0
  0
VERTEX
  8
0
 10
26.486188
 20
10.0
 30
0.0
  0
VERTEX
  8
0
 10
26.536188
 20
10.0
 30
0.0
  0
VERTEX
  8
0
 10
26.586188
 20
10.0
 30
0.0
  0
VERTEX
  8
0
 10
26.636188
 20
10.0
 30
0.0
  0
VERTEX
  8
0
 10
26.686188
 20
10.0
 30
0.0
  0
VERTEX
  8
0
 10
26.736188
 20
10.0
 30
0.0
  0
VERTEX
  8
0
 10
26.786188
 20
10.0
 30
0.0
  0
VERTEX
  8
0
 10
26.836188
 20
10.0
 30
0.0
  0
VERTEX
  8
0
 10
26.886188
 20
10.0
 30
0.0
  0
VERTEX
  8
0
 10
26.936188
 20
10.0
 30
0.0
  0
VERTEX
  8
0
 10
26.986188
 20
10.0
 30
0.0
  0
VERTEX
  8
0
 10
27.036188
 20
10.0
 30
0.0
  0
VERTEX
  8
0
 10
27.086188
 20
10.0
 30
0.0
  0
VERTEX
  8
0
 10
27.136188
 20
10.0
 30
0.0
  0
VERTEX
  8
0
 10
27.186188
 20
10.0
 30
0.0
  0
VERTEX
  8
0
 10
27.236188
 20
10.0
 30
0.0
  0
VERTEX
  8
0
 10
27.286188
 20
10.0
 30
0.0
  0
VERTEX
  8
0
 10
27.336188
 20
10.0
 30
0.0
  0
VERTEX
  8
0
 10
27.386188
 20
10.0
 30
0.0
  0
VERTEX
  8
0
 10
27.436188
 20
10.0
 30
0.0
  0
SEQEND
  8
0
  0
POLYLINE
  8
0
 62
0
 70
0
 66
1
 10
0.0
 20
0.0
 30
0.0
  0
VERTEX
  8
0
 10
33.894077
 20
10.0
 30
0.0
  0
VERTEX
  8
0
 10
33.844077
 20
10.0
 30
0.0
  0
VERTEX
  8
0
 10
33.794077
 20
10.0
 30
0.0
  0
VERTEX
  8
0
 10
33.744077
 20
10.0
 30
0.0
  0
VERTEX
  8
0
 10
33.694077
 20
10.0
 30
0.0
  0
VERTEX
  8
0
 10
33.644077
 20
10.0
 30
0.0
  0
VERTEX
  8
0
 10
33.594077
 20
10.0
 30
0.0
  0
VERTEX
  8
0
 10
33.544077
 20
10.0
 30
0.0
  0
VERTEX
  8
0
 10
33.494077
 20
10.0
 30
0.0
  0
VERTEX
  8
0
 10
33.444077
 20
10.0
 30
0.0
  0
VERTEX
  8
0
 10
33.394077
 20
10.0
 30
0.0
  0
VERTEX
  8
0
 10
33.344077
 20
10.0
 30
0.0
  0
VERTEX
  8
0
 10
33.294077
 20
10.0
 30
0.0
  0
VERTEX
  8
0
 10
33.244077
 20
10.0
 30
0.0
  0
VERTEX
  8
0
 10
33.194077
 20
10.0
 30
0.0
  0
VERTEX
  8
0
 10
33.144077
 20
10.0
 30
0.0
  0
VERTEX
  8
0
 10
33.094077
 20
10.0
 30
0.0
  0
VERTEX
  8
0
 10
33.061188
 20
10.0
 30
0.0
  0
SEQEND
  8
0
  0
POLYLINE
  8
0
 62
0
 70
0
 66
1
 10
0.0
 20
0.0
 30
0.0
  0
VERTEX
  8
0
 10
25.027588
 20
6.0
 30
0.0
  0
VERTEX
  8
0
 10
24.977588
 20
6.0
 30
0.0
  0
VERTEX
  8
0
 10
24.927588
 20
6.0
 30
0.0
  0
VERTEX
  8
0
 10
24.877588
 20
6.0
 30
0.0
  0
VERTEX
  8
0
 10
24.827588
 20
6.0
 30
0.0
  0
VERTEX
  8
0
 10
24.777588
 20
6.0
 30
0.0
  0
VERTEX
  8
0
 10
24.727588
 20
6.0
 30
0.0
  0
VERTEX
  8
0
 10
24.677588
 20
6.0
 30
0.0
  0
VERTEX
  8
0
 10
24.627588
 20
6.0
 30
0.0
  0
VERTEX
  8
0
 10
24.577588
 20
6.0
 30
0.0
  0
VERTEX
  8
0
 10
24.527588
 20
6.0
 30
0.0
  0
VERTEX
  8
0
 10
24.477588
 20
6.0
 30
0.0
  0
VERTEX
  8
0
 10
24.436188
 20
6.0
 30
0.0
  0
SEQEND
  8
0
  0
LINE
  8
0
 62
0
 10
20.0
 20
2.86437540353e-14
 30
0.0
 11
20.0
 21
10.0
 31
0.0
  0
LINE
  8
0
 62
0
 10
40.0
 20
8.3163699202e-15
 30
0.0
 11
39.4738198662
 21
8.3163699202e-15
 31
0.0
  0
LINE
  8
0
 62
0
 10
40.0
 20
1.11890719964e-14
 30
0.0
 11
39.4738198662
 21
1.11890719964e-14
 31
0.0
  0
LINE
  8
0
 62
0
 10
40.0
 20
2.6645352591e-14
 30
0.0
 11
34.811188
 21
2.71638190608e-14
 31
0.0
  0
LINE
  8
0
 62
0
 10
33.061188
 20
2.73386791871e-14
 30
0.0
 11
27.436188
 21
2.79007295934e-14
 31
0.0
  0
LINE
  8
0
 62
0
 10
24.436188
 20
2.820048981e-14
 30
0.0
 11
20.0
 21
2.86437540353e-14
 31
0.0
  0
LINE
  8
0
 62
0
 10
40.0
 20
10.0
 30
0.0
 11
34.811188
 21
10.0
 31
0.0
  0
LINE
  8
0
 62
0
 10
33.061188
 20
10.0
 30
0.0
 11
27.436188
 21
10.0
 31
0.0
  0
LINE
  8
0
 62
0
 10
24.436188
 20
10.0
 30
0.0
 11
20.0
 21
10.0
 31
0.0
  0
LINE
  8
0
 62
0
 10
24.436188
 20
10.0
 30
0.0
 11
24.436188
 21
2.11503673575e-14
 31
0.0
  0
LINE
  8
0
 62
0
 10
40.0
 20
2.6645352591e-14
 30
0.0
 11
40.0
 21
10.0
 31
0.0
  0
LINE
  8
0
 62
0
 10
34.811188
 20
10.0
 30
0.0
 11
34.811188
 21
2.03728642956e-14
 31
0.0
  0
LINE
  8
0
 62
0
 10
34.811188
 20
1.34591854328e-14
 30
0.0
 11
34.811188
 21
10.0
 31
0.0
  0
LINE
  8
0
 62
0
 10
33.061188
 20
10.0
 30
0.0
 11
33.061188
 21
2.05040093904e-14
 31
0.0
  0
LINE
  8
0
 62
0
 10
27.436188
 20
10.0
 30
0.0
 11
27.436188
 21
2.0925547195e-14
 31
0.0
  0
LINE
  8
0
 62
0
 10
27.436188
 20
1.38240795478e-14
 30
0.0
 11
27.436188
 21
10.0
 31
0.0
  0
ENDBLK
  0
ENDSEC
  0
SECTION
  2
ENTITIES
  0
INSERT
  2
CUT
  8
0
 62
0
 10
0.0
 20
0.0
 30
0.0
  0
ENDSEC
  0
EOF
